  0
SECTION
  2
HEADER
  9
$ACADVER
  1
AC1018
  9
$INSBASE
 10
0.0
 20
0.0
 30
0.0
  9
$EXTMIN
 10
-0.005
 20
-0.2475
 30
0.0
  9
$EXTMAX
 10
5.2395
 20
2.505
 30
0.0
  9
$LIMMIN
 10
-0.005
 20
-0.2475
  9
$LIMMAX
 10
5.2395
 20
2.505
  9
$INSUNITS
 70
     4
  9
$HANDSEED
  5
   936
  0
ENDSEC
  0
SECTION
  2
CLASSES
  0
ENDSEC
  0
SECTION
  2
TABLES
  0
TABLE
  2
VPORT
  5
1
330
0
100
AcDbSymbolTable
 70
     0
  0
ENDTAB
  0
TABLE
  2
LTYPE
  5
2
330
0
100
AcDbSymbolTable
 70
     3
  0
LTYPE
  5
3
330
2
100
AcDbSymbolTableRecord
100
AcDbLinetypeTableRecord
  2
BYLAYER
 70
     0
  3
Continuous
 72
    65
 73
     0
 40
0.0
  0
LTYPE
  5
4
330
2
100
AcDbSymbolTableRecord
100
AcDbLinetypeTableRecord
  2
BYBLOCK
 70
     0
  3
Continuous
 72
    65
 73
     0
 40
0.0
  0
LTYPE
  5
5
330
2
100
AcDbSymbolTableRecord
100
AcDbLinetypeTableRecord
  2
CONTINUOUS
 70
     0
  3
Continuous
 72
    65
 73
     0
 40
0.0
  0
ENDTAB
  0
TABLE
  2
LAYER
  5
6
330
0
100
AcDbSymbolTable
 70
     3
  0
LAYER
  5
7
330
6
100
AcDbSymbolTableRecord
100
AcDbLayerTableRecord
  2
0
 70
     0
 62
     7
  6
CONTINUOUS
370
     0
390
     0
  0
LAYER
  5
8
330
6
100
AcDbSymbolTableRecord
100
AcDbLayerTableRecord
  2
10224-1_DRD
 70
     0
 62
    16
  6
CONTINUOUS
370
     0
390
     0
  0
LAYER
  5
9
330
6
100
AcDbSymbolTableRecord
100
AcDbLayerTableRecord
  2
10224-1_SMT
 70
     0
 62
    90
  6
CONTINUOUS
370
     0
390
     0
  0
ENDTAB
  0
TABLE
  2
STYLE
  5
A
330
0
100
AcDbSymbolTable
 70
     1
  0
STYLE
  5
B
330
A
100
AcDbSymbolTableRecord
100
AcDbTextStyleTableRecord
  2
SIMPLE
 70
     0
 40
0.0
 41
1.0
 50
0.0
 71
     0
 42
0.2
  3
Simple
  4

  0
ENDTAB
  0
TABLE
  2
VIEW
  5
C
330
0
100
AcDbSymbolTable
 70
     0
  0
ENDTAB
  0
TABLE
  2
UCS
  5
D
330
0
100
AcDbSymbolTable
 70
     0
  0
ENDTAB
  0
TABLE
  2
APPID
  5
E
330
0
100
AcDbSymbolTable
 70
     1
  0
APPID
  5
F
330
E
100
AcDbSymbolTableRecord
100
AcDbRegAppTableRecord
  2
ACAD
 70
     0
  0
ENDTAB
  0
TABLE
  2
DIMSTYLE
  5
10
330
0
100
AcDbSymbolTable
 70
     0
100
AcDbDimStyleTable
 71
     0
  0
ENDTAB
  0
TABLE
  2
BLOCK_RECORD
  5
11
330
0
100
AcDbSymbolTable
 70
    52
  0
BLOCK_RECORD
  5
12
330
11
100
AcDbSymbolTableRecord
100
AcDbBlockTableRecord
  2
*Model_Space
340
49
  0
BLOCK_RECORD
  5
13
330
11
100
AcDbSymbolTableRecord
100
AcDbBlockTableRecord
  2
*Paper_Space
340
4A
  0
BLOCK_RECORD
  5
14
330
11
100
AcDbSymbolTableRecord
100
AcDbBlockTableRecord
  2
ROUND_1
340
0
  0
BLOCK_RECORD
  5
15
330
11
100
AcDbSymbolTableRecord
100
AcDbBlockTableRecord
  2
ROUND_2
340
0
  0
BLOCK_RECORD
  5
16
330
11
100
AcDbSymbolTableRecord
100
AcDbBlockTableRecord
  2
ROUND_3
340
0
  0
BLOCK_RECORD
  5
17
330
11
100
AcDbSymbolTableRecord
100
AcDbBlockTableRecord
  2
ROUND_4
340
0
  0
BLOCK_RECORD
  5
18
330
11
100
AcDbSymbolTableRecord
100
AcDbBlockTableRecord
  2
RECTANGLE_5
340
0
  0
BLOCK_RECORD
  5
19
330
11
100
AcDbSymbolTableRecord
100
AcDbBlockTableRecord
  2
ROUND_6
340
0
  0
BLOCK_RECORD
  5
1A
330
11
100
AcDbSymbolTableRecord
100
AcDbBlockTableRecord
  2
RECTANGLE_7
340
0
  0
BLOCK_RECORD
  5
1B
330
11
100
AcDbSymbolTableRecord
100
AcDbBlockTableRecord
  2
RECTANGLE_8
340
0
  0
BLOCK_RECORD
  5
1C
330
11
100
AcDbSymbolTableRecord
100
AcDbBlockTableRecord
  2
ROUND_9
340
0
  0
BLOCK_RECORD
  5
1D
330
11
100
AcDbSymbolTableRecord
100
AcDbBlockTableRecord
  2
RECTANGLE_10
340
0
  0
BLOCK_RECORD
  5
1E
330
11
100
AcDbSymbolTableRecord
100
AcDbBlockTableRecord
  2
ROUND_13
340
0
  0
BLOCK_RECORD
  5
1F
330
11
100
AcDbSymbolTableRecord
100
AcDbBlockTableRecord
  2
ROUND_14
340
0
  0
BLOCK_RECORD
  5
20
330
11
100
AcDbSymbolTableRecord
100
AcDbBlockTableRecord
  2
RECTANGLE_15
340
0
  0
BLOCK_RECORD
  5
21
330
11
100
AcDbSymbolTableRecord
100
AcDbBlockTableRecord
  2
RECTANGLE_16
340
0
  0
BLOCK_RECORD
  5
22
330
11
100
AcDbSymbolTableRecord
100
AcDbBlockTableRecord
  2
SQUARE_17
340
0
  0
BLOCK_RECORD
  5
23
330
11
100
AcDbSymbolTableRecord
100
AcDbBlockTableRecord
  2
SQUARE_18
340
0
  0
BLOCK_RECORD
  5
24
330
11
100
AcDbSymbolTableRecord
100
AcDbBlockTableRecord
  2
RECTANGLE_19
340
0
  0
BLOCK_RECORD
  5
25
330
11
100
AcDbSymbolTableRecord
100
AcDbBlockTableRecord
  2
RECTANGLE_20
340
0
  0
BLOCK_RECORD
  5
26
330
11
100
AcDbSymbolTableRecord
100
AcDbBlockTableRecord
  2
RECTANGLE_21
340
0
  0
BLOCK_RECORD
  5
27
330
11
100
AcDbSymbolTableRecord
100
AcDbBlockTableRecord
  2
RECTANGLE_22
340
0
  0
BLOCK_RECORD
  5
28
330
11
100
AcDbSymbolTableRecord
100
AcDbBlockTableRecord
  2
RECTANGLE_25
340
0
  0
BLOCK_RECORD
  5
29
330
11
100
AcDbSymbolTableRecord
100
AcDbBlockTableRecord
  2
RECTANGLE_26
340
0
  0
BLOCK_RECORD
  5
2A
330
11
100
AcDbSymbolTableRecord
100
AcDbBlockTableRecord
  2
RECTANGLE_27
340
0
  0
BLOCK_RECORD
  5
2B
330
11
100
AcDbSymbolTableRecord
100
AcDbBlockTableRecord
  2
OBLONG_28
340
0
  0
BLOCK_RECORD
  5
2C
330
11
100
AcDbSymbolTableRecord
100
AcDbBlockTableRecord
  2
RECTANGLE_29
340
0
  0
BLOCK_RECORD
  5
2D
330
11
100
AcDbSymbolTableRecord
100
AcDbBlockTableRecord
  2
RECTANGLE_30
340
0
  0
BLOCK_RECORD
  5
2E
330
11
100
AcDbSymbolTableRecord
100
AcDbBlockTableRecord
  2
RECTANGLE_31
340
0
  0
BLOCK_RECORD
  5
2F
330
11
100
AcDbSymbolTableRecord
100
AcDbBlockTableRecord
  2
ROUND_32
340
0
  0
BLOCK_RECORD
  5
30
330
11
100
AcDbSymbolTableRecord
100
AcDbBlockTableRecord
  2
RECTANGLE_33
340
0
  0
BLOCK_RECORD
  5
31
330
11
100
AcDbSymbolTableRecord
100
AcDbBlockTableRecord
  2
ROUND_34
340
0
  0
BLOCK_RECORD
  5
32
330
11
100
AcDbSymbolTableRecord
100
AcDbBlockTableRecord
  2
ROUND_35
340
0
  0
BLOCK_RECORD
  5
33
330
11
100
AcDbSymbolTableRecord
100
AcDbBlockTableRecord
  2
ROUND_36
340
0
  0
BLOCK_RECORD
  5
34
330
11
100
AcDbSymbolTableRecord
100
AcDbBlockTableRecord
  2
ROUND_37
340
0
  0
BLOCK_RECORD
  5
35
330
11
100
AcDbSymbolTableRecord
100
AcDbBlockTableRecord
  2
ROUND_38
340
0
  0
BLOCK_RECORD
  5
36
330
11
100
AcDbSymbolTableRecord
100
AcDbBlockTableRecord
  2
ROUND_39
340
0
  0
BLOCK_RECORD
  5
37
330
11
100
AcDbSymbolTableRecord
100
AcDbBlockTableRecord
  2
ROUND_40
340
0
  0
BLOCK_RECORD
  5
38
330
11
100
AcDbSymbolTableRecord
100
AcDbBlockTableRecord
  2
ROUND_41
340
0
  0
BLOCK_RECORD
  5
39
330
11
100
AcDbSymbolTableRecord
100
AcDbBlockTableRecord
  2
ROUND_42
340
0
  0
BLOCK_RECORD
  5
3A
330
11
100
AcDbSymbolTableRecord
100
AcDbBlockTableRecord
  2
ROUND_43
340
0
  0
BLOCK_RECORD
  5
3B
330
11
100
AcDbSymbolTableRecord
100
AcDbBlockTableRecord
  2
ROUND_44
340
0
  0
BLOCK_RECORD
  5
3C
330
11
100
AcDbSymbolTableRecord
100
AcDbBlockTableRecord
  2
ROUND_45
340
0
  0
BLOCK_RECORD
  5
3D
330
11
100
AcDbSymbolTableRecord
100
AcDbBlockTableRecord
  2
ROUND_46
340
0
  0
BLOCK_RECORD
  5
3E
330
11
100
AcDbSymbolTableRecord
100
AcDbBlockTableRecord
  2
ROUND_47
340
0
  0
BLOCK_RECORD
  5
3F
330
11
100
AcDbSymbolTableRecord
100
AcDbBlockTableRecord
  2
ROUND_48
340
0
  0
BLOCK_RECORD
  5
40
330
11
100
AcDbSymbolTableRecord
100
AcDbBlockTableRecord
  2
ROUND_49
340
0
  0
BLOCK_RECORD
  5
41
330
11
100
AcDbSymbolTableRecord
100
AcDbBlockTableRecord
  2
ROUND_50
340
0
  0
BLOCK_RECORD
  5
42
330
11
100
AcDbSymbolTableRecord
100
AcDbBlockTableRecord
  2
ROUND_51
340
0
  0
BLOCK_RECORD
  5
43
330
11
100
AcDbSymbolTableRecord
100
AcDbBlockTableRecord
  2
ROUND_52
340
0
  0
BLOCK_RECORD
  5
44
330
11
100
AcDbSymbolTableRecord
100
AcDbBlockTableRecord
  2
RECTANGLE_55
340
0
  0
BLOCK_RECORD
  5
45
330
11
100
AcDbSymbolTableRecord
100
AcDbBlockTableRecord
  2
ROUND_71
340
0
  0
ENDTAB
  0
ENDSEC
  0
SECTION
  2
BLOCKS
  0
BLOCK
  5
4C
330
12
100
AcDbEntity
  8
0
100
AcDbBlockBegin
  2
*Model_Space
 70
     0
 10
0.0
 20
0.0
 30
0.0
  3
*Model_Space
  1

  0
ENDBLK
  5
4D
330
12
100
AcDbEntity
  8
0
100
AcDbBlockEnd
  0
BLOCK
  5
4E
330
13
100
AcDbEntity
  8
0
100
AcDbBlockBegin
  2
*Paper_Space
 70
     0
 10
0.0
 20
0.0
 30
0.0
  3
*Paper_Space
  1

  0
ENDBLK
  5
4F
330
13
100
AcDbEntity
  8
0
100
AcDbBlockEnd
  0
BLOCK
  5
50
330
14
100
AcDbEntity
  8
0
100
AcDbBlockBegin
  2
ROUND_1
 70
     0
 10
0.0
 20
0.0
 30
0.0
  3
ROUND_1
  1

  0
HATCH
  5
52
330
14
100
AcDbEntity
  8
0
100
AcDbHatch
 10
0.0
 20
0.0
 30
0.0
210
0.0
220
0.0
230
1.0
  2
SOLID
 70
     1
 71
     0
 91
     1
 92
     0
 93
     1
 72
     2
 10
0.0
 20
0.0
 40
0.135
 50
0.0
 51
360.0
 73
     1
 97
     0
 75
     0
 76
     1
 98
     1
 10
0.0
 20
0.0
  0
ENDBLK
  5
51
330
14
100
AcDbEntity
  8
0
100
AcDbBlockEnd
  0
BLOCK
  5
53
330
15
100
AcDbEntity
  8
0
100
AcDbBlockBegin
  2
ROUND_2
 70
     0
 10
0.0
 20
0.0
 30
0.0
  3
ROUND_2
  1

  0
HATCH
  5
55
330
15
100
AcDbEntity
  8
0
100
AcDbHatch
 10
0.0
 20
0.0
 30
0.0
210
0.0
220
0.0
230
1.0
  2
SOLID
 70
     1
 71
     0
 91
     1
 92
     0
 93
     1
 72
     2
 10
0.0
 20
0.0
 40
0.0125
 50
0.0
 51
360.0
 73
     1
 97
     0
 75
     0
 76
     1
 98
     1
 10
0.0
 20
0.0
  0
ENDBLK
  5
54
330
15
100
AcDbEntity
  8
0
100
AcDbBlockEnd
  0
BLOCK
  5
56
330
16
100
AcDbEntity
  8
0
100
AcDbBlockBegin
  2
ROUND_3
 70
     0
 10
0.0
 20
0.0
 30
0.0
  3
ROUND_3
  1

  0
HATCH
  5
58
330
16
100
AcDbEntity
  8
0
100
AcDbHatch
 10
0.0
 20
0.0
 30
0.0
210
0.0
220
0.0
230
1.0
  2
SOLID
 70
     1
 71
     0
 91
     1
 92
     0
 93
     1
 72
     2
 10
0.0
 20
0.0
 40
0.0625
 50
0.0
 51
360.0
 73
     1
 97
     0
 75
     0
 76
     1
 98
     1
 10
0.0
 20
0.0
  0
ENDBLK
  5
57
330
16
100
AcDbEntity
  8
0
100
AcDbBlockEnd
  0
BLOCK
  5
59
330
17
100
AcDbEntity
  8
0
100
AcDbBlockBegin
  2
ROUND_4
 70
     0
 10
0.0
 20
0.0
 30
0.0
  3
ROUND_4
  1

  0
HATCH
  5
5B
330
17
100
AcDbEntity
  8
0
100
AcDbHatch
 10
0.0
 20
0.0
 30
0.0
210
0.0
220
0.0
230
1.0
  2
SOLID
 70
     1
 71
     0
 91
     1
 92
     0
 93
     1
 72
     2
 10
0.0
 20
0.0
 40
0.019
 50
0.0
 51
360.0
 73
     1
 97
     0
 75
     0
 76
     1
 98
     1
 10
0.0
 20
0.0
  0
ENDBLK
  5
5A
330
17
100
AcDbEntity
  8
0
100
AcDbBlockEnd
  0
BLOCK
  5
5C
330
18
100
AcDbEntity
  8
0
100
AcDbBlockBegin
  2
RECTANGLE_5
 70
     0
 10
0.0
 20
0.0
 30
0.0
  3
RECTANGLE_5
  1

  0
SOLID
  5
5E
330
18
100
AcDbEntity
  8
0
  6
BYLAYER
 62
   256
100
AcDbTrace
 10
0.05
 20
0.2325
 30
0.0
 11
0.05
 21
-0.2325
 31
0.0
 12
-0.05
 22
0.2325
 32
0.0
 13
-0.05
 23
-0.2325
 33
0.0
  0
ENDBLK
  5
5D
330
18
100
AcDbEntity
  8
0
100
AcDbBlockEnd
  0
BLOCK
  5
5F
330
19
100
AcDbEntity
  8
0
100
AcDbBlockBegin
  2
ROUND_6
 70
     0
 10
0.0
 20
0.0
 30
0.0
  3
ROUND_6
  1

  0
HATCH
  5
61
330
19
100
AcDbEntity
  8
0
100
AcDbHatch
 10
0.0
 20
0.0
 30
0.0
210
0.0
220
0.0
230
1.0
  2
SOLID
 70
     1
 71
     0
 91
     1
 92
     0
 93
     1
 72
     2
 10
0.0
 20
0.0
 40
0.05
 50
0.0
 51
360.0
 73
     1
 97
     0
 75
     0
 76
     1
 98
     1
 10
0.0
 20
0.0
  0
ENDBLK
  5
60
330
19
100
AcDbEntity
  8
0
100
AcDbBlockEnd
  0
BLOCK
  5
62
330
1A
100
AcDbEntity
  8
0
100
AcDbBlockBegin
  2
RECTANGLE_7
 70
     0
 10
0.0
 20
0.0
 30
0.0
  3
RECTANGLE_7
  1

  0
SOLID
  5
64
330
1A
100
AcDbEntity
  8
0
  6
BYLAYER
 62
   256
100
AcDbTrace
 10
0.05
 20
0.0375
 30
0.0
 11
0.05
 21
-0.0375
 31
0.0
 12
-0.05
 22
0.0375
 32
0.0
 13
-0.05
 23
-0.0375
 33
0.0
  0
ENDBLK
  5
63
330
1A
100
AcDbEntity
  8
0
100
AcDbBlockEnd
  0
BLOCK
  5
65
330
1B
100
AcDbEntity
  8
0
100
AcDbBlockBegin
  2
RECTANGLE_8
 70
     0
 10
0.0
 20
0.0
 30
0.0
  3
RECTANGLE_8
  1

  0
SOLID
  5
67
330
1B
100
AcDbEntity
  8
0
  6
BYLAYER
 62
   256
100
AcDbTrace
 10
0.0375
 20
0.05
 30
0.0
 11
0.0375
 21
-0.05
 31
0.0
 12
-0.0375
 22
0.05
 32
0.0
 13
-0.0375
 23
-0.05
 33
0.0
  0
ENDBLK
  5
66
330
1B
100
AcDbEntity
  8
0
100
AcDbBlockEnd
  0
BLOCK
  5
68
330
1C
100
AcDbEntity
  8
0
100
AcDbBlockBegin
  2
ROUND_9
 70
     0
 10
0.0
 20
0.0
 30
0.0
  3
ROUND_9
  1

  0
HATCH
  5
6A
330
1C
100
AcDbEntity
  8
0
100
AcDbHatch
 10
0.0
 20
0.0
 30
0.0
210
0.0
220
0.0
230
1.0
  2
SOLID
 70
     1
 71
     0
 91
     1
 92
     0
 93
     1
 72
     2
 10
0.0
 20
0.0
 40
0.025
 50
0.0
 51
360.0
 73
     1
 97
     0
 75
     0
 76
     1
 98
     1
 10
0.0
 20
0.0
  0
ENDBLK
  5
69
330
1C
100
AcDbEntity
  8
0
100
AcDbBlockEnd
  0
BLOCK
  5
6B
330
1D
100
AcDbEntity
  8
0
100
AcDbBlockBegin
  2
RECTANGLE_10
 70
     0
 10
0.0
 20
0.0
 30
0.0
  3
RECTANGLE_10
  1

  0
SOLID
  5
6D
330
1D
100
AcDbEntity
  8
0
  6
BYLAYER
 62
   256
100
AcDbTrace
 10
0.1
 20
0.25
 30
0.0
 11
0.1
 21
-0.25
 31
0.0
 12
-0.1
 22
0.25
 32
0.0
 13
-0.1
 23
-0.25
 33
0.0
  0
ENDBLK
  5
6C
330
1D
100
AcDbEntity
  8
0
100
AcDbBlockEnd
  0
BLOCK
  5
6E
330
1E
100
AcDbEntity
  8
0
100
AcDbBlockBegin
  2
ROUND_13
 70
     0
 10
0.0
 20
0.0
 30
0.0
  3
ROUND_13
  1

  0
HATCH
  5
70
330
1E
100
AcDbEntity
  8
0
100
AcDbHatch
 10
0.0
 20
0.0
 30
0.0
210
0.0
220
0.0
230
1.0
  2
SOLID
 70
     1
 71
     0
 91
     1
 92
     0
 93
     1
 72
     2
 10
0.0
 20
0.0
 40
0.06
 50
0.0
 51
360.0
 73
     1
 97
     0
 75
     0
 76
     1
 98
     1
 10
0.0
 20
0.0
  0
ENDBLK
  5
6F
330
1E
100
AcDbEntity
  8
0
100
AcDbBlockEnd
  0
BLOCK
  5
71
330
1F
100
AcDbEntity
  8
0
100
AcDbBlockBegin
  2
ROUND_14
 70
     0
 10
0.0
 20
0.0
 30
0.0
  3
ROUND_14
  1

  0
HATCH
  5
73
330
1F
100
AcDbEntity
  8
0
100
AcDbHatch
 10
0.0
 20
0.0
 30
0.0
210
0.0
220
0.0
230
1.0
  2
SOLID
 70
     1
 71
     0
 91
     1
 92
     0
 93
     1
 72
     2
 10
0.0
 20
0.0
 40
0.0175
 50
0.0
 51
360.0
 73
     1
 97
     0
 75
     0
 76
     1
 98
     1
 10
0.0
 20
0.0
  0
ENDBLK
  5
72
330
1F
100
AcDbEntity
  8
0
100
AcDbBlockEnd
  0
BLOCK
  5
74
330
20
100
AcDbEntity
  8
0
100
AcDbBlockBegin
  2
RECTANGLE_15
 70
     0
 10
0.0
 20
0.0
 30
0.0
  3
RECTANGLE_15
  1

  0
SOLID
  5
76
330
20
100
AcDbEntity
  8
0
  6
BYLAYER
 62
   256
100
AcDbTrace
 10
0.0325
 20
0.0575
 30
0.0
 11
0.0325
 21
-0.0575
 31
0.0
 12
-0.0325
 22
0.0575
 32
0.0
 13
-0.0325
 23
-0.0575
 33
0.0
  0
ENDBLK
  5
75
330
20
100
AcDbEntity
  8
0
100
AcDbBlockEnd
  0
BLOCK
  5
77
330
21
100
AcDbEntity
  8
0
100
AcDbBlockBegin
  2
RECTANGLE_16
 70
     0
 10
0.0
 20
0.0
 30
0.0
  3
RECTANGLE_16
  1

  0
SOLID
  5
79
330
21
100
AcDbEntity
  8
0
  6
BYLAYER
 62
   256
100
AcDbTrace
 10
0.051
 20
0.036
 30
0.0
 11
0.051
 21
-0.036
 31
0.0
 12
-0.051
 22
0.036
 32
0.0
 13
-0.051
 23
-0.036
 33
0.0
  0
ENDBLK
  5
78
330
21
100
AcDbEntity
  8
0
100
AcDbBlockEnd
  0
BLOCK
  5
7A
330
22
100
AcDbEntity
  8
0
100
AcDbBlockBegin
  2
SQUARE_17
 70
     0
 10
0.0
 20
0.0
 30
0.0
  3
SQUARE_17
  1

  0
SOLID
  5
7C
330
22
100
AcDbEntity
  8
0
  6
BYLAYER
 62
   256
100
AcDbTrace
 10
0.025
 20
0.025
 30
0.0
 11
0.025
 21
-0.025
 31
0.0
 12
-0.025
 22
0.025
 32
0.0
 13
-0.025
 23
-0.025
 33
0.0
  0
ENDBLK
  5
7B
330
22
100
AcDbEntity
  8
0
100
AcDbBlockEnd
  0
BLOCK
  5
7D
330
23
100
AcDbEntity
  8
0
100
AcDbBlockBegin
  2
SQUARE_18
 70
     0
 10
0.0
 20
0.0
 30
0.0
  3
SQUARE_18
  1

  0
SOLID
  5
7F
330
23
100
AcDbEntity
  8
0
  6
BYLAYER
 62
   256
100
AcDbTrace
 10
0.03
 20
0.03
 30
0.0
 11
0.03
 21
-0.03
 31
0.0
 12
-0.03
 22
0.03
 32
0.0
 13
-0.03
 23
-0.03
 33
0.0
  0
ENDBLK
  5
7E
330
23
100
AcDbEntity
  8
0
100
AcDbBlockEnd
  0
BLOCK
  5
80
330
24
100
AcDbEntity
  8
0
100
AcDbBlockBegin
  2
RECTANGLE_19
 70
     0
 10
0.0
 20
0.0
 30
0.0
  3
RECTANGLE_19
  1

  0
SOLID
  5
82
330
24
100
AcDbEntity
  8
0
  6
BYLAYER
 62
   256
100
AcDbTrace
 10
0.0575
 20
0.0325
 30
0.0
 11
0.0575
 21
-0.0325
 31
0.0
 12
-0.0575
 22
0.0325
 32
0.0
 13
-0.0575
 23
-0.0325
 33
0.0
  0
ENDBLK
  5
81
330
24
100
AcDbEntity
  8
0
100
AcDbBlockEnd
  0
BLOCK
  5
83
330
25
100
AcDbEntity
  8
0
100
AcDbBlockBegin
  2
RECTANGLE_20
 70
     0
 10
0.0
 20
0.0
 30
0.0
  3
RECTANGLE_20
  1

  0
SOLID
  5
85
330
25
100
AcDbEntity
  8
0
  6
BYLAYER
 62
   256
100
AcDbTrace
 10
0.0425
 20
0.1125
 30
0.0
 11
0.0425
 21
-0.1125
 31
0.0
 12
-0.0425
 22
0.1125
 32
0.0
 13
-0.0425
 23
-0.1125
 33
0.0
  0
ENDBLK
  5
84
330
25
100
AcDbEntity
  8
0
100
AcDbBlockEnd
  0
BLOCK
  5
86
330
26
100
AcDbEntity
  8
0
100
AcDbBlockBegin
  2
RECTANGLE_21
 70
     0
 10
0.0
 20
0.0
 30
0.0
  3
RECTANGLE_21
  1

  0
SOLID
  5
88
330
26
100
AcDbEntity
  8
0
  6
BYLAYER
 62
   256
100
AcDbTrace
 10
0.03
 20
0.04
 30
0.0
 11
0.03
 21
-0.04
 31
0.0
 12
-0.03
 22
0.04
 32
0.0
 13
-0.03
 23
-0.04
 33
0.0
  0
ENDBLK
  5
87
330
26
100
AcDbEntity
  8
0
100
AcDbBlockEnd
  0
BLOCK
  5
89
330
27
100
AcDbEntity
  8
0
100
AcDbBlockBegin
  2
RECTANGLE_22
 70
     0
 10
0.0
 20
0.0
 30
0.0
  3
RECTANGLE_22
  1

  0
SOLID
  5
8B
330
27
100
AcDbEntity
  8
0
  6
BYLAYER
 62
   256
100
AcDbTrace
 10
0.2035
 20
0.065
 30
0.0
 11
0.2035
 21
-0.065
 31
0.0
 12
-0.2035
 22
0.065
 32
0.0
 13
-0.2035
 23
-0.065
 33
0.0
  0
ENDBLK
  5
8A
330
27
100
AcDbEntity
  8
0
100
AcDbBlockEnd
  0
BLOCK
  5
8C
330
28
100
AcDbEntity
  8
0
100
AcDbBlockBegin
  2
RECTANGLE_25
 70
     0
 10
0.0
 20
0.0
 30
0.0
  3
RECTANGLE_25
  1

  0
SOLID
  5
8E
330
28
100
AcDbEntity
  8
0
  6
BYLAYER
 62
   256
100
AcDbTrace
 10
0.017
 20
0.02
 30
0.0
 11
0.017
 21
-0.02
 31
0.0
 12
-0.017
 22
0.02
 32
0.0
 13
-0.017
 23
-0.02
 33
0.0
  0
ENDBLK
  5
8D
330
28
100
AcDbEntity
  8
0
100
AcDbBlockEnd
  0
BLOCK
  5
8F
330
29
100
AcDbEntity
  8
0
100
AcDbBlockBegin
  2
RECTANGLE_26
 70
     0
 10
0.0
 20
0.0
 30
0.0
  3
RECTANGLE_26
  1

  0
SOLID
  5
91
330
29
100
AcDbEntity
  8
0
  6
BYLAYER
 62
   256
100
AcDbTrace
 10
0.017
 20
0.025
 30
0.0
 11
0.017
 21
-0.025
 31
0.0
 12
-0.017
 22
0.025
 32
0.0
 13
-0.017
 23
-0.025
 33
0.0
  0
ENDBLK
  5
90
330
29
100
AcDbEntity
  8
0
100
AcDbBlockEnd
  0
BLOCK
  5
92
330
2A
100
AcDbEntity
  8
0
100
AcDbBlockBegin
  2
RECTANGLE_27
 70
     0
 10
0.0
 20
0.0
 30
0.0
  3
RECTANGLE_27
  1

  0
SOLID
  5
94
330
2A
100
AcDbEntity
  8
0
  6
BYLAYER
 62
   256
100
AcDbTrace
 10
0.038
 20
0.06
 30
0.0
 11
0.038
 21
-0.06
 31
0.0
 12
-0.038
 22
0.06
 32
0.0
 13
-0.038
 23
-0.06
 33
0.0
  0
ENDBLK
  5
93
330
2A
100
AcDbEntity
  8
0
100
AcDbBlockEnd
  0
BLOCK
  5
95
330
2B
100
AcDbEntity
  8
0
100
AcDbBlockBegin
  2
OBLONG_28
 70
     0
 10
0.0
 20
0.0
 30
0.0
  3
OBLONG_28
  1

  0
LWPOLYLINE
  5
97
330
2B
100
AcDbEntity
  8
0
  6
BYLAYER
370
   211
 62
   256
100
AcDbPolyline
 90
     2
 70
     0
 43
0.024
 10
0.031
 20
0.0
 10
-0.031
 20
0.0
  0
LWPOLYLINE
  5
98
330
2B
100
AcDbEntity
  8
0
  6
BYLAYER
370
   211
 62
   256
100
AcDbPolyline
 90
     4
 70
     0
 43
0.012
 10
0.025
 20
0.0
 42
0.0
 10
0.025
 20
0.0
 42
1
 10
0.037
 20
0.0
 42
1
 10
0.025
 20
0.0
 42
0.0
  0
LWPOLYLINE
  5
99
330
2B
100
AcDbEntity
  8
0
  6
BYLAYER
370
   211
 62
   256
100
AcDbPolyline
 90
     4
 70
     0
 43
0.012
 10
-0.037
 20
0.0
 42
0.0
 10
-0.037
 20
0.0
 42
1
 10
-0.025
 20
0.0
 42
1
 10
-0.037
 20
0.0
 42
0.0
  0
ENDBLK
  5
96
330
2B
100
AcDbEntity
  8
0
100
AcDbBlockEnd
  0
BLOCK
  5
9A
330
2C
100
AcDbEntity
  8
0
100
AcDbBlockBegin
  2
RECTANGLE_29
 70
     0
 10
0.0
 20
0.0
 30
0.0
  3
RECTANGLE_29
  1

  0
SOLID
  5
9C
330
2C
100
AcDbEntity
  8
0
  6
BYLAYER
 62
   256
100
AcDbTrace
 10
0.043
 20
0.012
 30
0.0
 11
0.043
 21
-0.012
 31
0.0
 12
-0.043
 22
0.012
 32
0.0
 13
-0.043
 23
-0.012
 33
0.0
  0
ENDBLK
  5
9B
330
2C
100
AcDbEntity
  8
0
100
AcDbBlockEnd
  0
BLOCK
  5
9D
330
2D
100
AcDbEntity
  8
0
100
AcDbBlockBegin
  2
RECTANGLE_30
 70
     0
 10
0.0
 20
0.0
 30
0.0
  3
RECTANGLE_30
  1

  0
SOLID
  5
9F
330
2D
100
AcDbEntity
  8
0
  6
BYLAYER
 62
   256
100
AcDbTrace
 10
0.04
 20
0.0255
 30
0.0
 11
0.04
 21
-0.0255
 31
0.0
 12
-0.04
 22
0.0255
 32
0.0
 13
-0.04
 23
-0.0255
 33
0.0
  0
ENDBLK
  5
9E
330
2D
100
AcDbEntity
  8
0
100
AcDbBlockEnd
  0
BLOCK
  5
A0
330
2E
100
AcDbEntity
  8
0
100
AcDbBlockBegin
  2
RECTANGLE_31
 70
     0
 10
0.0
 20
0.0
 30
0.0
  3
RECTANGLE_31
  1

  0
SOLID
  5
A2
330
2E
100
AcDbEntity
  8
0
  6
BYLAYER
 62
   256
100
AcDbTrace
 10
0.045
 20
0.0395
 30
0.0
 11
0.045
 21
-0.0395
 31
0.0
 12
-0.045
 22
0.0395
 32
0.0
 13
-0.045
 23
-0.0395
 33
0.0
  0
ENDBLK
  5
A1
330
2E
100
AcDbEntity
  8
0
100
AcDbBlockEnd
  0
BLOCK
  5
A3
330
2F
100
AcDbEntity
  8
0
100
AcDbBlockBegin
  2
ROUND_32
 70
     0
 10
0.0
 20
0.0
 30
0.0
  3
ROUND_32
  1

  0
HATCH
  5
A5
330
2F
100
AcDbEntity
  8
0
100
AcDbHatch
 10
0.0
 20
0.0
 30
0.0
210
0.0
220
0.0
230
1.0
  2
SOLID
 70
     1
 71
     0
 91
     1
 92
     0
 93
     1
 72
     2
 10
0.0
 20
0.0
 40
0.02
 50
0.0
 51
360.0
 73
     1
 97
     0
 75
     0
 76
     1
 98
     1
 10
0.0
 20
0.0
  0
ENDBLK
  5
A4
330
2F
100
AcDbEntity
  8
0
100
AcDbBlockEnd
  0
BLOCK
  5
A6
330
30
100
AcDbEntity
  8
0
100
AcDbBlockBegin
  2
RECTANGLE_33
 70
     0
 10
0.0
 20
0.0
 30
0.0
  3
RECTANGLE_33
  1

  0
SOLID
  5
A8
330
30
100
AcDbEntity
  8
0
  6
BYLAYER
 62
   256
100
AcDbTrace
 10
0.095
 20
0.0325
 30
0.0
 11
0.095
 21
-0.0325
 31
0.0
 12
-0.095
 22
0.0325
 32
0.0
 13
-0.095
 23
-0.0325
 33
0.0
  0
ENDBLK
  5
A7
330
30
100
AcDbEntity
  8
0
100
AcDbBlockEnd
  0
BLOCK
  5
A9
330
31
100
AcDbEntity
  8
0
100
AcDbBlockBegin
  2
ROUND_34
 70
     0
 10
0.0
 20
0.0
 30
0.0
  3
ROUND_34
  1

  0
HATCH
  5
AB
330
31
100
AcDbEntity
  8
0
100
AcDbHatch
 10
0.0
 20
0.0
 30
0.0
210
0.0
220
0.0
230
1.0
  2
SOLID
 70
     1
 71
     0
 91
     1
 92
     0
 93
     1
 72
     2
 10
0.0
 20
0.0
 40
0.0005
 50
0.0
 51
360.0
 73
     1
 97
     0
 75
     0
 76
     1
 98
     1
 10
0.0
 20
0.0
  0
ENDBLK
  5
AA
330
31
100
AcDbEntity
  8
0
100
AcDbBlockEnd
  0
BLOCK
  5
AC
330
32
100
AcDbEntity
  8
0
100
AcDbBlockBegin
  2
ROUND_35
 70
     0
 10
0.0
 20
0.0
 30
0.0
  3
ROUND_35
  1

  0
HATCH
  5
AE
330
32
100
AcDbEntity
  8
0
100
AcDbHatch
 10
0.0
 20
0.0
 30
0.0
210
0.0
220
0.0
230
1.0
  2
SOLID
 70
     1
 71
     0
 91
     1
 92
     0
 93
     1
 72
     2
 10
0.0
 20
0.0
 40
0.005
 50
0.0
 51
360.0
 73
     1
 97
     0
 75
     0
 76
     1
 98
     1
 10
0.0
 20
0.0
  0
ENDBLK
  5
AD
330
32
100
AcDbEntity
  8
0
100
AcDbBlockEnd
  0
BLOCK
  5
AF
330
33
100
AcDbEntity
  8
0
100
AcDbBlockBegin
  2
ROUND_36
 70
     0
 10
0.0
 20
0.0
 30
0.0
  3
ROUND_36
  1

  0
HATCH
  5
B1
330
33
100
AcDbEntity
  8
0
100
AcDbHatch
 10
0.0
 20
0.0
 30
0.0
210
0.0
220
0.0
230
1.0
  2
SOLID
 70
     1
 71
     0
 91
     1
 92
     0
 93
     1
 72
     2
 10
0.0
 20
0.0
 40
0.0025
 50
0.0
 51
360.0
 73
     1
 97
     0
 75
     0
 76
     1
 98
     1
 10
0.0
 20
0.0
  0
ENDBLK
  5
B0
330
33
100
AcDbEntity
  8
0
100
AcDbBlockEnd
  0
BLOCK
  5
B2
330
34
100
AcDbEntity
  8
0
100
AcDbBlockBegin
  2
ROUND_37
 70
     0
 10
0.0
 20
0.0
 30
0.0
  3
ROUND_37
  1

  0
HATCH
  5
B4
330
34
100
AcDbEntity
  8
0
100
AcDbHatch
 10
0.0
 20
0.0
 30
0.0
210
0.0
220
0.0
230
1.0
  2
SOLID
 70
     1
 71
     0
 91
     1
 92
     0
 93
     1
 72
     2
 10
0.0
 20
0.0
 40
0.0075
 50
0.0
 51
360.0
 73
     1
 97
     0
 75
     0
 76
     1
 98
     1
 10
0.0
 20
0.0
  0
ENDBLK
  5
B3
330
34
100
AcDbEntity
  8
0
100
AcDbBlockEnd
  0
BLOCK
  5
B5
330
35
100
AcDbEntity
  8
0
100
AcDbBlockBegin
  2
ROUND_38
 70
     0
 10
0.0
 20
0.0
 30
0.0
  3
ROUND_38
  1

  0
HATCH
  5
B7
330
35
100
AcDbEntity
  8
0
100
AcDbHatch
 10
0.0
 20
0.0
 30
0.0
210
0.0
220
0.0
230
1.0
  2
SOLID
 70
     1
 71
     0
 91
     1
 92
     0
 93
     1
 72
     2
 10
0.0
 20
0.0
 40
0.004
 50
0.0
 51
360.0
 73
     1
 97
     0
 75
     0
 76
     1
 98
     1
 10
0.0
 20
0.0
  0
ENDBLK
  5
B6
330
35
100
AcDbEntity
  8
0
100
AcDbBlockEnd
  0
BLOCK
  5
B8
330
36
100
AcDbEntity
  8
0
100
AcDbBlockBegin
  2
ROUND_39
 70
     0
 10
0.0
 20
0.0
 30
0.0
  3
ROUND_39
  1

  0
HATCH
  5
BA
330
36
100
AcDbEntity
  8
0
100
AcDbHatch
 10
0.0
 20
0.0
 30
0.0
210
0.0
220
0.0
230
1.0
  2
SOLID
 70
     1
 71
     0
 91
     1
 92
     0
 93
     1
 72
     2
 10
0.0
 20
0.0
 40
0.025
 50
0.0
 51
360.0
 73
     1
 97
     0
 75
     0
 76
     1
 98
     1
 10
0.0
 20
0.0
  0
ENDBLK
  5
B9
330
36
100
AcDbEntity
  8
0
100
AcDbBlockEnd
  0
BLOCK
  5
BB
330
37
100
AcDbEntity
  8
0
100
AcDbBlockBegin
  2
ROUND_40
 70
     0
 10
0.0
 20
0.0
 30
0.0
  3
ROUND_40
  1

  0
HATCH
  5
BD
330
37
100
AcDbEntity
  8
0
100
AcDbHatch
 10
0.0
 20
0.0
 30
0.0
210
0.0
220
0.0
230
1.0
  2
SOLID
 70
     1
 71
     0
 91
     1
 92
     0
 93
     1
 72
     2
 10
0.0
 20
0.0
 40
0.01
 50
0.0
 51
360.0
 73
     1
 97
     0
 75
     0
 76
     1
 98
     1
 10
0.0
 20
0.0
  0
ENDBLK
  5
BC
330
37
100
AcDbEntity
  8
0
100
AcDbBlockEnd
  0
BLOCK
  5
BE
330
38
100
AcDbEntity
  8
0
100
AcDbBlockBegin
  2
ROUND_41
 70
     0
 10
0.0
 20
0.0
 30
0.0
  3
ROUND_41
  1

  0
HATCH
  5
C0
330
38
100
AcDbEntity
  8
0
100
AcDbHatch
 10
0.0
 20
0.0
 30
0.0
210
0.0
220
0.0
230
1.0
  2
SOLID
 70
     1
 71
     0
 91
     1
 92
     0
 93
     1
 72
     2
 10
0.0
 20
0.0
 40
0.015
 50
0.0
 51
360.0
 73
     1
 97
     0
 75
     0
 76
     1
 98
     1
 10
0.0
 20
0.0
  0
ENDBLK
  5
BF
330
38
100
AcDbEntity
  8
0
100
AcDbBlockEnd
  0
BLOCK
  5
C1
330
39
100
AcDbEntity
  8
0
100
AcDbBlockBegin
  2
ROUND_42
 70
     0
 10
0.0
 20
0.0
 30
0.0
  3
ROUND_42
  1

  0
HATCH
  5
C3
330
39
100
AcDbEntity
  8
0
100
AcDbHatch
 10
0.0
 20
0.0
 30
0.0
210
0.0
220
0.0
230
1.0
  2
SOLID
 70
     1
 71
     0
 91
     1
 92
     0
 93
     1
 72
     2
 10
0.0
 20
0.0
 40
0.0125
 50
0.0
 51
360.0
 73
     1
 97
     0
 75
     0
 76
     1
 98
     1
 10
0.0
 20
0.0
  0
ENDBLK
  5
C2
330
39
100
AcDbEntity
  8
0
100
AcDbBlockEnd
  0
BLOCK
  5
C4
330
3A
100
AcDbEntity
  8
0
100
AcDbBlockBegin
  2
ROUND_43
 70
     0
 10
0.0
 20
0.0
 30
0.0
  3
ROUND_43
  1

  0
HATCH
  5
C6
330
3A
100
AcDbEntity
  8
0
100
AcDbHatch
 10
0.0
 20
0.0
 30
0.0
210
0.0
220
0.0
230
1.0
  2
SOLID
 70
     1
 71
     0
 91
     1
 92
     0
 93
     1
 72
     2
 10
0.0
 20
0.0
 40
0.02
 50
0.0
 51
360.0
 73
     1
 97
     0
 75
     0
 76
     1
 98
     1
 10
0.0
 20
0.0
  0
ENDBLK
  5
C5
330
3A
100
AcDbEntity
  8
0
100
AcDbBlockEnd
  0
BLOCK
  5
C7
330
3B
100
AcDbEntity
  8
0
100
AcDbBlockBegin
  2
ROUND_44
 70
     0
 10
0.0
 20
0.0
 30
0.0
  3
ROUND_44
  1

  0
HATCH
  5
C9
330
3B
100
AcDbEntity
  8
0
100
AcDbHatch
 10
0.0
 20
0.0
 30
0.0
210
0.0
220
0.0
230
1.0
  2
SOLID
 70
     1
 71
     0
 91
     1
 92
     0
 93
     1
 72
     2
 10
0.0
 20
0.0
 40
0.006
 50
0.0
 51
360.0
 73
     1
 97
     0
 75
     0
 76
     1
 98
     1
 10
0.0
 20
0.0
  0
ENDBLK
  5
C8
330
3B
100
AcDbEntity
  8
0
100
AcDbBlockEnd
  0
BLOCK
  5
CA
330
3C
100
AcDbEntity
  8
0
100
AcDbBlockBegin
  2
ROUND_45
 70
     0
 10
0.0
 20
0.0
 30
0.0
  3
ROUND_45
  1

  0
HATCH
  5
CC
330
3C
100
AcDbEntity
  8
0
100
AcDbHatch
 10
0.0
 20
0.0
 30
0.0
210
0.0
220
0.0
230
1.0
  2
SOLID
 70
     1
 71
     0
 91
     1
 92
     0
 93
     1
 72
     2
 10
0.0
 20
0.0
 40
0.135
 50
0.0
 51
360.0
 73
     1
 97
     0
 75
     0
 76
     1
 98
     1
 10
0.0
 20
0.0
  0
ENDBLK
  5
CB
330
3C
100
AcDbEntity
  8
0
100
AcDbBlockEnd
  0
BLOCK
  5
CD
330
3D
100
AcDbEntity
  8
0
100
AcDbBlockBegin
  2
ROUND_46
 70
     0
 10
0.0
 20
0.0
 30
0.0
  3
ROUND_46
  1

  0
HATCH
  5
CF
330
3D
100
AcDbEntity
  8
0
100
AcDbHatch
 10
0.0
 20
0.0
 30
0.0
210
0.0
220
0.0
230
1.0
  2
SOLID
 70
     1
 71
     0
 91
     1
 92
     0
 93
     1
 72
     2
 10
0.0
 20
0.0
 40
0.0125
 50
0.0
 51
360.0
 73
     1
 97
     0
 75
     0
 76
     1
 98
     1
 10
0.0
 20
0.0
  0
ENDBLK
  5
CE
330
3D
100
AcDbEntity
  8
0
100
AcDbBlockEnd
  0
BLOCK
  5
D0
330
3E
100
AcDbEntity
  8
0
100
AcDbBlockBegin
  2
ROUND_47
 70
     0
 10
0.0
 20
0.0
 30
0.0
  3
ROUND_47
  1

  0
HATCH
  5
D2
330
3E
100
AcDbEntity
  8
0
100
AcDbHatch
 10
0.0
 20
0.0
 30
0.0
210
0.0
220
0.0
230
1.0
  2
SOLID
 70
     1
 71
     0
 91
     1
 92
     0
 93
     1
 72
     2
 10
0.0
 20
0.0
 40
0.0625
 50
0.0
 51
360.0
 73
     1
 97
     0
 75
     0
 76
     1
 98
     1
 10
0.0
 20
0.0
  0
ENDBLK
  5
D1
330
3E
100
AcDbEntity
  8
0
100
AcDbBlockEnd
  0
BLOCK
  5
D3
330
3F
100
AcDbEntity
  8
0
100
AcDbBlockBegin
  2
ROUND_48
 70
     0
 10
0.0
 20
0.0
 30
0.0
  3
ROUND_48
  1

  0
HATCH
  5
D5
330
3F
100
AcDbEntity
  8
0
100
AcDbHatch
 10
0.0
 20
0.0
 30
0.0
210
0.0
220
0.0
230
1.0
  2
SOLID
 70
     1
 71
     0
 91
     1
 92
     0
 93
     1
 72
     2
 10
0.0
 20
0.0
 40
0.019
 50
0.0
 51
360.0
 73
     1
 97
     0
 75
     0
 76
     1
 98
     1
 10
0.0
 20
0.0
  0
ENDBLK
  5
D4
330
3F
100
AcDbEntity
  8
0
100
AcDbBlockEnd
  0
BLOCK
  5
D6
330
40
100
AcDbEntity
  8
0
100
AcDbBlockBegin
  2
ROUND_49
 70
     0
 10
0.0
 20
0.0
 30
0.0
  3
ROUND_49
  1

  0
HATCH
  5
D8
330
40
100
AcDbEntity
  8
0
100
AcDbHatch
 10
0.0
 20
0.0
 30
0.0
210
0.0
220
0.0
230
1.0
  2
SOLID
 70
     1
 71
     0
 91
     1
 92
     0
 93
     1
 72
     2
 10
0.0
 20
0.0
 40
0.05
 50
0.0
 51
360.0
 73
     1
 97
     0
 75
     0
 76
     1
 98
     1
 10
0.0
 20
0.0
  0
ENDBLK
  5
D7
330
40
100
AcDbEntity
  8
0
100
AcDbBlockEnd
  0
BLOCK
  5
D9
330
41
100
AcDbEntity
  8
0
100
AcDbBlockBegin
  2
ROUND_50
 70
     0
 10
0.0
 20
0.0
 30
0.0
  3
ROUND_50
  1

  0
HATCH
  5
DB
330
41
100
AcDbEntity
  8
0
100
AcDbHatch
 10
0.0
 20
0.0
 30
0.0
210
0.0
220
0.0
230
1.0
  2
SOLID
 70
     1
 71
     0
 91
     1
 92
     0
 93
     1
 72
     2
 10
0.0
 20
0.0
 40
0.06
 50
0.0
 51
360.0
 73
     1
 97
     0
 75
     0
 76
     1
 98
     1
 10
0.0
 20
0.0
  0
ENDBLK
  5
DA
330
41
100
AcDbEntity
  8
0
100
AcDbBlockEnd
  0
BLOCK
  5
DC
330
42
100
AcDbEntity
  8
0
100
AcDbBlockBegin
  2
ROUND_51
 70
     0
 10
0.0
 20
0.0
 30
0.0
  3
ROUND_51
  1

  0
HATCH
  5
DE
330
42
100
AcDbEntity
  8
0
100
AcDbHatch
 10
0.0
 20
0.0
 30
0.0
210
0.0
220
0.0
230
1.0
  2
SOLID
 70
     1
 71
     0
 91
     1
 92
     0
 93
     1
 72
     2
 10
0.0
 20
0.0
 40
0.0175
 50
0.0
 51
360.0
 73
     1
 97
     0
 75
     0
 76
     1
 98
     1
 10
0.0
 20
0.0
  0
ENDBLK
  5
DD
330
42
100
AcDbEntity
  8
0
100
AcDbBlockEnd
  0
BLOCK
  5
DF
330
43
100
AcDbEntity
  8
0
100
AcDbBlockBegin
  2
ROUND_52
 70
     0
 10
0.0
 20
0.0
 30
0.0
  3
ROUND_52
  1

  0
HATCH
  5
E1
330
43
100
AcDbEntity
  8
0
100
AcDbHatch
 10
0.0
 20
0.0
 30
0.0
210
0.0
220
0.0
230
1.0
  2
SOLID
 70
     1
 71
     0
 91
     1
 92
     0
 93
     1
 72
     2
 10
0.0
 20
0.0
 40
0.02
 50
0.0
 51
360.0
 73
     1
 97
     0
 75
     0
 76
     1
 98
     1
 10
0.0
 20
0.0
  0
ENDBLK
  5
E0
330
43
100
AcDbEntity
  8
0
100
AcDbBlockEnd
  0
BLOCK
  5
E2
330
44
100
AcDbEntity
  8
0
100
AcDbBlockBegin
  2
RECTANGLE_55
 70
     0
 10
0.0
 20
0.0
 30
0.0
  3
RECTANGLE_55
  1

  0
SOLID
  5
E4
330
44
100
AcDbEntity
  8
0
  6
BYLAYER
 62
   256
100
AcDbTrace
 10
0.05
 20
0.0375
 30
0.0
 11
0.05
 21
-0.0375
 31
0.0
 12
-0.05
 22
0.0375
 32
0.0
 13
-0.05
 23
-0.0375
 33
0.0
  0
ENDBLK
  5
E3
330
44
100
AcDbEntity
  8
0
100
AcDbBlockEnd
  0
BLOCK
  5
E5
330
45
100
AcDbEntity
  8
0
100
AcDbBlockBegin
  2
ROUND_71
 70
     0
 10
0.0
 20
0.0
 30
0.0
  3
ROUND_71
  1

  0
HATCH
  5
E7
330
45
100
AcDbEntity
  8
0
100
AcDbHatch
 10
0.0
 20
0.0
 30
0.0
210
0.0
220
0.0
230
1.0
  2
SOLID
 70
     1
 71
     0
 91
     1
 92
     0
 93
     1
 72
     2
 10
0.0
 20
0.0
 40
0.003
 50
0.0
 51
360.0
 73
     1
 97
     0
 75
     0
 76
     1
 98
     1
 10
0.0
 20
0.0
  0
ENDBLK
  5
E6
330
45
100
AcDbEntity
  8
0
100
AcDbBlockEnd
  0
ENDSEC
  0
SECTION
  2
ENTITIES
  0
LWPOLYLINE
  5
E8
330
12
100
AcDbEntity
  8
10224-1_DRD
  6
BYLAYER
370
   211
 62
   256
100
AcDbPolyline
 90
    13
 70
     0
 43
0.01
 10
5.1512
 20
1.3362
 10
5.1428
 20
1.3279
 10
5.1345
 20
1.3237
 10
5.1178
 20
1.3237
 10
5.1095
 20
1.3279
 10
5.1012
 20
1.3362
 10
5.1012
 20
1.3446
 10
5.1095
 20
1.3529
 10
5.1178
 20
1.3571
 10
5.1345
 20
1.3571
 10
5.1428
 20
1.3529
 10
5.1512
 20
1.3446
 10
5.1512
 20
1.3362
  0
LWPOLYLINE
  5
E9
330
12
100
AcDbEntity
  8
10224-1_DRD
  6
BYLAYER
370
   211
 62
   256
100
AcDbPolyline
 90
    13
 70
     0
 43
0.01
 10
5.1512
 20
1.2787
 10
5.1428
 20
1.2704
 10
5.1345
 20
1.2662
 10
5.1178
 20
1.2662
 10
5.1095
 20
1.2704
 10
5.1012
 20
1.2787
 10
5.1012
 20
1.2871
 10
5.1095
 20
1.2954
 10
5.1178
 20
1.2996
 10
5.1345
 20
1.2996
 10
5.1428
 20
1.2954
 10
5.1512
 20
1.2871
 10
5.1512
 20
1.2787
  0
LWPOLYLINE
  5
EA
330
12
100
AcDbEntity
  8
10224-1_DRD
  6
BYLAYER
370
   211
 62
   256
100
AcDbPolyline
 90
     9
 70
     0
 43
0.01
 10
5.1428
 20
1.2087
 10
5.1512
 20
1.2129
 10
5.1512
 20
1.2379
 10
5.1428
 20
1.2421
 10
5.1262
 20
1.2421
 10
5.1178
 20
1.2337
 10
5.1178
 20
1.2087
 10
5.1012
 20
1.2087
 10
5.1012
 20
1.2421
  0
LWPOLYLINE
  5
EB
330
12
100
AcDbEntity
  8
10224-1_DRD
  6
BYLAYER
370
   211
 62
   256
100
AcDbPolyline
 90
     7
 70
     0
 43
0.01
 10
5.1512
 20
1.1846
 10
5.1512
 20
1.1512
 10
5.1178
 20
1.1846
 10
5.1095
 20
1.1846
 10
5.1012
 20
1.1804
 10
5.1012
 20
1.1554
 10
5.1095
 20
1.1512
  0
LWPOLYLINE
  5
EC
330
12
100
AcDbEntity
  8
10224-1_DRD
  6
BYLAYER
370
   211
 62
   256
100
AcDbPolyline
 90
     9
 70
     0
 43
0.01
 10
2.5612
 20
-0.1508
 10
2.5654
 20
-0.1592
 10
2.5904
 20
-0.1592
 10
2.5946
 20
-0.1508
 10
2.5946
 20
-0.1342
 10
2.5862
 20
-0.1258
 10
2.5612
 20
-0.1258
 10
2.5612
 20
-0.1092
 10
2.5946
 20
-0.1092
  0
LWPOLYLINE
  5
ED
330
12
100
AcDbEntity
  8
10224-1_DRD
  6
BYLAYER
370
   211
 62
   256
100
AcDbPolyline
 90
     3
 70
     0
 43
0.01
 10
2.5121
 20
-0.1592
 10
2.5371
 20
-0.1092
 10
2.5037
 20
-0.1092
  0
LWPOLYLINE
  5
EE
330
12
100
AcDbEntity
  8
10224-1_DRD
  6
BYLAYER
370
   211
 62
   256
100
AcDbPolyline
 90
     9
 70
     0
 43
0.01
 10
2.4754
 20
-0.1342
 10
2.4504
 20
-0.1342
 10
2.4462
 20
-0.1258
 10
2.4462
 20
-0.1175
 10
2.4504
 20
-0.1092
 10
2.4754
 20
-0.1092
 10
2.4796
 20
-0.1175
 10
2.4796
 20
-0.1258
 10
2.4629
 20
-0.1592
  0
LWPOLYLINE
  5
EF
330
12
100
AcDbEntity
  8
10224-1_DRD
  6
BYLAYER
370
   211
 62
   256
100
AcDbPolyline
 90
     5
 70
     0
 43
0.01
 10
2.4221
 20
-0.1425
 10
2.3887
 20
-0.1425
 10
2.4054
 20
-0.1092
 10
2.4137
 20
-0.1092
 10
2.4137
 20
-0.1592
  0
LWPOLYLINE
  5
F0
330
12
100
AcDbEntity
  8
10224-1_DRD
  6
BYLAYER
370
   211
 62
   256
100
AcDbPolyline
 90
     3
 70
     0
 43
0.01
 10
4.9187
 20
-0.1112
 10
4.975
 20
-0.13
 10
4.9187
 20
-0.1487
  0
LWPOLYLINE
  5
F1
330
12
100
AcDbEntity
  8
10224-1_DRD
  6
BYLAYER
370
   211
 62
   256
100
AcDbPolyline
 90
     2
 70
     0
 43
0.01
 10
0.0
 20
-0.0175
 10
0.0
 20
-0.2425
  0
LWPOLYLINE
  5
F2
330
12
100
AcDbEntity
  8
10224-1_DRD
  6
BYLAYER
370
   211
 62
   256
100
AcDbPolyline
 90
     2
 70
     0
 43
0.01
 10
2.3283
 20
-0.13
 10
0.0
 20
-0.13
  0
LWPOLYLINE
  5
F3
330
12
100
AcDbEntity
  8
10224-1_DRD
  6
BYLAYER
370
   211
 62
   256
100
AcDbPolyline
 90
     3
 70
     0
 43
0.01
 10
0.0562
 20
-0.1487
 10
0.0
 20
-0.13
 10
0.0562
 20
-0.1112
  0
LWPOLYLINE
  5
F4
330
12
100
AcDbEntity
  8
10224-1_DRD
  6
BYLAYER
370
   211
 62
   256
100
AcDbPolyline
 90
     2
 70
     0
 43
0.01
 10
4.975
 20
-0.0175
 10
4.975
 20
-0.2425
  0
LWPOLYLINE
  5
F5
330
12
100
AcDbEntity
  8
10224-1_DRD
  6
BYLAYER
370
   211
 62
   256
100
AcDbPolyline
 90
     5
 70
     0
 43
0.01
 10
1.968
 20
0.2555
 10
1.528
 20
0.2555
 10
1.528
 20
1.9805
 10
1.968
 20
1.9805
 10
1.968
 20
0.2555
  0
LWPOLYLINE
  5
F6
330
12
100
AcDbEntity
  8
10224-1_DRD
  6
BYLAYER
370
   211
 62
   256
100
AcDbPolyline
 90
     5
 70
     0
 43
0.01
 10
0.0
 20
2.5
 10
4.975
 20
2.5
 10
4.975
 20
0.0
 10
0.0
 20
0.0
 10
0.0
 20
2.5
  0
LWPOLYLINE
  5
F7
330
12
100
AcDbEntity
  8
10224-1_DRD
  6
BYLAYER
370
   211
 62
   256
100
AcDbPolyline
 90
     2
 70
     0
 43
0.01
 10
5.2345
 20
2.5
 10
5.0095
 20
2.5
  0
LWPOLYLINE
  5
F8
330
12
100
AcDbEntity
  8
10224-1_DRD
  6
BYLAYER
370
   211
 62
   256
100
AcDbPolyline
 90
     2
 70
     0
 43
0.01
 10
5.122
 20
1.4092
 10
5.122
 20
2.5
  0
LWPOLYLINE
  5
F9
330
12
100
AcDbEntity
  8
10224-1_DRD
  6
BYLAYER
370
   211
 62
   256
100
AcDbPolyline
 90
     3
 70
     0
 43
0.01
 10
5.1032
 20
2.4437
 10
5.122
 20
2.5
 10
5.1407
 20
2.4437
  0
LWPOLYLINE
  5
FA
330
12
100
AcDbEntity
  8
10224-1_DRD
  6
BYLAYER
370
   211
 62
   256
100
AcDbPolyline
 90
     2
 70
     0
 43
0.01
 10
5.2345
 20
0.0
 10
5.0095
 20
0.0
  0
LWPOLYLINE
  5
FB
330
12
100
AcDbEntity
  8
10224-1_DRD
  6
BYLAYER
370
   211
 62
   256
100
AcDbPolyline
 90
     2
 70
     0
 43
0.01
 10
5.122
 20
1.0908
 10
5.122
 20
0.0
  0
LWPOLYLINE
  5
FC
330
12
100
AcDbEntity
  8
10224-1_DRD
  6
BYLAYER
370
   211
 62
   256
100
AcDbPolyline
 90
     3
 70
     0
 43
0.01
 10
5.1407
 20
0.0562
 10
5.122
 20
0.0
 10
5.1032
 20
0.0562
  0
LWPOLYLINE
  5
FD
330
12
100
AcDbEntity
  8
10224-1_DRD
  6
BYLAYER
370
   211
 62
   256
100
AcDbPolyline
 90
     2
 70
     0
 43
0.01
 10
2.6467
 20
-0.13
 10
4.975
 20
-0.13
  0
LWPOLYLINE
  5
FE
330
12
100
AcDbEntity
  8
10224-1_DRD
  6
BYLAYER
370
   211
 62
   256
100
AcDbPolyline
 90
     2
 70
     0
 43
0.01
 10
3.025
 20
2.056
 10
3.025
 20
2.006
  0
LWPOLYLINE
  5
FF
330
12
100
AcDbEntity
  8
10224-1_DRD
  6
BYLAYER
370
   211
 62
   256
100
AcDbPolyline
 90
     2
 70
     0
 43
0.01
 10
3.075
 20
2.056
 10
3.025
 20
2.056
  0
LWPOLYLINE
  5
100
330
12
100
AcDbEntity
  8
10224-1_DRD
  6
BYLAYER
370
   211
 62
   256
100
AcDbPolyline
 90
     2
 70
     0
 43
0.01
 10
3.075
 20
1.956
 10
3.075
 20
2.056
  0
LWPOLYLINE
  5
101
330
12
100
AcDbEntity
  8
10224-1_DRD
  6
BYLAYER
370
   211
 62
   256
100
AcDbPolyline
 90
     2
 70
     0
 43
0.01
 10
3.125
 20
1.956
 10
3.075
 20
1.956
  0
LWPOLYLINE
  5
102
330
12
100
AcDbEntity
  8
10224-1_DRD
  6
BYLAYER
370
   211
 62
   256
100
AcDbPolyline
 90
     2
 70
     0
 43
0.01
 10
3.125
 20
2.006
 10
3.125
 20
1.956
  0
LWPOLYLINE
  5
103
330
12
100
AcDbEntity
  8
10224-1_DRD
  6
BYLAYER
370
   211
 62
   256
100
AcDbPolyline
 90
     2
 70
     0
 43
0.01
 10
3.025
 20
2.006
 10
3.125
 20
2.006
  0
LWPOLYLINE
  5
104
330
12
100
AcDbEntity
  8
10224-1_DRD
  6
BYLAYER
370
   211
 62
   256
100
AcDbPolyline
 90
     2
 70
     0
 43
0.01
 10
1.225
 20
0.37
 10
1.225
 20
0.32
  0
LWPOLYLINE
  5
105
330
12
100
AcDbEntity
  8
10224-1_DRD
  6
BYLAYER
370
   211
 62
   256
100
AcDbPolyline
 90
     2
 70
     0
 43
0.01
 10
1.275
 20
0.37
 10
1.225
 20
0.37
  0
LWPOLYLINE
  5
106
330
12
100
AcDbEntity
  8
10224-1_DRD
  6
BYLAYER
370
   211
 62
   256
100
AcDbPolyline
 90
     2
 70
     0
 43
0.01
 10
1.275
 20
0.27
 10
1.275
 20
0.37
  0
LWPOLYLINE
  5
107
330
12
100
AcDbEntity
  8
10224-1_DRD
  6
BYLAYER
370
   211
 62
   256
100
AcDbPolyline
 90
     2
 70
     0
 43
0.01
 10
1.325
 20
0.27
 10
1.275
 20
0.27
  0
LWPOLYLINE
  5
108
330
12
100
AcDbEntity
  8
10224-1_DRD
  6
BYLAYER
370
   211
 62
   256
100
AcDbPolyline
 90
     2
 70
     0
 43
0.01
 10
1.325
 20
0.32
 10
1.325
 20
0.27
  0
LWPOLYLINE
  5
109
330
12
100
AcDbEntity
  8
10224-1_DRD
  6
BYLAYER
370
   211
 62
   256
100
AcDbPolyline
 90
     2
 70
     0
 43
0.01
 10
1.225
 20
0.32
 10
1.325
 20
0.32
  0
LWPOLYLINE
  5
10A
330
12
100
AcDbEntity
  8
10224-1_DRD
  6
BYLAYER
370
   211
 62
   256
100
AcDbPolyline
 90
     2
 70
     0
 43
0.01
 10
3.975
 20
0.24
 10
3.975
 20
0.19
  0
LWPOLYLINE
  5
10B
330
12
100
AcDbEntity
  8
10224-1_DRD
  6
BYLAYER
370
   211
 62
   256
100
AcDbPolyline
 90
     2
 70
     0
 43
0.01
 10
4.025
 20
0.24
 10
3.975
 20
0.24
  0
LWPOLYLINE
  5
10C
330
12
100
AcDbEntity
  8
10224-1_DRD
  6
BYLAYER
370
   211
 62
   256
100
AcDbPolyline
 90
     2
 70
     0
 43
0.01
 10
4.025
 20
0.14
 10
4.025
 20
0.24
  0
LWPOLYLINE
  5
10D
330
12
100
AcDbEntity
  8
10224-1_DRD
  6
BYLAYER
370
   211
 62
   256
100
AcDbPolyline
 90
     2
 70
     0
 43
0.01
 10
4.075
 20
0.14
 10
4.025
 20
0.14
  0
LWPOLYLINE
  5
10E
330
12
100
AcDbEntity
  8
10224-1_DRD
  6
BYLAYER
370
   211
 62
   256
100
AcDbPolyline
 90
     2
 70
     0
 43
0.01
 10
4.075
 20
0.19
 10
4.075
 20
0.14
  0
LWPOLYLINE
  5
10F
330
12
100
AcDbEntity
  8
10224-1_DRD
  6
BYLAYER
370
   211
 62
   256
100
AcDbPolyline
 90
     2
 70
     0
 43
0.01
 10
3.975
 20
0.19
 10
4.075
 20
0.19
  0
LWPOLYLINE
  5
110
330
12
100
AcDbEntity
  8
10224-1_DRD
  6
BYLAYER
370
   211
 62
   256
100
AcDbPolyline
 90
     2
 70
     0
 43
0.01
 10
2.175
 20
2.1
 10
2.175
 20
2.05
  0
LWPOLYLINE
  5
111
330
12
100
AcDbEntity
  8
10224-1_DRD
  6
BYLAYER
370
   211
 62
   256
100
AcDbPolyline
 90
     2
 70
     0
 43
0.01
 10
2.225
 20
2.1
 10
2.175
 20
2.1
  0
LWPOLYLINE
  5
112
330
12
100
AcDbEntity
  8
10224-1_DRD
  6
BYLAYER
370
   211
 62
   256
100
AcDbPolyline
 90
     2
 70
     0
 43
0.01
 10
2.225
 20
2.0
 10
2.225
 20
2.1
  0
LWPOLYLINE
  5
113
330
12
100
AcDbEntity
  8
10224-1_DRD
  6
BYLAYER
370
   211
 62
   256
100
AcDbPolyline
 90
     2
 70
     0
 43
0.01
 10
2.275
 20
2.0
 10
2.225
 20
2.0
  0
LWPOLYLINE
  5
114
330
12
100
AcDbEntity
  8
10224-1_DRD
  6
BYLAYER
370
   211
 62
   256
100
AcDbPolyline
 90
     2
 70
     0
 43
0.01
 10
2.275
 20
2.05
 10
2.275
 20
2.0
  0
LWPOLYLINE
  5
115
330
12
100
AcDbEntity
  8
10224-1_DRD
  6
BYLAYER
370
   211
 62
   256
100
AcDbPolyline
 90
     2
 70
     0
 43
0.01
 10
2.175
 20
2.05
 10
2.275
 20
2.05
  0
LWPOLYLINE
  5
116
330
12
100
AcDbEntity
  8
10224-1_DRD
  6
BYLAYER
370
   211
 62
   256
100
AcDbPolyline
 90
     2
 70
     0
 43
0.01
 10
2.175
 20
0.24
 10
2.175
 20
0.19
  0
LWPOLYLINE
  5
117
330
12
100
AcDbEntity
  8
10224-1_DRD
  6
BYLAYER
370
   211
 62
   256
100
AcDbPolyline
 90
     2
 70
     0
 43
0.01
 10
2.225
 20
0.24
 10
2.175
 20
0.24
  0
LWPOLYLINE
  5
118
330
12
100
AcDbEntity
  8
10224-1_DRD
  6
BYLAYER
370
   211
 62
   256
100
AcDbPolyline
 90
     2
 70
     0
 43
0.01
 10
2.225
 20
0.14
 10
2.225
 20
0.24
  0
LWPOLYLINE
  5
119
330
12
100
AcDbEntity
  8
10224-1_DRD
  6
BYLAYER
370
   211
 62
   256
100
AcDbPolyline
 90
     2
 70
     0
 43
0.01
 10
2.275
 20
0.14
 10
2.225
 20
0.14
  0
LWPOLYLINE
  5
11A
330
12
100
AcDbEntity
  8
10224-1_DRD
  6
BYLAYER
370
   211
 62
   256
100
AcDbPolyline
 90
     2
 70
     0
 43
0.01
 10
2.275
 20
0.19
 10
2.275
 20
0.14
  0
LWPOLYLINE
  5
11B
330
12
100
AcDbEntity
  8
10224-1_DRD
  6
BYLAYER
370
   211
 62
   256
100
AcDbPolyline
 90
     2
 70
     0
 43
0.01
 10
2.175
 20
0.19
 10
2.275
 20
0.19
  0
LWPOLYLINE
  5
11C
330
12
100
AcDbEntity
  8
10224-1_DRD
  6
BYLAYER
370
   211
 62
   256
100
AcDbPolyline
 90
     2
 70
     0
 43
0.01
 10
1.225
 20
1.919
 10
1.225
 20
1.869
  0
LWPOLYLINE
  5
11D
330
12
100
AcDbEntity
  8
10224-1_DRD
  6
BYLAYER
370
   211
 62
   256
100
AcDbPolyline
 90
     2
 70
     0
 43
0.01
 10
1.275
 20
1.919
 10
1.225
 20
1.919
  0
LWPOLYLINE
  5
11E
330
12
100
AcDbEntity
  8
10224-1_DRD
  6
BYLAYER
370
   211
 62
   256
100
AcDbPolyline
 90
     2
 70
     0
 43
0.01
 10
1.275
 20
1.819
 10
1.275
 20
1.919
  0
LWPOLYLINE
  5
11F
330
12
100
AcDbEntity
  8
10224-1_DRD
  6
BYLAYER
370
   211
 62
   256
100
AcDbPolyline
 90
     2
 70
     0
 43
0.01
 10
1.325
 20
1.819
 10
1.275
 20
1.819
  0
LWPOLYLINE
  5
120
330
12
100
AcDbEntity
  8
10224-1_DRD
  6
BYLAYER
370
   211
 62
   256
100
AcDbPolyline
 90
     2
 70
     0
 43
0.01
 10
1.325
 20
1.869
 10
1.325
 20
1.819
  0
LWPOLYLINE
  5
121
330
12
100
AcDbEntity
  8
10224-1_DRD
  6
BYLAYER
370
   211
 62
   256
100
AcDbPolyline
 90
     2
 70
     0
 43
0.01
 10
1.225
 20
1.869
 10
1.325
 20
1.869
  0
TEXT
  5
122
330
12
100
AcDbEntity
  8
10224-1_DRD
  6
BYLAYER
100
AcDbText
 10
0.25
 20
1.15
 30
0.0
 40
0.0673652506012
  1
input
 50
0.0
 51
0.0
  7
SIMPLE
100
AcDbText
  0
TEXT
  5
123
330
12
100
AcDbEntity
  8
10224-1_DRD
  6
BYLAYER
100
AcDbText
 10
4.2
 20
0.925
 30
0.0
 40
0.0673652506012
  1
output
 50
0.0
 51
0.0
  7
SIMPLE
100
AcDbText
  0
TEXT
  5
124
330
12
100
AcDbEntity
  8
10224-1_DRD
  6
BYLAYER
100
AcDbText
 10
3.25
 20
2.325
 30
0.0
 40
0.0673652506012
  1
VCC
 50
0.0
 51
0.0
  7
SIMPLE
100
AcDbText
  0
INSERT
  5
125
330
12
100
AcDbEntity
  8
10224-1_SMT
100
AcDbBlockReference
  2
RECTANGLE_55
 10
2.818
 20
2.341
 30
0.0
  0
LWPOLYLINE
  5
126
330
12
100
AcDbEntity
  8
10224-1_SMT
  6
BYLAYER
370
   211
 62
   256
100
AcDbPolyline
 90
     3
 70
     0
 43
0.001
 10
4.954
 20
1.033
 10
4.704
 20
1.033
 10
4.704
 20
0.883
  0
LWPOLYLINE
  5
127
330
12
100
AcDbEntity
  8
10224-1_SMT
  6
BYLAYER
370
   211
 62
   256
100
AcDbPolyline
 90
     2
 70
     0
 43
0.001
 10
4.954
 20
0.883
 10
4.704
 20
0.883
  0
LWPOLYLINE
  5
128
330
12
100
AcDbEntity
  8
10224-1_SMT
  6
BYLAYER
370
   211
 62
   256
100
AcDbPolyline
 90
     2
 70
     0
 43
0.001
 10
4.954
 20
1.033
 10
4.954
 20
0.883
  0
LWPOLYLINE
  5
129
330
12
100
AcDbEntity
  8
10224-1_SMT
  6
BYLAYER
370
   211
 62
   256
100
AcDbPolyline
 90
     2
 70
     0
 43
0.001
 10
4.9528
 20
1.033
 10
4.9528
 20
0.883
  0
LWPOLYLINE
  5
12A
330
12
100
AcDbEntity
  8
10224-1_SMT
  6
BYLAYER
370
   211
 62
   256
100
AcDbPolyline
 90
     2
 70
     0
 43
0.001
 10
4.9519
 20
1.033
 10
4.9519
 20
0.883
  0
LWPOLYLINE
  5
12B
330
12
100
AcDbEntity
  8
10224-1_SMT
  6
BYLAYER
370
   211
 62
   256
100
AcDbPolyline
 90
     2
 70
     0
 43
0.001
 10
4.951
 20
1.033
 10
4.951
 20
0.883
  0
LWPOLYLINE
  5
12C
330
12
100
AcDbEntity
  8
10224-1_SMT
  6
BYLAYER
370
   211
 62
   256
100
AcDbPolyline
 90
     2
 70
     0
 43
0.001
 10
4.9501
 20
1.033
 10
4.9501
 20
0.883
  0
LWPOLYLINE
  5
12D
330
12
100
AcDbEntity
  8
10224-1_SMT
  6
BYLAYER
370
   211
 62
   256
100
AcDbPolyline
 90
     2
 70
     0
 43
0.001
 10
4.9492
 20
1.033
 10
4.9492
 20
0.883
  0
LWPOLYLINE
  5
12E
330
12
100
AcDbEntity
  8
10224-1_SMT
  6
BYLAYER
370
   211
 62
   256
100
AcDbPolyline
 90
     2
 70
     0
 43
0.001
 10
4.9483
 20
1.033
 10
4.9483
 20
0.883
  0
LWPOLYLINE
  5
12F
330
12
100
AcDbEntity
  8
10224-1_SMT
  6
BYLAYER
370
   211
 62
   256
100
AcDbPolyline
 90
     2
 70
     0
 43
0.001
 10
4.9474
 20
1.033
 10
4.9474
 20
0.883
  0
LWPOLYLINE
  5
130
330
12
100
AcDbEntity
  8
10224-1_SMT
  6
BYLAYER
370
   211
 62
   256
100
AcDbPolyline
 90
     2
 70
     0
 43
0.001
 10
4.9465
 20
1.033
 10
4.9465
 20
0.883
  0
LWPOLYLINE
  5
131
330
12
100
AcDbEntity
  8
10224-1_SMT
  6
BYLAYER
370
   211
 62
   256
100
AcDbPolyline
 90
     2
 70
     0
 43
0.001
 10
4.9456
 20
1.033
 10
4.9456
 20
0.883
  0
LWPOLYLINE
  5
132
330
12
100
AcDbEntity
  8
10224-1_SMT
  6
BYLAYER
370
   211
 62
   256
100
AcDbPolyline
 90
     2
 70
     0
 43
0.001
 10
4.9447
 20
1.033
 10
4.9447
 20
0.883
  0
LWPOLYLINE
  5
133
330
12
100
AcDbEntity
  8
10224-1_SMT
  6
BYLAYER
370
   211
 62
   256
100
AcDbPolyline
 90
     2
 70
     0
 43
0.001
 10
4.9438
 20
1.033
 10
4.9438
 20
0.883
  0
LWPOLYLINE
  5
134
330
12
100
AcDbEntity
  8
10224-1_SMT
  6
BYLAYER
370
   211
 62
   256
100
AcDbPolyline
 90
     2
 70
     0
 43
0.001
 10
4.9429
 20
1.033
 10
4.9429
 20
0.883
  0
LWPOLYLINE
  5
135
330
12
100
AcDbEntity
  8
10224-1_SMT
  6
BYLAYER
370
   211
 62
   256
100
AcDbPolyline
 90
     2
 70
     0
 43
0.001
 10
4.942
 20
1.033
 10
4.942
 20
0.883
  0
LWPOLYLINE
  5
136
330
12
100
AcDbEntity
  8
10224-1_SMT
  6
BYLAYER
370
   211
 62
   256
100
AcDbPolyline
 90
     2
 70
     0
 43
0.001
 10
4.9411
 20
1.033
 10
4.9411
 20
0.883
  0
LWPOLYLINE
  5
137
330
12
100
AcDbEntity
  8
10224-1_SMT
  6
BYLAYER
370
   211
 62
   256
100
AcDbPolyline
 90
     2
 70
     0
 43
0.001
 10
4.9402
 20
1.033
 10
4.9402
 20
0.883
  0
LWPOLYLINE
  5
138
330
12
100
AcDbEntity
  8
10224-1_SMT
  6
BYLAYER
370
   211
 62
   256
100
AcDbPolyline
 90
     2
 70
     0
 43
0.001
 10
4.9393
 20
1.033
 10
4.9393
 20
0.883
  0
LWPOLYLINE
  5
139
330
12
100
AcDbEntity
  8
10224-1_SMT
  6
BYLAYER
370
   211
 62
   256
100
AcDbPolyline
 90
     2
 70
     0
 43
0.001
 10
4.9384
 20
1.033
 10
4.9384
 20
0.883
  0
LWPOLYLINE
  5
13A
330
12
100
AcDbEntity
  8
10224-1_SMT
  6
BYLAYER
370
   211
 62
   256
100
AcDbPolyline
 90
     2
 70
     0
 43
0.001
 10
4.9375
 20
1.033
 10
4.9375
 20
0.883
  0
LWPOLYLINE
  5
13B
330
12
100
AcDbEntity
  8
10224-1_SMT
  6
BYLAYER
370
   211
 62
   256
100
AcDbPolyline
 90
     2
 70
     0
 43
0.001
 10
4.9366
 20
1.033
 10
4.9366
 20
0.883
  0
LWPOLYLINE
  5
13C
330
12
100
AcDbEntity
  8
10224-1_SMT
  6
BYLAYER
370
   211
 62
   256
100
AcDbPolyline
 90
     2
 70
     0
 43
0.001
 10
4.9357
 20
1.033
 10
4.9357
 20
0.883
  0
LWPOLYLINE
  5
13D
330
12
100
AcDbEntity
  8
10224-1_SMT
  6
BYLAYER
370
   211
 62
   256
100
AcDbPolyline
 90
     2
 70
     0
 43
0.001
 10
4.9348
 20
1.033
 10
4.9348
 20
0.883
  0
LWPOLYLINE
  5
13E
330
12
100
AcDbEntity
  8
10224-1_SMT
  6
BYLAYER
370
   211
 62
   256
100
AcDbPolyline
 90
     2
 70
     0
 43
0.001
 10
4.9339
 20
1.033
 10
4.9339
 20
0.883
  0
LWPOLYLINE
  5
13F
330
12
100
AcDbEntity
  8
10224-1_SMT
  6
BYLAYER
370
   211
 62
   256
100
AcDbPolyline
 90
     2
 70
     0
 43
0.001
 10
4.933
 20
1.033
 10
4.933
 20
0.883
  0
LWPOLYLINE
  5
140
330
12
100
AcDbEntity
  8
10224-1_SMT
  6
BYLAYER
370
   211
 62
   256
100
AcDbPolyline
 90
     2
 70
     0
 43
0.001
 10
4.9321
 20
1.033
 10
4.9321
 20
0.883
  0
LWPOLYLINE
  5
141
330
12
100
AcDbEntity
  8
10224-1_SMT
  6
BYLAYER
370
   211
 62
   256
100
AcDbPolyline
 90
     2
 70
     0
 43
0.001
 10
4.9312
 20
1.033
 10
4.9312
 20
0.883
  0
LWPOLYLINE
  5
142
330
12
100
AcDbEntity
  8
10224-1_SMT
  6
BYLAYER
370
   211
 62
   256
100
AcDbPolyline
 90
     2
 70
     0
 43
0.001
 10
4.9303
 20
1.033
 10
4.9303
 20
0.883
  0
LWPOLYLINE
  5
143
330
12
100
AcDbEntity
  8
10224-1_SMT
  6
BYLAYER
370
   211
 62
   256
100
AcDbPolyline
 90
     2
 70
     0
 43
0.001
 10
4.9294
 20
1.033
 10
4.9294
 20
0.883
  0
LWPOLYLINE
  5
144
330
12
100
AcDbEntity
  8
10224-1_SMT
  6
BYLAYER
370
   211
 62
   256
100
AcDbPolyline
 90
     2
 70
     0
 43
0.001
 10
4.9285
 20
1.033
 10
4.9285
 20
0.883
  0
LWPOLYLINE
  5
145
330
12
100
AcDbEntity
  8
10224-1_SMT
  6
BYLAYER
370
   211
 62
   256
100
AcDbPolyline
 90
     2
 70
     0
 43
0.001
 10
4.9276
 20
1.033
 10
4.9276
 20
0.883
  0
LWPOLYLINE
  5
146
330
12
100
AcDbEntity
  8
10224-1_SMT
  6
BYLAYER
370
   211
 62
   256
100
AcDbPolyline
 90
     2
 70
     0
 43
0.001
 10
4.9267
 20
1.033
 10
4.9267
 20
0.883
  0
LWPOLYLINE
  5
147
330
12
100
AcDbEntity
  8
10224-1_SMT
  6
BYLAYER
370
   211
 62
   256
100
AcDbPolyline
 90
     2
 70
     0
 43
0.001
 10
4.9258
 20
1.033
 10
4.9258
 20
0.883
  0
LWPOLYLINE
  5
148
330
12
100
AcDbEntity
  8
10224-1_SMT
  6
BYLAYER
370
   211
 62
   256
100
AcDbPolyline
 90
     2
 70
     0
 43
0.001
 10
4.9249
 20
1.033
 10
4.9249
 20
0.883
  0
LWPOLYLINE
  5
149
330
12
100
AcDbEntity
  8
10224-1_SMT
  6
BYLAYER
370
   211
 62
   256
100
AcDbPolyline
 90
     2
 70
     0
 43
0.001
 10
4.924
 20
1.033
 10
4.924
 20
0.883
  0
LWPOLYLINE
  5
14A
330
12
100
AcDbEntity
  8
10224-1_SMT
  6
BYLAYER
370
   211
 62
   256
100
AcDbPolyline
 90
     2
 70
     0
 43
0.001
 10
4.9231
 20
1.033
 10
4.9231
 20
0.883
  0
LWPOLYLINE
  5
14B
330
12
100
AcDbEntity
  8
10224-1_SMT
  6
BYLAYER
370
   211
 62
   256
100
AcDbPolyline
 90
     2
 70
     0
 43
0.001
 10
4.9222
 20
1.033
 10
4.9222
 20
0.883
  0
LWPOLYLINE
  5
14C
330
12
100
AcDbEntity
  8
10224-1_SMT
  6
BYLAYER
370
   211
 62
   256
100
AcDbPolyline
 90
     2
 70
     0
 43
0.001
 10
4.9213
 20
1.033
 10
4.9213
 20
0.883
  0
LWPOLYLINE
  5
14D
330
12
100
AcDbEntity
  8
10224-1_SMT
  6
BYLAYER
370
   211
 62
   256
100
AcDbPolyline
 90
     2
 70
     0
 43
0.001
 10
4.9204
 20
1.033
 10
4.9204
 20
0.883
  0
LWPOLYLINE
  5
14E
330
12
100
AcDbEntity
  8
10224-1_SMT
  6
BYLAYER
370
   211
 62
   256
100
AcDbPolyline
 90
     2
 70
     0
 43
0.001
 10
4.9195
 20
1.033
 10
4.9195
 20
0.883
  0
LWPOLYLINE
  5
14F
330
12
100
AcDbEntity
  8
10224-1_SMT
  6
BYLAYER
370
   211
 62
   256
100
AcDbPolyline
 90
     2
 70
     0
 43
0.001
 10
4.9186
 20
1.033
 10
4.9186
 20
0.883
  0
LWPOLYLINE
  5
150
330
12
100
AcDbEntity
  8
10224-1_SMT
  6
BYLAYER
370
   211
 62
   256
100
AcDbPolyline
 90
     2
 70
     0
 43
0.001
 10
4.9177
 20
1.033
 10
4.9177
 20
0.883
  0
LWPOLYLINE
  5
151
330
12
100
AcDbEntity
  8
10224-1_SMT
  6
BYLAYER
370
   211
 62
   256
100
AcDbPolyline
 90
     2
 70
     0
 43
0.001
 10
4.9168
 20
1.033
 10
4.9168
 20
0.883
  0
LWPOLYLINE
  5
152
330
12
100
AcDbEntity
  8
10224-1_SMT
  6
BYLAYER
370
   211
 62
   256
100
AcDbPolyline
 90
     2
 70
     0
 43
0.001
 10
4.9159
 20
1.033
 10
4.9159
 20
0.883
  0
LWPOLYLINE
  5
153
330
12
100
AcDbEntity
  8
10224-1_SMT
  6
BYLAYER
370
   211
 62
   256
100
AcDbPolyline
 90
     2
 70
     0
 43
0.001
 10
4.915
 20
1.033
 10
4.915
 20
0.883
  0
LWPOLYLINE
  5
154
330
12
100
AcDbEntity
  8
10224-1_SMT
  6
BYLAYER
370
   211
 62
   256
100
AcDbPolyline
 90
     2
 70
     0
 43
0.001
 10
4.9141
 20
1.033
 10
4.9141
 20
0.883
  0
LWPOLYLINE
  5
155
330
12
100
AcDbEntity
  8
10224-1_SMT
  6
BYLAYER
370
   211
 62
   256
100
AcDbPolyline
 90
     2
 70
     0
 43
0.001
 10
4.9132
 20
1.033
 10
4.9132
 20
0.883
  0
LWPOLYLINE
  5
156
330
12
100
AcDbEntity
  8
10224-1_SMT
  6
BYLAYER
370
   211
 62
   256
100
AcDbPolyline
 90
     2
 70
     0
 43
0.001
 10
4.9123
 20
1.033
 10
4.9123
 20
0.883
  0
LWPOLYLINE
  5
157
330
12
100
AcDbEntity
  8
10224-1_SMT
  6
BYLAYER
370
   211
 62
   256
100
AcDbPolyline
 90
     2
 70
     0
 43
0.001
 10
4.9114
 20
1.033
 10
4.9114
 20
0.883
  0
LWPOLYLINE
  5
158
330
12
100
AcDbEntity
  8
10224-1_SMT
  6
BYLAYER
370
   211
 62
   256
100
AcDbPolyline
 90
     2
 70
     0
 43
0.001
 10
4.9105
 20
1.033
 10
4.9105
 20
0.883
  0
LWPOLYLINE
  5
159
330
12
100
AcDbEntity
  8
10224-1_SMT
  6
BYLAYER
370
   211
 62
   256
100
AcDbPolyline
 90
     2
 70
     0
 43
0.001
 10
4.9096
 20
1.033
 10
4.9096
 20
0.883
  0
LWPOLYLINE
  5
15A
330
12
100
AcDbEntity
  8
10224-1_SMT
  6
BYLAYER
370
   211
 62
   256
100
AcDbPolyline
 90
     2
 70
     0
 43
0.001
 10
4.9087
 20
1.033
 10
4.9087
 20
0.883
  0
LWPOLYLINE
  5
15B
330
12
100
AcDbEntity
  8
10224-1_SMT
  6
BYLAYER
370
   211
 62
   256
100
AcDbPolyline
 90
     2
 70
     0
 43
0.001
 10
4.9078
 20
1.033
 10
4.9078
 20
0.883
  0
LWPOLYLINE
  5
15C
330
12
100
AcDbEntity
  8
10224-1_SMT
  6
BYLAYER
370
   211
 62
   256
100
AcDbPolyline
 90
     2
 70
     0
 43
0.001
 10
4.9069
 20
1.033
 10
4.9069
 20
0.883
  0
LWPOLYLINE
  5
15D
330
12
100
AcDbEntity
  8
10224-1_SMT
  6
BYLAYER
370
   211
 62
   256
100
AcDbPolyline
 90
     2
 70
     0
 43
0.001
 10
4.906
 20
1.033
 10
4.906
 20
0.883
  0
LWPOLYLINE
  5
15E
330
12
100
AcDbEntity
  8
10224-1_SMT
  6
BYLAYER
370
   211
 62
   256
100
AcDbPolyline
 90
     2
 70
     0
 43
0.001
 10
4.9051
 20
1.033
 10
4.9051
 20
0.883
  0
LWPOLYLINE
  5
15F
330
12
100
AcDbEntity
  8
10224-1_SMT
  6
BYLAYER
370
   211
 62
   256
100
AcDbPolyline
 90
     2
 70
     0
 43
0.001
 10
4.9042
 20
1.033
 10
4.9042
 20
0.883
  0
LWPOLYLINE
  5
160
330
12
100
AcDbEntity
  8
10224-1_SMT
  6
BYLAYER
370
   211
 62
   256
100
AcDbPolyline
 90
     2
 70
     0
 43
0.001
 10
4.9033
 20
1.033
 10
4.9033
 20
0.883
  0
LWPOLYLINE
  5
161
330
12
100
AcDbEntity
  8
10224-1_SMT
  6
BYLAYER
370
   211
 62
   256
100
AcDbPolyline
 90
     2
 70
     0
 43
0.001
 10
4.9024
 20
1.033
 10
4.9024
 20
0.883
  0
LWPOLYLINE
  5
162
330
12
100
AcDbEntity
  8
10224-1_SMT
  6
BYLAYER
370
   211
 62
   256
100
AcDbPolyline
 90
     2
 70
     0
 43
0.001
 10
4.9015
 20
1.033
 10
4.9015
 20
0.883
  0
LWPOLYLINE
  5
163
330
12
100
AcDbEntity
  8
10224-1_SMT
  6
BYLAYER
370
   211
 62
   256
100
AcDbPolyline
 90
     2
 70
     0
 43
0.001
 10
4.9006
 20
1.033
 10
4.9006
 20
0.883
  0
LWPOLYLINE
  5
164
330
12
100
AcDbEntity
  8
10224-1_SMT
  6
BYLAYER
370
   211
 62
   256
100
AcDbPolyline
 90
     2
 70
     0
 43
0.001
 10
4.8997
 20
1.033
 10
4.8997
 20
0.883
  0
LWPOLYLINE
  5
165
330
12
100
AcDbEntity
  8
10224-1_SMT
  6
BYLAYER
370
   211
 62
   256
100
AcDbPolyline
 90
     2
 70
     0
 43
0.001
 10
4.8988
 20
1.033
 10
4.8988
 20
0.883
  0
LWPOLYLINE
  5
166
330
12
100
AcDbEntity
  8
10224-1_SMT
  6
BYLAYER
370
   211
 62
   256
100
AcDbPolyline
 90
     2
 70
     0
 43
0.001
 10
4.8979
 20
1.033
 10
4.8979
 20
0.883
  0
LWPOLYLINE
  5
167
330
12
100
AcDbEntity
  8
10224-1_SMT
  6
BYLAYER
370
   211
 62
   256
100
AcDbPolyline
 90
     2
 70
     0
 43
0.001
 10
4.897
 20
1.033
 10
4.897
 20
0.883
  0
LWPOLYLINE
  5
168
330
12
100
AcDbEntity
  8
10224-1_SMT
  6
BYLAYER
370
   211
 62
   256
100
AcDbPolyline
 90
     2
 70
     0
 43
0.001
 10
4.8961
 20
1.033
 10
4.8961
 20
0.883
  0
LWPOLYLINE
  5
169
330
12
100
AcDbEntity
  8
10224-1_SMT
  6
BYLAYER
370
   211
 62
   256
100
AcDbPolyline
 90
     2
 70
     0
 43
0.001
 10
4.8952
 20
1.033
 10
4.8952
 20
0.883
  0
LWPOLYLINE
  5
16A
330
12
100
AcDbEntity
  8
10224-1_SMT
  6
BYLAYER
370
   211
 62
   256
100
AcDbPolyline
 90
     2
 70
     0
 43
0.001
 10
4.8943
 20
1.033
 10
4.8943
 20
0.883
  0
LWPOLYLINE
  5
16B
330
12
100
AcDbEntity
  8
10224-1_SMT
  6
BYLAYER
370
   211
 62
   256
100
AcDbPolyline
 90
     2
 70
     0
 43
0.001
 10
4.8934
 20
1.033
 10
4.8934
 20
0.883
  0
LWPOLYLINE
  5
16C
330
12
100
AcDbEntity
  8
10224-1_SMT
  6
BYLAYER
370
   211
 62
   256
100
AcDbPolyline
 90
     2
 70
     0
 43
0.001
 10
4.8925
 20
1.033
 10
4.8925
 20
0.883
  0
LWPOLYLINE
  5
16D
330
12
100
AcDbEntity
  8
10224-1_SMT
  6
BYLAYER
370
   211
 62
   256
100
AcDbPolyline
 90
     2
 70
     0
 43
0.001
 10
4.8916
 20
1.033
 10
4.8916
 20
0.883
  0
LWPOLYLINE
  5
16E
330
12
100
AcDbEntity
  8
10224-1_SMT
  6
BYLAYER
370
   211
 62
   256
100
AcDbPolyline
 90
     2
 70
     0
 43
0.001
 10
4.8907
 20
1.033
 10
4.8907
 20
0.883
  0
LWPOLYLINE
  5
16F
330
12
100
AcDbEntity
  8
10224-1_SMT
  6
BYLAYER
370
   211
 62
   256
100
AcDbPolyline
 90
     2
 70
     0
 43
0.001
 10
4.8898
 20
1.033
 10
4.8898
 20
0.883
  0
LWPOLYLINE
  5
170
330
12
100
AcDbEntity
  8
10224-1_SMT
  6
BYLAYER
370
   211
 62
   256
100
AcDbPolyline
 90
     2
 70
     0
 43
0.001
 10
4.8889
 20
1.033
 10
4.8889
 20
0.883
  0
LWPOLYLINE
  5
171
330
12
100
AcDbEntity
  8
10224-1_SMT
  6
BYLAYER
370
   211
 62
   256
100
AcDbPolyline
 90
     2
 70
     0
 43
0.001
 10
4.888
 20
1.033
 10
4.888
 20
0.883
  0
LWPOLYLINE
  5
172
330
12
100
AcDbEntity
  8
10224-1_SMT
  6
BYLAYER
370
   211
 62
   256
100
AcDbPolyline
 90
     2
 70
     0
 43
0.001
 10
4.8871
 20
1.033
 10
4.8871
 20
0.883
  0
LWPOLYLINE
  5
173
330
12
100
AcDbEntity
  8
10224-1_SMT
  6
BYLAYER
370
   211
 62
   256
100
AcDbPolyline
 90
     2
 70
     0
 43
0.001
 10
4.8862
 20
1.033
 10
4.8862
 20
0.883
  0
LWPOLYLINE
  5
174
330
12
100
AcDbEntity
  8
10224-1_SMT
  6
BYLAYER
370
   211
 62
   256
100
AcDbPolyline
 90
     2
 70
     0
 43
0.001
 10
4.8853
 20
1.033
 10
4.8853
 20
0.883
  0
LWPOLYLINE
  5
175
330
12
100
AcDbEntity
  8
10224-1_SMT
  6
BYLAYER
370
   211
 62
   256
100
AcDbPolyline
 90
     2
 70
     0
 43
0.001
 10
4.8844
 20
1.033
 10
4.8844
 20
0.883
  0
LWPOLYLINE
  5
176
330
12
100
AcDbEntity
  8
10224-1_SMT
  6
BYLAYER
370
   211
 62
   256
100
AcDbPolyline
 90
     2
 70
     0
 43
0.001
 10
4.8835
 20
1.033
 10
4.8835
 20
0.883
  0
LWPOLYLINE
  5
177
330
12
100
AcDbEntity
  8
10224-1_SMT
  6
BYLAYER
370
   211
 62
   256
100
AcDbPolyline
 90
     2
 70
     0
 43
0.001
 10
4.8826
 20
1.033
 10
4.8826
 20
0.883
  0
LWPOLYLINE
  5
178
330
12
100
AcDbEntity
  8
10224-1_SMT
  6
BYLAYER
370
   211
 62
   256
100
AcDbPolyline
 90
     2
 70
     0
 43
0.001
 10
4.8817
 20
1.033
 10
4.8817
 20
0.883
  0
LWPOLYLINE
  5
179
330
12
100
AcDbEntity
  8
10224-1_SMT
  6
BYLAYER
370
   211
 62
   256
100
AcDbPolyline
 90
     2
 70
     0
 43
0.001
 10
4.8808
 20
1.033
 10
4.8808
 20
0.883
  0
LWPOLYLINE
  5
17A
330
12
100
AcDbEntity
  8
10224-1_SMT
  6
BYLAYER
370
   211
 62
   256
100
AcDbPolyline
 90
     2
 70
     0
 43
0.001
 10
4.8799
 20
1.033
 10
4.8799
 20
0.883
  0
LWPOLYLINE
  5
17B
330
12
100
AcDbEntity
  8
10224-1_SMT
  6
BYLAYER
370
   211
 62
   256
100
AcDbPolyline
 90
     2
 70
     0
 43
0.001
 10
4.879
 20
1.033
 10
4.879
 20
0.883
  0
LWPOLYLINE
  5
17C
330
12
100
AcDbEntity
  8
10224-1_SMT
  6
BYLAYER
370
   211
 62
   256
100
AcDbPolyline
 90
     2
 70
     0
 43
0.001
 10
4.8781
 20
1.033
 10
4.8781
 20
0.883
  0
LWPOLYLINE
  5
17D
330
12
100
AcDbEntity
  8
10224-1_SMT
  6
BYLAYER
370
   211
 62
   256
100
AcDbPolyline
 90
     2
 70
     0
 43
0.001
 10
4.8772
 20
1.033
 10
4.8772
 20
0.883
  0
LWPOLYLINE
  5
17E
330
12
100
AcDbEntity
  8
10224-1_SMT
  6
BYLAYER
370
   211
 62
   256
100
AcDbPolyline
 90
     2
 70
     0
 43
0.001
 10
4.8763
 20
1.033
 10
4.8763
 20
0.883
  0
LWPOLYLINE
  5
17F
330
12
100
AcDbEntity
  8
10224-1_SMT
  6
BYLAYER
370
   211
 62
   256
100
AcDbPolyline
 90
     2
 70
     0
 43
0.001
 10
4.8754
 20
1.033
 10
4.8754
 20
0.883
  0
LWPOLYLINE
  5
180
330
12
100
AcDbEntity
  8
10224-1_SMT
  6
BYLAYER
370
   211
 62
   256
100
AcDbPolyline
 90
     2
 70
     0
 43
0.001
 10
4.8745
 20
1.033
 10
4.8745
 20
0.883
  0
LWPOLYLINE
  5
181
330
12
100
AcDbEntity
  8
10224-1_SMT
  6
BYLAYER
370
   211
 62
   256
100
AcDbPolyline
 90
     2
 70
     0
 43
0.001
 10
4.8736
 20
1.033
 10
4.8736
 20
0.883
  0
LWPOLYLINE
  5
182
330
12
100
AcDbEntity
  8
10224-1_SMT
  6
BYLAYER
370
   211
 62
   256
100
AcDbPolyline
 90
     2
 70
     0
 43
0.001
 10
4.8727
 20
1.033
 10
4.8727
 20
0.883
  0
LWPOLYLINE
  5
183
330
12
100
AcDbEntity
  8
10224-1_SMT
  6
BYLAYER
370
   211
 62
   256
100
AcDbPolyline
 90
     2
 70
     0
 43
0.001
 10
4.8718
 20
1.033
 10
4.8718
 20
0.883
  0
LWPOLYLINE
  5
184
330
12
100
AcDbEntity
  8
10224-1_SMT
  6
BYLAYER
370
   211
 62
   256
100
AcDbPolyline
 90
     2
 70
     0
 43
0.001
 10
4.8709
 20
1.033
 10
4.8709
 20
0.883
  0
LWPOLYLINE
  5
185
330
12
100
AcDbEntity
  8
10224-1_SMT
  6
BYLAYER
370
   211
 62
   256
100
AcDbPolyline
 90
     2
 70
     0
 43
0.001
 10
4.87
 20
1.033
 10
4.87
 20
0.883
  0
LWPOLYLINE
  5
186
330
12
100
AcDbEntity
  8
10224-1_SMT
  6
BYLAYER
370
   211
 62
   256
100
AcDbPolyline
 90
     2
 70
     0
 43
0.001
 10
4.8691
 20
1.033
 10
4.8691
 20
0.883
  0
LWPOLYLINE
  5
187
330
12
100
AcDbEntity
  8
10224-1_SMT
  6
BYLAYER
370
   211
 62
   256
100
AcDbPolyline
 90
     2
 70
     0
 43
0.001
 10
4.8682
 20
1.033
 10
4.8682
 20
0.883
  0
LWPOLYLINE
  5
188
330
12
100
AcDbEntity
  8
10224-1_SMT
  6
BYLAYER
370
   211
 62
   256
100
AcDbPolyline
 90
     2
 70
     0
 43
0.001
 10
4.8673
 20
1.033
 10
4.8673
 20
0.883
  0
LWPOLYLINE
  5
189
330
12
100
AcDbEntity
  8
10224-1_SMT
  6
BYLAYER
370
   211
 62
   256
100
AcDbPolyline
 90
     2
 70
     0
 43
0.001
 10
4.8664
 20
1.033
 10
4.8664
 20
0.883
  0
LWPOLYLINE
  5
18A
330
12
100
AcDbEntity
  8
10224-1_SMT
  6
BYLAYER
370
   211
 62
   256
100
AcDbPolyline
 90
     2
 70
     0
 43
0.001
 10
4.8655
 20
1.033
 10
4.8655
 20
0.883
  0
LWPOLYLINE
  5
18B
330
12
100
AcDbEntity
  8
10224-1_SMT
  6
BYLAYER
370
   211
 62
   256
100
AcDbPolyline
 90
     2
 70
     0
 43
0.001
 10
4.8646
 20
1.033
 10
4.8646
 20
0.883
  0
LWPOLYLINE
  5
18C
330
12
100
AcDbEntity
  8
10224-1_SMT
  6
BYLAYER
370
   211
 62
   256
100
AcDbPolyline
 90
     2
 70
     0
 43
0.001
 10
4.8637
 20
1.033
 10
4.8637
 20
0.883
  0
LWPOLYLINE
  5
18D
330
12
100
AcDbEntity
  8
10224-1_SMT
  6
BYLAYER
370
   211
 62
   256
100
AcDbPolyline
 90
     2
 70
     0
 43
0.001
 10
4.8628
 20
1.033
 10
4.8628
 20
0.883
  0
LWPOLYLINE
  5
18E
330
12
100
AcDbEntity
  8
10224-1_SMT
  6
BYLAYER
370
   211
 62
   256
100
AcDbPolyline
 90
     2
 70
     0
 43
0.001
 10
4.8619
 20
1.033
 10
4.8619
 20
0.883
  0
LWPOLYLINE
  5
18F
330
12
100
AcDbEntity
  8
10224-1_SMT
  6
BYLAYER
370
   211
 62
   256
100
AcDbPolyline
 90
     2
 70
     0
 43
0.001
 10
4.861
 20
1.033
 10
4.861
 20
0.883
  0
LWPOLYLINE
  5
190
330
12
100
AcDbEntity
  8
10224-1_SMT
  6
BYLAYER
370
   211
 62
   256
100
AcDbPolyline
 90
     2
 70
     0
 43
0.001
 10
4.8601
 20
1.033
 10
4.8601
 20
0.883
  0
LWPOLYLINE
  5
191
330
12
100
AcDbEntity
  8
10224-1_SMT
  6
BYLAYER
370
   211
 62
   256
100
AcDbPolyline
 90
     2
 70
     0
 43
0.001
 10
4.8592
 20
1.033
 10
4.8592
 20
0.883
  0
LWPOLYLINE
  5
192
330
12
100
AcDbEntity
  8
10224-1_SMT
  6
BYLAYER
370
   211
 62
   256
100
AcDbPolyline
 90
     2
 70
     0
 43
0.001
 10
4.8583
 20
1.033
 10
4.8583
 20
0.883
  0
LWPOLYLINE
  5
193
330
12
100
AcDbEntity
  8
10224-1_SMT
  6
BYLAYER
370
   211
 62
   256
100
AcDbPolyline
 90
     2
 70
     0
 43
0.001
 10
4.8574
 20
1.033
 10
4.8574
 20
0.883
  0
LWPOLYLINE
  5
194
330
12
100
AcDbEntity
  8
10224-1_SMT
  6
BYLAYER
370
   211
 62
   256
100
AcDbPolyline
 90
     2
 70
     0
 43
0.001
 10
4.8565
 20
1.033
 10
4.8565
 20
0.883
  0
LWPOLYLINE
  5
195
330
12
100
AcDbEntity
  8
10224-1_SMT
  6
BYLAYER
370
   211
 62
   256
100
AcDbPolyline
 90
     2
 70
     0
 43
0.001
 10
4.8556
 20
1.033
 10
4.8556
 20
0.883
  0
LWPOLYLINE
  5
196
330
12
100
AcDbEntity
  8
10224-1_SMT
  6
BYLAYER
370
   211
 62
   256
100
AcDbPolyline
 90
     2
 70
     0
 43
0.001
 10
4.8547
 20
1.033
 10
4.8547
 20
0.883
  0
LWPOLYLINE
  5
197
330
12
100
AcDbEntity
  8
10224-1_SMT
  6
BYLAYER
370
   211
 62
   256
100
AcDbPolyline
 90
     2
 70
     0
 43
0.001
 10
4.8538
 20
1.033
 10
4.8538
 20
0.883
  0
LWPOLYLINE
  5
198
330
12
100
AcDbEntity
  8
10224-1_SMT
  6
BYLAYER
370
   211
 62
   256
100
AcDbPolyline
 90
     2
 70
     0
 43
0.001
 10
4.8529
 20
1.033
 10
4.8529
 20
0.883
  0
LWPOLYLINE
  5
199
330
12
100
AcDbEntity
  8
10224-1_SMT
  6
BYLAYER
370
   211
 62
   256
100
AcDbPolyline
 90
     2
 70
     0
 43
0.001
 10
4.852
 20
1.033
 10
4.852
 20
0.883
  0
LWPOLYLINE
  5
19A
330
12
100
AcDbEntity
  8
10224-1_SMT
  6
BYLAYER
370
   211
 62
   256
100
AcDbPolyline
 90
     2
 70
     0
 43
0.001
 10
4.8511
 20
1.033
 10
4.8511
 20
0.883
  0
LWPOLYLINE
  5
19B
330
12
100
AcDbEntity
  8
10224-1_SMT
  6
BYLAYER
370
   211
 62
   256
100
AcDbPolyline
 90
     2
 70
     0
 43
0.001
 10
4.8502
 20
1.033
 10
4.8502
 20
0.883
  0
LWPOLYLINE
  5
19C
330
12
100
AcDbEntity
  8
10224-1_SMT
  6
BYLAYER
370
   211
 62
   256
100
AcDbPolyline
 90
     2
 70
     0
 43
0.001
 10
4.8493
 20
1.033
 10
4.8493
 20
0.883
  0
LWPOLYLINE
  5
19D
330
12
100
AcDbEntity
  8
10224-1_SMT
  6
BYLAYER
370
   211
 62
   256
100
AcDbPolyline
 90
     2
 70
     0
 43
0.001
 10
4.8484
 20
1.033
 10
4.8484
 20
0.883
  0
LWPOLYLINE
  5
19E
330
12
100
AcDbEntity
  8
10224-1_SMT
  6
BYLAYER
370
   211
 62
   256
100
AcDbPolyline
 90
     2
 70
     0
 43
0.001
 10
4.8475
 20
1.033
 10
4.8475
 20
0.883
  0
LWPOLYLINE
  5
19F
330
12
100
AcDbEntity
  8
10224-1_SMT
  6
BYLAYER
370
   211
 62
   256
100
AcDbPolyline
 90
     2
 70
     0
 43
0.001
 10
4.8466
 20
1.033
 10
4.8466
 20
0.883
  0
LWPOLYLINE
  5
1A0
330
12
100
AcDbEntity
  8
10224-1_SMT
  6
BYLAYER
370
   211
 62
   256
100
AcDbPolyline
 90
     2
 70
     0
 43
0.001
 10
4.8457
 20
1.033
 10
4.8457
 20
0.883
  0
LWPOLYLINE
  5
1A1
330
12
100
AcDbEntity
  8
10224-1_SMT
  6
BYLAYER
370
   211
 62
   256
100
AcDbPolyline
 90
     2
 70
     0
 43
0.001
 10
4.8448
 20
1.033
 10
4.8448
 20
0.883
  0
LWPOLYLINE
  5
1A2
330
12
100
AcDbEntity
  8
10224-1_SMT
  6
BYLAYER
370
   211
 62
   256
100
AcDbPolyline
 90
     2
 70
     0
 43
0.001
 10
4.8439
 20
1.033
 10
4.8439
 20
0.883
  0
LWPOLYLINE
  5
1A3
330
12
100
AcDbEntity
  8
10224-1_SMT
  6
BYLAYER
370
   211
 62
   256
100
AcDbPolyline
 90
     2
 70
     0
 43
0.001
 10
4.843
 20
1.033
 10
4.843
 20
0.883
  0
LWPOLYLINE
  5
1A4
330
12
100
AcDbEntity
  8
10224-1_SMT
  6
BYLAYER
370
   211
 62
   256
100
AcDbPolyline
 90
     2
 70
     0
 43
0.001
 10
4.8421
 20
1.033
 10
4.8421
 20
0.883
  0
LWPOLYLINE
  5
1A5
330
12
100
AcDbEntity
  8
10224-1_SMT
  6
BYLAYER
370
   211
 62
   256
100
AcDbPolyline
 90
     2
 70
     0
 43
0.001
 10
4.8412
 20
1.033
 10
4.8412
 20
0.883
  0
LWPOLYLINE
  5
1A6
330
12
100
AcDbEntity
  8
10224-1_SMT
  6
BYLAYER
370
   211
 62
   256
100
AcDbPolyline
 90
     2
 70
     0
 43
0.001
 10
4.8403
 20
1.033
 10
4.8403
 20
0.883
  0
LWPOLYLINE
  5
1A7
330
12
100
AcDbEntity
  8
10224-1_SMT
  6
BYLAYER
370
   211
 62
   256
100
AcDbPolyline
 90
     2
 70
     0
 43
0.001
 10
4.8394
 20
1.033
 10
4.8394
 20
0.883
  0
LWPOLYLINE
  5
1A8
330
12
100
AcDbEntity
  8
10224-1_SMT
  6
BYLAYER
370
   211
 62
   256
100
AcDbPolyline
 90
     2
 70
     0
 43
0.001
 10
4.8385
 20
1.033
 10
4.8385
 20
0.883
  0
LWPOLYLINE
  5
1A9
330
12
100
AcDbEntity
  8
10224-1_SMT
  6
BYLAYER
370
   211
 62
   256
100
AcDbPolyline
 90
     2
 70
     0
 43
0.001
 10
4.8376
 20
1.033
 10
4.8376
 20
0.883
  0
LWPOLYLINE
  5
1AA
330
12
100
AcDbEntity
  8
10224-1_SMT
  6
BYLAYER
370
   211
 62
   256
100
AcDbPolyline
 90
     2
 70
     0
 43
0.001
 10
4.8367
 20
1.033
 10
4.8367
 20
0.883
  0
LWPOLYLINE
  5
1AB
330
12
100
AcDbEntity
  8
10224-1_SMT
  6
BYLAYER
370
   211
 62
   256
100
AcDbPolyline
 90
     2
 70
     0
 43
0.001
 10
4.8358
 20
1.033
 10
4.8358
 20
0.883
  0
LWPOLYLINE
  5
1AC
330
12
100
AcDbEntity
  8
10224-1_SMT
  6
BYLAYER
370
   211
 62
   256
100
AcDbPolyline
 90
     2
 70
     0
 43
0.001
 10
4.8349
 20
1.033
 10
4.8349
 20
0.883
  0
LWPOLYLINE
  5
1AD
330
12
100
AcDbEntity
  8
10224-1_SMT
  6
BYLAYER
370
   211
 62
   256
100
AcDbPolyline
 90
     2
 70
     0
 43
0.001
 10
4.834
 20
1.033
 10
4.834
 20
0.883
  0
LWPOLYLINE
  5
1AE
330
12
100
AcDbEntity
  8
10224-1_SMT
  6
BYLAYER
370
   211
 62
   256
100
AcDbPolyline
 90
     2
 70
     0
 43
0.001
 10
4.8331
 20
1.033
 10
4.8331
 20
0.883
  0
LWPOLYLINE
  5
1AF
330
12
100
AcDbEntity
  8
10224-1_SMT
  6
BYLAYER
370
   211
 62
   256
100
AcDbPolyline
 90
     2
 70
     0
 43
0.001
 10
4.8322
 20
1.033
 10
4.8322
 20
0.883
  0
LWPOLYLINE
  5
1B0
330
12
100
AcDbEntity
  8
10224-1_SMT
  6
BYLAYER
370
   211
 62
   256
100
AcDbPolyline
 90
     2
 70
     0
 43
0.001
 10
4.8313
 20
1.033
 10
4.8313
 20
0.883
  0
LWPOLYLINE
  5
1B1
330
12
100
AcDbEntity
  8
10224-1_SMT
  6
BYLAYER
370
   211
 62
   256
100
AcDbPolyline
 90
     2
 70
     0
 43
0.001
 10
4.8304
 20
1.033
 10
4.8304
 20
0.883
  0
LWPOLYLINE
  5
1B2
330
12
100
AcDbEntity
  8
10224-1_SMT
  6
BYLAYER
370
   211
 62
   256
100
AcDbPolyline
 90
     2
 70
     0
 43
0.001
 10
4.8295
 20
1.033
 10
4.8295
 20
0.883
  0
LWPOLYLINE
  5
1B3
330
12
100
AcDbEntity
  8
10224-1_SMT
  6
BYLAYER
370
   211
 62
   256
100
AcDbPolyline
 90
     2
 70
     0
 43
0.001
 10
4.8286
 20
1.033
 10
4.8286
 20
0.883
  0
LWPOLYLINE
  5
1B4
330
12
100
AcDbEntity
  8
10224-1_SMT
  6
BYLAYER
370
   211
 62
   256
100
AcDbPolyline
 90
     2
 70
     0
 43
0.001
 10
4.8277
 20
1.033
 10
4.8277
 20
0.883
  0
LWPOLYLINE
  5
1B5
330
12
100
AcDbEntity
  8
10224-1_SMT
  6
BYLAYER
370
   211
 62
   256
100
AcDbPolyline
 90
     2
 70
     0
 43
0.001
 10
4.8268
 20
1.033
 10
4.8268
 20
0.883
  0
LWPOLYLINE
  5
1B6
330
12
100
AcDbEntity
  8
10224-1_SMT
  6
BYLAYER
370
   211
 62
   256
100
AcDbPolyline
 90
     2
 70
     0
 43
0.001
 10
4.8259
 20
1.033
 10
4.8259
 20
0.883
  0
LWPOLYLINE
  5
1B7
330
12
100
AcDbEntity
  8
10224-1_SMT
  6
BYLAYER
370
   211
 62
   256
100
AcDbPolyline
 90
     2
 70
     0
 43
0.001
 10
4.825
 20
1.033
 10
4.825
 20
0.883
  0
LWPOLYLINE
  5
1B8
330
12
100
AcDbEntity
  8
10224-1_SMT
  6
BYLAYER
370
   211
 62
   256
100
AcDbPolyline
 90
     2
 70
     0
 43
0.001
 10
4.8241
 20
1.033
 10
4.8241
 20
0.883
  0
LWPOLYLINE
  5
1B9
330
12
100
AcDbEntity
  8
10224-1_SMT
  6
BYLAYER
370
   211
 62
   256
100
AcDbPolyline
 90
     2
 70
     0
 43
0.001
 10
4.8232
 20
1.033
 10
4.8232
 20
0.883
  0
LWPOLYLINE
  5
1BA
330
12
100
AcDbEntity
  8
10224-1_SMT
  6
BYLAYER
370
   211
 62
   256
100
AcDbPolyline
 90
     2
 70
     0
 43
0.001
 10
4.8223
 20
1.033
 10
4.8223
 20
0.883
  0
LWPOLYLINE
  5
1BB
330
12
100
AcDbEntity
  8
10224-1_SMT
  6
BYLAYER
370
   211
 62
   256
100
AcDbPolyline
 90
     2
 70
     0
 43
0.001
 10
4.8214
 20
1.033
 10
4.8214
 20
0.883
  0
LWPOLYLINE
  5
1BC
330
12
100
AcDbEntity
  8
10224-1_SMT
  6
BYLAYER
370
   211
 62
   256
100
AcDbPolyline
 90
     2
 70
     0
 43
0.001
 10
4.8205
 20
1.033
 10
4.8205
 20
0.883
  0
LWPOLYLINE
  5
1BD
330
12
100
AcDbEntity
  8
10224-1_SMT
  6
BYLAYER
370
   211
 62
   256
100
AcDbPolyline
 90
     2
 70
     0
 43
0.001
 10
4.8196
 20
1.033
 10
4.8196
 20
0.883
  0
LWPOLYLINE
  5
1BE
330
12
100
AcDbEntity
  8
10224-1_SMT
  6
BYLAYER
370
   211
 62
   256
100
AcDbPolyline
 90
     2
 70
     0
 43
0.001
 10
4.8187
 20
1.033
 10
4.8187
 20
0.883
  0
LWPOLYLINE
  5
1BF
330
12
100
AcDbEntity
  8
10224-1_SMT
  6
BYLAYER
370
   211
 62
   256
100
AcDbPolyline
 90
     2
 70
     0
 43
0.001
 10
4.8178
 20
1.033
 10
4.8178
 20
0.883
  0
LWPOLYLINE
  5
1C0
330
12
100
AcDbEntity
  8
10224-1_SMT
  6
BYLAYER
370
   211
 62
   256
100
AcDbPolyline
 90
     2
 70
     0
 43
0.001
 10
4.8169
 20
1.033
 10
4.8169
 20
0.883
  0
LWPOLYLINE
  5
1C1
330
12
100
AcDbEntity
  8
10224-1_SMT
  6
BYLAYER
370
   211
 62
   256
100
AcDbPolyline
 90
     2
 70
     0
 43
0.001
 10
4.816
 20
1.033
 10
4.816
 20
0.883
  0
LWPOLYLINE
  5
1C2
330
12
100
AcDbEntity
  8
10224-1_SMT
  6
BYLAYER
370
   211
 62
   256
100
AcDbPolyline
 90
     2
 70
     0
 43
0.001
 10
4.8151
 20
1.033
 10
4.8151
 20
0.883
  0
LWPOLYLINE
  5
1C3
330
12
100
AcDbEntity
  8
10224-1_SMT
  6
BYLAYER
370
   211
 62
   256
100
AcDbPolyline
 90
     2
 70
     0
 43
0.001
 10
4.8142
 20
1.033
 10
4.8142
 20
0.883
  0
LWPOLYLINE
  5
1C4
330
12
100
AcDbEntity
  8
10224-1_SMT
  6
BYLAYER
370
   211
 62
   256
100
AcDbPolyline
 90
     2
 70
     0
 43
0.001
 10
4.8133
 20
1.033
 10
4.8133
 20
0.883
  0
LWPOLYLINE
  5
1C5
330
12
100
AcDbEntity
  8
10224-1_SMT
  6
BYLAYER
370
   211
 62
   256
100
AcDbPolyline
 90
     2
 70
     0
 43
0.001
 10
4.8124
 20
1.033
 10
4.8124
 20
0.883
  0
LWPOLYLINE
  5
1C6
330
12
100
AcDbEntity
  8
10224-1_SMT
  6
BYLAYER
370
   211
 62
   256
100
AcDbPolyline
 90
     2
 70
     0
 43
0.001
 10
4.8115
 20
1.033
 10
4.8115
 20
0.883
  0
LWPOLYLINE
  5
1C7
330
12
100
AcDbEntity
  8
10224-1_SMT
  6
BYLAYER
370
   211
 62
   256
100
AcDbPolyline
 90
     2
 70
     0
 43
0.001
 10
4.8106
 20
1.033
 10
4.8106
 20
0.883
  0
LWPOLYLINE
  5
1C8
330
12
100
AcDbEntity
  8
10224-1_SMT
  6
BYLAYER
370
   211
 62
   256
100
AcDbPolyline
 90
     2
 70
     0
 43
0.001
 10
4.8097
 20
1.033
 10
4.8097
 20
0.883
  0
LWPOLYLINE
  5
1C9
330
12
100
AcDbEntity
  8
10224-1_SMT
  6
BYLAYER
370
   211
 62
   256
100
AcDbPolyline
 90
     2
 70
     0
 43
0.001
 10
4.8088
 20
1.033
 10
4.8088
 20
0.883
  0
LWPOLYLINE
  5
1CA
330
12
100
AcDbEntity
  8
10224-1_SMT
  6
BYLAYER
370
   211
 62
   256
100
AcDbPolyline
 90
     2
 70
     0
 43
0.001
 10
4.8079
 20
1.033
 10
4.8079
 20
0.883
  0
LWPOLYLINE
  5
1CB
330
12
100
AcDbEntity
  8
10224-1_SMT
  6
BYLAYER
370
   211
 62
   256
100
AcDbPolyline
 90
     2
 70
     0
 43
0.001
 10
4.807
 20
1.033
 10
4.807
 20
0.883
  0
LWPOLYLINE
  5
1CC
330
12
100
AcDbEntity
  8
10224-1_SMT
  6
BYLAYER
370
   211
 62
   256
100
AcDbPolyline
 90
     2
 70
     0
 43
0.001
 10
4.8061
 20
1.033
 10
4.8061
 20
0.883
  0
LWPOLYLINE
  5
1CD
330
12
100
AcDbEntity
  8
10224-1_SMT
  6
BYLAYER
370
   211
 62
   256
100
AcDbPolyline
 90
     2
 70
     0
 43
0.001
 10
4.8052
 20
1.033
 10
4.8052
 20
0.883
  0
LWPOLYLINE
  5
1CE
330
12
100
AcDbEntity
  8
10224-1_SMT
  6
BYLAYER
370
   211
 62
   256
100
AcDbPolyline
 90
     2
 70
     0
 43
0.001
 10
4.8043
 20
1.033
 10
4.8043
 20
0.883
  0
LWPOLYLINE
  5
1CF
330
12
100
AcDbEntity
  8
10224-1_SMT
  6
BYLAYER
370
   211
 62
   256
100
AcDbPolyline
 90
     2
 70
     0
 43
0.001
 10
4.8034
 20
1.033
 10
4.8034
 20
0.883
  0
LWPOLYLINE
  5
1D0
330
12
100
AcDbEntity
  8
10224-1_SMT
  6
BYLAYER
370
   211
 62
   256
100
AcDbPolyline
 90
     2
 70
     0
 43
0.001
 10
4.8025
 20
1.033
 10
4.8025
 20
0.883
  0
LWPOLYLINE
  5
1D1
330
12
100
AcDbEntity
  8
10224-1_SMT
  6
BYLAYER
370
   211
 62
   256
100
AcDbPolyline
 90
     2
 70
     0
 43
0.001
 10
4.8016
 20
1.033
 10
4.8016
 20
0.883
  0
LWPOLYLINE
  5
1D2
330
12
100
AcDbEntity
  8
10224-1_SMT
  6
BYLAYER
370
   211
 62
   256
100
AcDbPolyline
 90
     2
 70
     0
 43
0.001
 10
4.8007
 20
1.033
 10
4.8007
 20
0.883
  0
LWPOLYLINE
  5
1D3
330
12
100
AcDbEntity
  8
10224-1_SMT
  6
BYLAYER
370
   211
 62
   256
100
AcDbPolyline
 90
     2
 70
     0
 43
0.001
 10
4.7998
 20
1.033
 10
4.7998
 20
0.883
  0
LWPOLYLINE
  5
1D4
330
12
100
AcDbEntity
  8
10224-1_SMT
  6
BYLAYER
370
   211
 62
   256
100
AcDbPolyline
 90
     2
 70
     0
 43
0.001
 10
4.7989
 20
1.033
 10
4.7989
 20
0.883
  0
LWPOLYLINE
  5
1D5
330
12
100
AcDbEntity
  8
10224-1_SMT
  6
BYLAYER
370
   211
 62
   256
100
AcDbPolyline
 90
     2
 70
     0
 43
0.001
 10
4.798
 20
1.033
 10
4.798
 20
0.883
  0
LWPOLYLINE
  5
1D6
330
12
100
AcDbEntity
  8
10224-1_SMT
  6
BYLAYER
370
   211
 62
   256
100
AcDbPolyline
 90
     2
 70
     0
 43
0.001
 10
4.7971
 20
1.033
 10
4.7971
 20
0.883
  0
LWPOLYLINE
  5
1D7
330
12
100
AcDbEntity
  8
10224-1_SMT
  6
BYLAYER
370
   211
 62
   256
100
AcDbPolyline
 90
     2
 70
     0
 43
0.001
 10
4.7962
 20
1.033
 10
4.7962
 20
0.883
  0
LWPOLYLINE
  5
1D8
330
12
100
AcDbEntity
  8
10224-1_SMT
  6
BYLAYER
370
   211
 62
   256
100
AcDbPolyline
 90
     2
 70
     0
 43
0.001
 10
4.7953
 20
1.033
 10
4.7953
 20
0.883
  0
LWPOLYLINE
  5
1D9
330
12
100
AcDbEntity
  8
10224-1_SMT
  6
BYLAYER
370
   211
 62
   256
100
AcDbPolyline
 90
     2
 70
     0
 43
0.001
 10
4.7944
 20
1.033
 10
4.7944
 20
0.883
  0
LWPOLYLINE
  5
1DA
330
12
100
AcDbEntity
  8
10224-1_SMT
  6
BYLAYER
370
   211
 62
   256
100
AcDbPolyline
 90
     2
 70
     0
 43
0.001
 10
4.7935
 20
1.033
 10
4.7935
 20
0.883
  0
LWPOLYLINE
  5
1DB
330
12
100
AcDbEntity
  8
10224-1_SMT
  6
BYLAYER
370
   211
 62
   256
100
AcDbPolyline
 90
     2
 70
     0
 43
0.001
 10
4.7926
 20
1.033
 10
4.7926
 20
0.883
  0
LWPOLYLINE
  5
1DC
330
12
100
AcDbEntity
  8
10224-1_SMT
  6
BYLAYER
370
   211
 62
   256
100
AcDbPolyline
 90
     2
 70
     0
 43
0.001
 10
4.7917
 20
1.033
 10
4.7917
 20
0.883
  0
LWPOLYLINE
  5
1DD
330
12
100
AcDbEntity
  8
10224-1_SMT
  6
BYLAYER
370
   211
 62
   256
100
AcDbPolyline
 90
     2
 70
     0
 43
0.001
 10
4.7908
 20
1.033
 10
4.7908
 20
0.883
  0
LWPOLYLINE
  5
1DE
330
12
100
AcDbEntity
  8
10224-1_SMT
  6
BYLAYER
370
   211
 62
   256
100
AcDbPolyline
 90
     2
 70
     0
 43
0.001
 10
4.7899
 20
1.033
 10
4.7899
 20
0.883
  0
LWPOLYLINE
  5
1DF
330
12
100
AcDbEntity
  8
10224-1_SMT
  6
BYLAYER
370
   211
 62
   256
100
AcDbPolyline
 90
     2
 70
     0
 43
0.001
 10
4.789
 20
1.033
 10
4.789
 20
0.883
  0
LWPOLYLINE
  5
1E0
330
12
100
AcDbEntity
  8
10224-1_SMT
  6
BYLAYER
370
   211
 62
   256
100
AcDbPolyline
 90
     2
 70
     0
 43
0.001
 10
4.7881
 20
1.033
 10
4.7881
 20
0.883
  0
LWPOLYLINE
  5
1E1
330
12
100
AcDbEntity
  8
10224-1_SMT
  6
BYLAYER
370
   211
 62
   256
100
AcDbPolyline
 90
     2
 70
     0
 43
0.001
 10
4.7872
 20
1.033
 10
4.7872
 20
0.883
  0
LWPOLYLINE
  5
1E2
330
12
100
AcDbEntity
  8
10224-1_SMT
  6
BYLAYER
370
   211
 62
   256
100
AcDbPolyline
 90
     2
 70
     0
 43
0.001
 10
4.7863
 20
1.033
 10
4.7863
 20
0.883
  0
LWPOLYLINE
  5
1E3
330
12
100
AcDbEntity
  8
10224-1_SMT
  6
BYLAYER
370
   211
 62
   256
100
AcDbPolyline
 90
     2
 70
     0
 43
0.001
 10
4.7854
 20
1.033
 10
4.7854
 20
0.883
  0
LWPOLYLINE
  5
1E4
330
12
100
AcDbEntity
  8
10224-1_SMT
  6
BYLAYER
370
   211
 62
   256
100
AcDbPolyline
 90
     2
 70
     0
 43
0.001
 10
4.7845
 20
1.033
 10
4.7845
 20
0.883
  0
LWPOLYLINE
  5
1E5
330
12
100
AcDbEntity
  8
10224-1_SMT
  6
BYLAYER
370
   211
 62
   256
100
AcDbPolyline
 90
     2
 70
     0
 43
0.001
 10
4.7836
 20
1.033
 10
4.7836
 20
0.883
  0
LWPOLYLINE
  5
1E6
330
12
100
AcDbEntity
  8
10224-1_SMT
  6
BYLAYER
370
   211
 62
   256
100
AcDbPolyline
 90
     2
 70
     0
 43
0.001
 10
4.7827
 20
1.033
 10
4.7827
 20
0.883
  0
LWPOLYLINE
  5
1E7
330
12
100
AcDbEntity
  8
10224-1_SMT
  6
BYLAYER
370
   211
 62
   256
100
AcDbPolyline
 90
     2
 70
     0
 43
0.001
 10
4.7818
 20
1.033
 10
4.7818
 20
0.883
  0
LWPOLYLINE
  5
1E8
330
12
100
AcDbEntity
  8
10224-1_SMT
  6
BYLAYER
370
   211
 62
   256
100
AcDbPolyline
 90
     2
 70
     0
 43
0.001
 10
4.7809
 20
1.033
 10
4.7809
 20
0.883
  0
LWPOLYLINE
  5
1E9
330
12
100
AcDbEntity
  8
10224-1_SMT
  6
BYLAYER
370
   211
 62
   256
100
AcDbPolyline
 90
     2
 70
     0
 43
0.001
 10
4.78
 20
1.033
 10
4.78
 20
0.883
  0
LWPOLYLINE
  5
1EA
330
12
100
AcDbEntity
  8
10224-1_SMT
  6
BYLAYER
370
   211
 62
   256
100
AcDbPolyline
 90
     2
 70
     0
 43
0.001
 10
4.7791
 20
1.033
 10
4.7791
 20
0.883
  0
LWPOLYLINE
  5
1EB
330
12
100
AcDbEntity
  8
10224-1_SMT
  6
BYLAYER
370
   211
 62
   256
100
AcDbPolyline
 90
     2
 70
     0
 43
0.001
 10
4.7782
 20
1.033
 10
4.7782
 20
0.883
  0
LWPOLYLINE
  5
1EC
330
12
100
AcDbEntity
  8
10224-1_SMT
  6
BYLAYER
370
   211
 62
   256
100
AcDbPolyline
 90
     2
 70
     0
 43
0.001
 10
4.7773
 20
1.033
 10
4.7773
 20
0.883
  0
LWPOLYLINE
  5
1ED
330
12
100
AcDbEntity
  8
10224-1_SMT
  6
BYLAYER
370
   211
 62
   256
100
AcDbPolyline
 90
     2
 70
     0
 43
0.001
 10
4.7764
 20
1.033
 10
4.7764
 20
0.883
  0
LWPOLYLINE
  5
1EE
330
12
100
AcDbEntity
  8
10224-1_SMT
  6
BYLAYER
370
   211
 62
   256
100
AcDbPolyline
 90
     2
 70
     0
 43
0.001
 10
4.7755
 20
1.033
 10
4.7755
 20
0.883
  0
LWPOLYLINE
  5
1EF
330
12
100
AcDbEntity
  8
10224-1_SMT
  6
BYLAYER
370
   211
 62
   256
100
AcDbPolyline
 90
     2
 70
     0
 43
0.001
 10
4.7746
 20
1.033
 10
4.7746
 20
0.883
  0
LWPOLYLINE
  5
1F0
330
12
100
AcDbEntity
  8
10224-1_SMT
  6
BYLAYER
370
   211
 62
   256
100
AcDbPolyline
 90
     2
 70
     0
 43
0.001
 10
4.7737
 20
1.033
 10
4.7737
 20
0.883
  0
LWPOLYLINE
  5
1F1
330
12
100
AcDbEntity
  8
10224-1_SMT
  6
BYLAYER
370
   211
 62
   256
100
AcDbPolyline
 90
     2
 70
     0
 43
0.001
 10
4.7728
 20
1.033
 10
4.7728
 20
0.883
  0
LWPOLYLINE
  5
1F2
330
12
100
AcDbEntity
  8
10224-1_SMT
  6
BYLAYER
370
   211
 62
   256
100
AcDbPolyline
 90
     2
 70
     0
 43
0.001
 10
4.7719
 20
1.033
 10
4.7719
 20
0.883
  0
LWPOLYLINE
  5
1F3
330
12
100
AcDbEntity
  8
10224-1_SMT
  6
BYLAYER
370
   211
 62
   256
100
AcDbPolyline
 90
     2
 70
     0
 43
0.001
 10
4.771
 20
1.033
 10
4.771
 20
0.883
  0
LWPOLYLINE
  5
1F4
330
12
100
AcDbEntity
  8
10224-1_SMT
  6
BYLAYER
370
   211
 62
   256
100
AcDbPolyline
 90
     2
 70
     0
 43
0.001
 10
4.7701
 20
1.033
 10
4.7701
 20
0.883
  0
LWPOLYLINE
  5
1F5
330
12
100
AcDbEntity
  8
10224-1_SMT
  6
BYLAYER
370
   211
 62
   256
100
AcDbPolyline
 90
     2
 70
     0
 43
0.001
 10
4.7692
 20
1.033
 10
4.7692
 20
0.883
  0
LWPOLYLINE
  5
1F6
330
12
100
AcDbEntity
  8
10224-1_SMT
  6
BYLAYER
370
   211
 62
   256
100
AcDbPolyline
 90
     2
 70
     0
 43
0.001
 10
4.7683
 20
1.033
 10
4.7683
 20
0.883
  0
LWPOLYLINE
  5
1F7
330
12
100
AcDbEntity
  8
10224-1_SMT
  6
BYLAYER
370
   211
 62
   256
100
AcDbPolyline
 90
     2
 70
     0
 43
0.001
 10
4.7674
 20
1.033
 10
4.7674
 20
0.883
  0
LWPOLYLINE
  5
1F8
330
12
100
AcDbEntity
  8
10224-1_SMT
  6
BYLAYER
370
   211
 62
   256
100
AcDbPolyline
 90
     2
 70
     0
 43
0.001
 10
4.7665
 20
1.033
 10
4.7665
 20
0.883
  0
LWPOLYLINE
  5
1F9
330
12
100
AcDbEntity
  8
10224-1_SMT
  6
BYLAYER
370
   211
 62
   256
100
AcDbPolyline
 90
     2
 70
     0
 43
0.001
 10
4.7656
 20
1.033
 10
4.7656
 20
0.883
  0
LWPOLYLINE
  5
1FA
330
12
100
AcDbEntity
  8
10224-1_SMT
  6
BYLAYER
370
   211
 62
   256
100
AcDbPolyline
 90
     2
 70
     0
 43
0.001
 10
4.7647
 20
1.033
 10
4.7647
 20
0.883
  0
LWPOLYLINE
  5
1FB
330
12
100
AcDbEntity
  8
10224-1_SMT
  6
BYLAYER
370
   211
 62
   256
100
AcDbPolyline
 90
     2
 70
     0
 43
0.001
 10
4.7638
 20
1.033
 10
4.7638
 20
0.883
  0
LWPOLYLINE
  5
1FC
330
12
100
AcDbEntity
  8
10224-1_SMT
  6
BYLAYER
370
   211
 62
   256
100
AcDbPolyline
 90
     2
 70
     0
 43
0.001
 10
4.7629
 20
1.033
 10
4.7629
 20
0.883
  0
LWPOLYLINE
  5
1FD
330
12
100
AcDbEntity
  8
10224-1_SMT
  6
BYLAYER
370
   211
 62
   256
100
AcDbPolyline
 90
     2
 70
     0
 43
0.001
 10
4.762
 20
1.033
 10
4.762
 20
0.883
  0
LWPOLYLINE
  5
1FE
330
12
100
AcDbEntity
  8
10224-1_SMT
  6
BYLAYER
370
   211
 62
   256
100
AcDbPolyline
 90
     2
 70
     0
 43
0.001
 10
4.7611
 20
1.033
 10
4.7611
 20
0.883
  0
LWPOLYLINE
  5
1FF
330
12
100
AcDbEntity
  8
10224-1_SMT
  6
BYLAYER
370
   211
 62
   256
100
AcDbPolyline
 90
     2
 70
     0
 43
0.001
 10
4.7602
 20
1.033
 10
4.7602
 20
0.883
  0
LWPOLYLINE
  5
200
330
12
100
AcDbEntity
  8
10224-1_SMT
  6
BYLAYER
370
   211
 62
   256
100
AcDbPolyline
 90
     2
 70
     0
 43
0.001
 10
4.7593
 20
1.033
 10
4.7593
 20
0.883
  0
LWPOLYLINE
  5
201
330
12
100
AcDbEntity
  8
10224-1_SMT
  6
BYLAYER
370
   211
 62
   256
100
AcDbPolyline
 90
     2
 70
     0
 43
0.001
 10
4.7584
 20
1.033
 10
4.7584
 20
0.883
  0
LWPOLYLINE
  5
202
330
12
100
AcDbEntity
  8
10224-1_SMT
  6
BYLAYER
370
   211
 62
   256
100
AcDbPolyline
 90
     2
 70
     0
 43
0.001
 10
4.7575
 20
1.033
 10
4.7575
 20
0.883
  0
LWPOLYLINE
  5
203
330
12
100
AcDbEntity
  8
10224-1_SMT
  6
BYLAYER
370
   211
 62
   256
100
AcDbPolyline
 90
     2
 70
     0
 43
0.001
 10
4.7566
 20
1.033
 10
4.7566
 20
0.883
  0
LWPOLYLINE
  5
204
330
12
100
AcDbEntity
  8
10224-1_SMT
  6
BYLAYER
370
   211
 62
   256
100
AcDbPolyline
 90
     2
 70
     0
 43
0.001
 10
4.7557
 20
1.033
 10
4.7557
 20
0.883
  0
LWPOLYLINE
  5
205
330
12
100
AcDbEntity
  8
10224-1_SMT
  6
BYLAYER
370
   211
 62
   256
100
AcDbPolyline
 90
     2
 70
     0
 43
0.001
 10
4.7548
 20
1.033
 10
4.7548
 20
0.883
  0
LWPOLYLINE
  5
206
330
12
100
AcDbEntity
  8
10224-1_SMT
  6
BYLAYER
370
   211
 62
   256
100
AcDbPolyline
 90
     2
 70
     0
 43
0.001
 10
4.7539
 20
1.033
 10
4.7539
 20
0.883
  0
LWPOLYLINE
  5
207
330
12
100
AcDbEntity
  8
10224-1_SMT
  6
BYLAYER
370
   211
 62
   256
100
AcDbPolyline
 90
     2
 70
     0
 43
0.001
 10
4.753
 20
1.033
 10
4.753
 20
0.883
  0
LWPOLYLINE
  5
208
330
12
100
AcDbEntity
  8
10224-1_SMT
  6
BYLAYER
370
   211
 62
   256
100
AcDbPolyline
 90
     2
 70
     0
 43
0.001
 10
4.7521
 20
1.033
 10
4.7521
 20
0.883
  0
LWPOLYLINE
  5
209
330
12
100
AcDbEntity
  8
10224-1_SMT
  6
BYLAYER
370
   211
 62
   256
100
AcDbPolyline
 90
     2
 70
     0
 43
0.001
 10
4.7512
 20
1.033
 10
4.7512
 20
0.883
  0
LWPOLYLINE
  5
20A
330
12
100
AcDbEntity
  8
10224-1_SMT
  6
BYLAYER
370
   211
 62
   256
100
AcDbPolyline
 90
     2
 70
     0
 43
0.001
 10
4.7503
 20
1.033
 10
4.7503
 20
0.883
  0
LWPOLYLINE
  5
20B
330
12
100
AcDbEntity
  8
10224-1_SMT
  6
BYLAYER
370
   211
 62
   256
100
AcDbPolyline
 90
     2
 70
     0
 43
0.001
 10
4.7494
 20
1.033
 10
4.7494
 20
0.883
  0
LWPOLYLINE
  5
20C
330
12
100
AcDbEntity
  8
10224-1_SMT
  6
BYLAYER
370
   211
 62
   256
100
AcDbPolyline
 90
     2
 70
     0
 43
0.001
 10
4.7485
 20
1.033
 10
4.7485
 20
0.883
  0
LWPOLYLINE
  5
20D
330
12
100
AcDbEntity
  8
10224-1_SMT
  6
BYLAYER
370
   211
 62
   256
100
AcDbPolyline
 90
     2
 70
     0
 43
0.001
 10
4.7476
 20
1.033
 10
4.7476
 20
0.883
  0
LWPOLYLINE
  5
20E
330
12
100
AcDbEntity
  8
10224-1_SMT
  6
BYLAYER
370
   211
 62
   256
100
AcDbPolyline
 90
     2
 70
     0
 43
0.001
 10
4.7467
 20
1.033
 10
4.7467
 20
0.883
  0
LWPOLYLINE
  5
20F
330
12
100
AcDbEntity
  8
10224-1_SMT
  6
BYLAYER
370
   211
 62
   256
100
AcDbPolyline
 90
     2
 70
     0
 43
0.001
 10
4.7458
 20
1.033
 10
4.7458
 20
0.883
  0
LWPOLYLINE
  5
210
330
12
100
AcDbEntity
  8
10224-1_SMT
  6
BYLAYER
370
   211
 62
   256
100
AcDbPolyline
 90
     2
 70
     0
 43
0.001
 10
4.7449
 20
1.033
 10
4.7449
 20
0.883
  0
LWPOLYLINE
  5
211
330
12
100
AcDbEntity
  8
10224-1_SMT
  6
BYLAYER
370
   211
 62
   256
100
AcDbPolyline
 90
     2
 70
     0
 43
0.001
 10
4.744
 20
1.033
 10
4.744
 20
0.883
  0
LWPOLYLINE
  5
212
330
12
100
AcDbEntity
  8
10224-1_SMT
  6
BYLAYER
370
   211
 62
   256
100
AcDbPolyline
 90
     2
 70
     0
 43
0.001
 10
4.7431
 20
1.033
 10
4.7431
 20
0.883
  0
LWPOLYLINE
  5
213
330
12
100
AcDbEntity
  8
10224-1_SMT
  6
BYLAYER
370
   211
 62
   256
100
AcDbPolyline
 90
     2
 70
     0
 43
0.001
 10
4.7422
 20
1.033
 10
4.7422
 20
0.883
  0
LWPOLYLINE
  5
214
330
12
100
AcDbEntity
  8
10224-1_SMT
  6
BYLAYER
370
   211
 62
   256
100
AcDbPolyline
 90
     2
 70
     0
 43
0.001
 10
4.7413
 20
1.033
 10
4.7413
 20
0.883
  0
LWPOLYLINE
  5
215
330
12
100
AcDbEntity
  8
10224-1_SMT
  6
BYLAYER
370
   211
 62
   256
100
AcDbPolyline
 90
     2
 70
     0
 43
0.001
 10
4.7404
 20
1.033
 10
4.7404
 20
0.883
  0
LWPOLYLINE
  5
216
330
12
100
AcDbEntity
  8
10224-1_SMT
  6
BYLAYER
370
   211
 62
   256
100
AcDbPolyline
 90
     2
 70
     0
 43
0.001
 10
4.7395
 20
1.033
 10
4.7395
 20
0.883
  0
LWPOLYLINE
  5
217
330
12
100
AcDbEntity
  8
10224-1_SMT
  6
BYLAYER
370
   211
 62
   256
100
AcDbPolyline
 90
     2
 70
     0
 43
0.001
 10
4.7386
 20
1.033
 10
4.7386
 20
0.883
  0
LWPOLYLINE
  5
218
330
12
100
AcDbEntity
  8
10224-1_SMT
  6
BYLAYER
370
   211
 62
   256
100
AcDbPolyline
 90
     2
 70
     0
 43
0.001
 10
4.7377
 20
1.033
 10
4.7377
 20
0.883
  0
LWPOLYLINE
  5
219
330
12
100
AcDbEntity
  8
10224-1_SMT
  6
BYLAYER
370
   211
 62
   256
100
AcDbPolyline
 90
     2
 70
     0
 43
0.001
 10
4.7368
 20
1.033
 10
4.7368
 20
0.883
  0
LWPOLYLINE
  5
21A
330
12
100
AcDbEntity
  8
10224-1_SMT
  6
BYLAYER
370
   211
 62
   256
100
AcDbPolyline
 90
     2
 70
     0
 43
0.001
 10
4.7359
 20
1.033
 10
4.7359
 20
0.883
  0
LWPOLYLINE
  5
21B
330
12
100
AcDbEntity
  8
10224-1_SMT
  6
BYLAYER
370
   211
 62
   256
100
AcDbPolyline
 90
     2
 70
     0
 43
0.001
 10
4.735
 20
1.033
 10
4.735
 20
0.883
  0
LWPOLYLINE
  5
21C
330
12
100
AcDbEntity
  8
10224-1_SMT
  6
BYLAYER
370
   211
 62
   256
100
AcDbPolyline
 90
     2
 70
     0
 43
0.001
 10
4.7341
 20
1.033
 10
4.7341
 20
0.883
  0
LWPOLYLINE
  5
21D
330
12
100
AcDbEntity
  8
10224-1_SMT
  6
BYLAYER
370
   211
 62
   256
100
AcDbPolyline
 90
     2
 70
     0
 43
0.001
 10
4.7332
 20
1.033
 10
4.7332
 20
0.883
  0
LWPOLYLINE
  5
21E
330
12
100
AcDbEntity
  8
10224-1_SMT
  6
BYLAYER
370
   211
 62
   256
100
AcDbPolyline
 90
     2
 70
     0
 43
0.001
 10
4.7323
 20
1.033
 10
4.7323
 20
0.883
  0
LWPOLYLINE
  5
21F
330
12
100
AcDbEntity
  8
10224-1_SMT
  6
BYLAYER
370
   211
 62
   256
100
AcDbPolyline
 90
     2
 70
     0
 43
0.001
 10
4.7314
 20
1.033
 10
4.7314
 20
0.883
  0
LWPOLYLINE
  5
220
330
12
100
AcDbEntity
  8
10224-1_SMT
  6
BYLAYER
370
   211
 62
   256
100
AcDbPolyline
 90
     2
 70
     0
 43
0.001
 10
4.7305
 20
1.033
 10
4.7305
 20
0.883
  0
LWPOLYLINE
  5
221
330
12
100
AcDbEntity
  8
10224-1_SMT
  6
BYLAYER
370
   211
 62
   256
100
AcDbPolyline
 90
     2
 70
     0
 43
0.001
 10
4.7296
 20
1.033
 10
4.7296
 20
0.883
  0
LWPOLYLINE
  5
222
330
12
100
AcDbEntity
  8
10224-1_SMT
  6
BYLAYER
370
   211
 62
   256
100
AcDbPolyline
 90
     2
 70
     0
 43
0.001
 10
4.7287
 20
1.033
 10
4.7287
 20
0.883
  0
LWPOLYLINE
  5
223
330
12
100
AcDbEntity
  8
10224-1_SMT
  6
BYLAYER
370
   211
 62
   256
100
AcDbPolyline
 90
     2
 70
     0
 43
0.001
 10
4.7278
 20
1.033
 10
4.7278
 20
0.883
  0
LWPOLYLINE
  5
224
330
12
100
AcDbEntity
  8
10224-1_SMT
  6
BYLAYER
370
   211
 62
   256
100
AcDbPolyline
 90
     2
 70
     0
 43
0.001
 10
4.7269
 20
1.033
 10
4.7269
 20
0.883
  0
LWPOLYLINE
  5
225
330
12
100
AcDbEntity
  8
10224-1_SMT
  6
BYLAYER
370
   211
 62
   256
100
AcDbPolyline
 90
     2
 70
     0
 43
0.001
 10
4.726
 20
1.033
 10
4.726
 20
0.883
  0
LWPOLYLINE
  5
226
330
12
100
AcDbEntity
  8
10224-1_SMT
  6
BYLAYER
370
   211
 62
   256
100
AcDbPolyline
 90
     2
 70
     0
 43
0.001
 10
4.7251
 20
1.033
 10
4.7251
 20
0.883
  0
LWPOLYLINE
  5
227
330
12
100
AcDbEntity
  8
10224-1_SMT
  6
BYLAYER
370
   211
 62
   256
100
AcDbPolyline
 90
     2
 70
     0
 43
0.001
 10
4.7242
 20
1.033
 10
4.7242
 20
0.883
  0
LWPOLYLINE
  5
228
330
12
100
AcDbEntity
  8
10224-1_SMT
  6
BYLAYER
370
   211
 62
   256
100
AcDbPolyline
 90
     2
 70
     0
 43
0.001
 10
4.7233
 20
1.033
 10
4.7233
 20
0.883
  0
LWPOLYLINE
  5
229
330
12
100
AcDbEntity
  8
10224-1_SMT
  6
BYLAYER
370
   211
 62
   256
100
AcDbPolyline
 90
     2
 70
     0
 43
0.001
 10
4.7224
 20
1.033
 10
4.7224
 20
0.883
  0
LWPOLYLINE
  5
22A
330
12
100
AcDbEntity
  8
10224-1_SMT
  6
BYLAYER
370
   211
 62
   256
100
AcDbPolyline
 90
     2
 70
     0
 43
0.001
 10
4.7215
 20
1.033
 10
4.7215
 20
0.883
  0
LWPOLYLINE
  5
22B
330
12
100
AcDbEntity
  8
10224-1_SMT
  6
BYLAYER
370
   211
 62
   256
100
AcDbPolyline
 90
     2
 70
     0
 43
0.001
 10
4.7206
 20
1.033
 10
4.7206
 20
0.883
  0
LWPOLYLINE
  5
22C
330
12
100
AcDbEntity
  8
10224-1_SMT
  6
BYLAYER
370
   211
 62
   256
100
AcDbPolyline
 90
     2
 70
     0
 43
0.001
 10
4.7197
 20
1.033
 10
4.7197
 20
0.883
  0
LWPOLYLINE
  5
22D
330
12
100
AcDbEntity
  8
10224-1_SMT
  6
BYLAYER
370
   211
 62
   256
100
AcDbPolyline
 90
     2
 70
     0
 43
0.001
 10
4.7188
 20
1.033
 10
4.7188
 20
0.883
  0
LWPOLYLINE
  5
22E
330
12
100
AcDbEntity
  8
10224-1_SMT
  6
BYLAYER
370
   211
 62
   256
100
AcDbPolyline
 90
     2
 70
     0
 43
0.001
 10
4.7179
 20
1.033
 10
4.7179
 20
0.883
  0
LWPOLYLINE
  5
22F
330
12
100
AcDbEntity
  8
10224-1_SMT
  6
BYLAYER
370
   211
 62
   256
100
AcDbPolyline
 90
     2
 70
     0
 43
0.001
 10
4.717
 20
1.033
 10
4.717
 20
0.883
  0
LWPOLYLINE
  5
230
330
12
100
AcDbEntity
  8
10224-1_SMT
  6
BYLAYER
370
   211
 62
   256
100
AcDbPolyline
 90
     2
 70
     0
 43
0.001
 10
4.7161
 20
1.033
 10
4.7161
 20
0.883
  0
LWPOLYLINE
  5
231
330
12
100
AcDbEntity
  8
10224-1_SMT
  6
BYLAYER
370
   211
 62
   256
100
AcDbPolyline
 90
     2
 70
     0
 43
0.001
 10
4.7152
 20
1.033
 10
4.7152
 20
0.883
  0
LWPOLYLINE
  5
232
330
12
100
AcDbEntity
  8
10224-1_SMT
  6
BYLAYER
370
   211
 62
   256
100
AcDbPolyline
 90
     2
 70
     0
 43
0.001
 10
4.7143
 20
1.033
 10
4.7143
 20
0.883
  0
LWPOLYLINE
  5
233
330
12
100
AcDbEntity
  8
10224-1_SMT
  6
BYLAYER
370
   211
 62
   256
100
AcDbPolyline
 90
     2
 70
     0
 43
0.001
 10
4.7134
 20
1.033
 10
4.7134
 20
0.883
  0
LWPOLYLINE
  5
234
330
12
100
AcDbEntity
  8
10224-1_SMT
  6
BYLAYER
370
   211
 62
   256
100
AcDbPolyline
 90
     2
 70
     0
 43
0.001
 10
4.7125
 20
1.033
 10
4.7125
 20
0.883
  0
LWPOLYLINE
  5
235
330
12
100
AcDbEntity
  8
10224-1_SMT
  6
BYLAYER
370
   211
 62
   256
100
AcDbPolyline
 90
     2
 70
     0
 43
0.001
 10
4.7116
 20
1.033
 10
4.7116
 20
0.883
  0
LWPOLYLINE
  5
236
330
12
100
AcDbEntity
  8
10224-1_SMT
  6
BYLAYER
370
   211
 62
   256
100
AcDbPolyline
 90
     2
 70
     0
 43
0.001
 10
4.7107
 20
1.033
 10
4.7107
 20
0.883
  0
LWPOLYLINE
  5
237
330
12
100
AcDbEntity
  8
10224-1_SMT
  6
BYLAYER
370
   211
 62
   256
100
AcDbPolyline
 90
     2
 70
     0
 43
0.001
 10
4.7098
 20
1.033
 10
4.7098
 20
0.883
  0
LWPOLYLINE
  5
238
330
12
100
AcDbEntity
  8
10224-1_SMT
  6
BYLAYER
370
   211
 62
   256
100
AcDbPolyline
 90
     2
 70
     0
 43
0.001
 10
4.7089
 20
1.033
 10
4.7089
 20
0.883
  0
LWPOLYLINE
  5
239
330
12
100
AcDbEntity
  8
10224-1_SMT
  6
BYLAYER
370
   211
 62
   256
100
AcDbPolyline
 90
     2
 70
     0
 43
0.001
 10
4.708
 20
1.033
 10
4.708
 20
0.883
  0
LWPOLYLINE
  5
23A
330
12
100
AcDbEntity
  8
10224-1_SMT
  6
BYLAYER
370
   211
 62
   256
100
AcDbPolyline
 90
     2
 70
     0
 43
0.001
 10
4.7071
 20
1.033
 10
4.7071
 20
0.883
  0
LWPOLYLINE
  5
23B
330
12
100
AcDbEntity
  8
10224-1_SMT
  6
BYLAYER
370
   211
 62
   256
100
AcDbPolyline
 90
     2
 70
     0
 43
0.001
 10
4.7062
 20
1.033
 10
4.7062
 20
0.883
  0
LWPOLYLINE
  5
23C
330
12
100
AcDbEntity
  8
10224-1_SMT
  6
BYLAYER
370
   211
 62
   256
100
AcDbPolyline
 90
     2
 70
     0
 43
0.001
 10
4.7053
 20
1.033
 10
4.7053
 20
0.883
  0
LWPOLYLINE
  5
23D
330
12
100
AcDbEntity
  8
10224-1_SMT
  6
BYLAYER
370
   211
 62
   256
100
AcDbPolyline
 90
     2
 70
     0
 43
0.001
 10
4.954
 20
1.0319
 10
4.704
 20
1.0319
  0
LWPOLYLINE
  5
23E
330
12
100
AcDbEntity
  8
10224-1_SMT
  6
BYLAYER
370
   211
 62
   256
100
AcDbPolyline
 90
     2
 70
     0
 43
0.001
 10
4.954
 20
1.031
 10
4.704
 20
1.031
  0
LWPOLYLINE
  5
23F
330
12
100
AcDbEntity
  8
10224-1_SMT
  6
BYLAYER
370
   211
 62
   256
100
AcDbPolyline
 90
     2
 70
     0
 43
0.001
 10
4.954
 20
1.0301
 10
4.704
 20
1.0301
  0
LWPOLYLINE
  5
240
330
12
100
AcDbEntity
  8
10224-1_SMT
  6
BYLAYER
370
   211
 62
   256
100
AcDbPolyline
 90
     2
 70
     0
 43
0.001
 10
4.954
 20
1.0292
 10
4.704
 20
1.0292
  0
LWPOLYLINE
  5
241
330
12
100
AcDbEntity
  8
10224-1_SMT
  6
BYLAYER
370
   211
 62
   256
100
AcDbPolyline
 90
     2
 70
     0
 43
0.001
 10
4.954
 20
1.0283
 10
4.704
 20
1.0283
  0
LWPOLYLINE
  5
242
330
12
100
AcDbEntity
  8
10224-1_SMT
  6
BYLAYER
370
   211
 62
   256
100
AcDbPolyline
 90
     2
 70
     0
 43
0.001
 10
4.954
 20
1.0274
 10
4.704
 20
1.0274
  0
LWPOLYLINE
  5
243
330
12
100
AcDbEntity
  8
10224-1_SMT
  6
BYLAYER
370
   211
 62
   256
100
AcDbPolyline
 90
     2
 70
     0
 43
0.001
 10
4.954
 20
1.0265
 10
4.704
 20
1.0265
  0
LWPOLYLINE
  5
244
330
12
100
AcDbEntity
  8
10224-1_SMT
  6
BYLAYER
370
   211
 62
   256
100
AcDbPolyline
 90
     2
 70
     0
 43
0.001
 10
4.954
 20
1.0256
 10
4.704
 20
1.0256
  0
LWPOLYLINE
  5
245
330
12
100
AcDbEntity
  8
10224-1_SMT
  6
BYLAYER
370
   211
 62
   256
100
AcDbPolyline
 90
     2
 70
     0
 43
0.001
 10
4.954
 20
1.0247
 10
4.704
 20
1.0247
  0
LWPOLYLINE
  5
246
330
12
100
AcDbEntity
  8
10224-1_SMT
  6
BYLAYER
370
   211
 62
   256
100
AcDbPolyline
 90
     2
 70
     0
 43
0.001
 10
4.954
 20
1.0238
 10
4.704
 20
1.0238
  0
LWPOLYLINE
  5
247
330
12
100
AcDbEntity
  8
10224-1_SMT
  6
BYLAYER
370
   211
 62
   256
100
AcDbPolyline
 90
     2
 70
     0
 43
0.001
 10
4.954
 20
1.0229
 10
4.704
 20
1.0229
  0
LWPOLYLINE
  5
248
330
12
100
AcDbEntity
  8
10224-1_SMT
  6
BYLAYER
370
   211
 62
   256
100
AcDbPolyline
 90
     2
 70
     0
 43
0.001
 10
4.954
 20
1.022
 10
4.704
 20
1.022
  0
LWPOLYLINE
  5
249
330
12
100
AcDbEntity
  8
10224-1_SMT
  6
BYLAYER
370
   211
 62
   256
100
AcDbPolyline
 90
     2
 70
     0
 43
0.001
 10
4.954
 20
1.0211
 10
4.704
 20
1.0211
  0
LWPOLYLINE
  5
24A
330
12
100
AcDbEntity
  8
10224-1_SMT
  6
BYLAYER
370
   211
 62
   256
100
AcDbPolyline
 90
     2
 70
     0
 43
0.001
 10
4.954
 20
1.0202
 10
4.704
 20
1.0202
  0
LWPOLYLINE
  5
24B
330
12
100
AcDbEntity
  8
10224-1_SMT
  6
BYLAYER
370
   211
 62
   256
100
AcDbPolyline
 90
     2
 70
     0
 43
0.001
 10
4.954
 20
1.0193
 10
4.704
 20
1.0193
  0
LWPOLYLINE
  5
24C
330
12
100
AcDbEntity
  8
10224-1_SMT
  6
BYLAYER
370
   211
 62
   256
100
AcDbPolyline
 90
     2
 70
     0
 43
0.001
 10
4.954
 20
1.0184
 10
4.704
 20
1.0184
  0
LWPOLYLINE
  5
24D
330
12
100
AcDbEntity
  8
10224-1_SMT
  6
BYLAYER
370
   211
 62
   256
100
AcDbPolyline
 90
     2
 70
     0
 43
0.001
 10
4.954
 20
1.0175
 10
4.704
 20
1.0175
  0
LWPOLYLINE
  5
24E
330
12
100
AcDbEntity
  8
10224-1_SMT
  6
BYLAYER
370
   211
 62
   256
100
AcDbPolyline
 90
     2
 70
     0
 43
0.001
 10
4.954
 20
1.0166
 10
4.704
 20
1.0166
  0
LWPOLYLINE
  5
24F
330
12
100
AcDbEntity
  8
10224-1_SMT
  6
BYLAYER
370
   211
 62
   256
100
AcDbPolyline
 90
     2
 70
     0
 43
0.001
 10
4.954
 20
1.0157
 10
4.704
 20
1.0157
  0
LWPOLYLINE
  5
250
330
12
100
AcDbEntity
  8
10224-1_SMT
  6
BYLAYER
370
   211
 62
   256
100
AcDbPolyline
 90
     2
 70
     0
 43
0.001
 10
4.954
 20
1.0148
 10
4.704
 20
1.0148
  0
LWPOLYLINE
  5
251
330
12
100
AcDbEntity
  8
10224-1_SMT
  6
BYLAYER
370
   211
 62
   256
100
AcDbPolyline
 90
     2
 70
     0
 43
0.001
 10
4.954
 20
1.0139
 10
4.704
 20
1.0139
  0
LWPOLYLINE
  5
252
330
12
100
AcDbEntity
  8
10224-1_SMT
  6
BYLAYER
370
   211
 62
   256
100
AcDbPolyline
 90
     2
 70
     0
 43
0.001
 10
4.954
 20
1.013
 10
4.704
 20
1.013
  0
LWPOLYLINE
  5
253
330
12
100
AcDbEntity
  8
10224-1_SMT
  6
BYLAYER
370
   211
 62
   256
100
AcDbPolyline
 90
     2
 70
     0
 43
0.001
 10
4.954
 20
1.0121
 10
4.704
 20
1.0121
  0
LWPOLYLINE
  5
254
330
12
100
AcDbEntity
  8
10224-1_SMT
  6
BYLAYER
370
   211
 62
   256
100
AcDbPolyline
 90
     2
 70
     0
 43
0.001
 10
4.954
 20
1.0112
 10
4.704
 20
1.0112
  0
LWPOLYLINE
  5
255
330
12
100
AcDbEntity
  8
10224-1_SMT
  6
BYLAYER
370
   211
 62
   256
100
AcDbPolyline
 90
     2
 70
     0
 43
0.001
 10
4.954
 20
1.0103
 10
4.704
 20
1.0103
  0
LWPOLYLINE
  5
256
330
12
100
AcDbEntity
  8
10224-1_SMT
  6
BYLAYER
370
   211
 62
   256
100
AcDbPolyline
 90
     2
 70
     0
 43
0.001
 10
4.954
 20
1.0094
 10
4.704
 20
1.0094
  0
LWPOLYLINE
  5
257
330
12
100
AcDbEntity
  8
10224-1_SMT
  6
BYLAYER
370
   211
 62
   256
100
AcDbPolyline
 90
     2
 70
     0
 43
0.001
 10
4.954
 20
1.0085
 10
4.704
 20
1.0085
  0
LWPOLYLINE
  5
258
330
12
100
AcDbEntity
  8
10224-1_SMT
  6
BYLAYER
370
   211
 62
   256
100
AcDbPolyline
 90
     2
 70
     0
 43
0.001
 10
4.954
 20
1.0076
 10
4.704
 20
1.0076
  0
LWPOLYLINE
  5
259
330
12
100
AcDbEntity
  8
10224-1_SMT
  6
BYLAYER
370
   211
 62
   256
100
AcDbPolyline
 90
     2
 70
     0
 43
0.001
 10
4.954
 20
1.0067
 10
4.704
 20
1.0067
  0
LWPOLYLINE
  5
25A
330
12
100
AcDbEntity
  8
10224-1_SMT
  6
BYLAYER
370
   211
 62
   256
100
AcDbPolyline
 90
     2
 70
     0
 43
0.001
 10
4.954
 20
1.0058
 10
4.704
 20
1.0058
  0
LWPOLYLINE
  5
25B
330
12
100
AcDbEntity
  8
10224-1_SMT
  6
BYLAYER
370
   211
 62
   256
100
AcDbPolyline
 90
     2
 70
     0
 43
0.001
 10
4.954
 20
1.0049
 10
4.704
 20
1.0049
  0
LWPOLYLINE
  5
25C
330
12
100
AcDbEntity
  8
10224-1_SMT
  6
BYLAYER
370
   211
 62
   256
100
AcDbPolyline
 90
     2
 70
     0
 43
0.001
 10
4.954
 20
1.004
 10
4.704
 20
1.004
  0
LWPOLYLINE
  5
25D
330
12
100
AcDbEntity
  8
10224-1_SMT
  6
BYLAYER
370
   211
 62
   256
100
AcDbPolyline
 90
     2
 70
     0
 43
0.001
 10
4.954
 20
1.0031
 10
4.704
 20
1.0031
  0
LWPOLYLINE
  5
25E
330
12
100
AcDbEntity
  8
10224-1_SMT
  6
BYLAYER
370
   211
 62
   256
100
AcDbPolyline
 90
     2
 70
     0
 43
0.001
 10
4.954
 20
1.0022
 10
4.704
 20
1.0022
  0
LWPOLYLINE
  5
25F
330
12
100
AcDbEntity
  8
10224-1_SMT
  6
BYLAYER
370
   211
 62
   256
100
AcDbPolyline
 90
     2
 70
     0
 43
0.001
 10
4.954
 20
1.0013
 10
4.704
 20
1.0013
  0
LWPOLYLINE
  5
260
330
12
100
AcDbEntity
  8
10224-1_SMT
  6
BYLAYER
370
   211
 62
   256
100
AcDbPolyline
 90
     2
 70
     0
 43
0.001
 10
4.954
 20
1.0004
 10
4.704
 20
1.0004
  0
LWPOLYLINE
  5
261
330
12
100
AcDbEntity
  8
10224-1_SMT
  6
BYLAYER
370
   211
 62
   256
100
AcDbPolyline
 90
     2
 70
     0
 43
0.001
 10
4.954
 20
0.9995
 10
4.704
 20
0.9995
  0
LWPOLYLINE
  5
262
330
12
100
AcDbEntity
  8
10224-1_SMT
  6
BYLAYER
370
   211
 62
   256
100
AcDbPolyline
 90
     2
 70
     0
 43
0.001
 10
4.954
 20
0.9986
 10
4.704
 20
0.9986
  0
LWPOLYLINE
  5
263
330
12
100
AcDbEntity
  8
10224-1_SMT
  6
BYLAYER
370
   211
 62
   256
100
AcDbPolyline
 90
     2
 70
     0
 43
0.001
 10
4.954
 20
0.9977
 10
4.704
 20
0.9977
  0
LWPOLYLINE
  5
264
330
12
100
AcDbEntity
  8
10224-1_SMT
  6
BYLAYER
370
   211
 62
   256
100
AcDbPolyline
 90
     2
 70
     0
 43
0.001
 10
4.954
 20
0.9968
 10
4.704
 20
0.9968
  0
LWPOLYLINE
  5
265
330
12
100
AcDbEntity
  8
10224-1_SMT
  6
BYLAYER
370
   211
 62
   256
100
AcDbPolyline
 90
     2
 70
     0
 43
0.001
 10
4.954
 20
0.9959
 10
4.704
 20
0.9959
  0
LWPOLYLINE
  5
266
330
12
100
AcDbEntity
  8
10224-1_SMT
  6
BYLAYER
370
   211
 62
   256
100
AcDbPolyline
 90
     2
 70
     0
 43
0.001
 10
4.954
 20
0.995
 10
4.704
 20
0.995
  0
LWPOLYLINE
  5
267
330
12
100
AcDbEntity
  8
10224-1_SMT
  6
BYLAYER
370
   211
 62
   256
100
AcDbPolyline
 90
     2
 70
     0
 43
0.001
 10
4.954
 20
0.9941
 10
4.704
 20
0.9941
  0
LWPOLYLINE
  5
268
330
12
100
AcDbEntity
  8
10224-1_SMT
  6
BYLAYER
370
   211
 62
   256
100
AcDbPolyline
 90
     2
 70
     0
 43
0.001
 10
4.954
 20
0.9932
 10
4.704
 20
0.9932
  0
LWPOLYLINE
  5
269
330
12
100
AcDbEntity
  8
10224-1_SMT
  6
BYLAYER
370
   211
 62
   256
100
AcDbPolyline
 90
     2
 70
     0
 43
0.001
 10
4.954
 20
0.9923
 10
4.704
 20
0.9923
  0
LWPOLYLINE
  5
26A
330
12
100
AcDbEntity
  8
10224-1_SMT
  6
BYLAYER
370
   211
 62
   256
100
AcDbPolyline
 90
     2
 70
     0
 43
0.001
 10
4.954
 20
0.9914
 10
4.704
 20
0.9914
  0
LWPOLYLINE
  5
26B
330
12
100
AcDbEntity
  8
10224-1_SMT
  6
BYLAYER
370
   211
 62
   256
100
AcDbPolyline
 90
     2
 70
     0
 43
0.001
 10
4.954
 20
0.9905
 10
4.704
 20
0.9905
  0
LWPOLYLINE
  5
26C
330
12
100
AcDbEntity
  8
10224-1_SMT
  6
BYLAYER
370
   211
 62
   256
100
AcDbPolyline
 90
     2
 70
     0
 43
0.001
 10
4.954
 20
0.9896
 10
4.704
 20
0.9896
  0
LWPOLYLINE
  5
26D
330
12
100
AcDbEntity
  8
10224-1_SMT
  6
BYLAYER
370
   211
 62
   256
100
AcDbPolyline
 90
     2
 70
     0
 43
0.001
 10
4.954
 20
0.9887
 10
4.704
 20
0.9887
  0
LWPOLYLINE
  5
26E
330
12
100
AcDbEntity
  8
10224-1_SMT
  6
BYLAYER
370
   211
 62
   256
100
AcDbPolyline
 90
     2
 70
     0
 43
0.001
 10
4.954
 20
0.9878
 10
4.704
 20
0.9878
  0
LWPOLYLINE
  5
26F
330
12
100
AcDbEntity
  8
10224-1_SMT
  6
BYLAYER
370
   211
 62
   256
100
AcDbPolyline
 90
     2
 70
     0
 43
0.001
 10
4.954
 20
0.9869
 10
4.704
 20
0.9869
  0
LWPOLYLINE
  5
270
330
12
100
AcDbEntity
  8
10224-1_SMT
  6
BYLAYER
370
   211
 62
   256
100
AcDbPolyline
 90
     2
 70
     0
 43
0.001
 10
4.954
 20
0.986
 10
4.704
 20
0.986
  0
LWPOLYLINE
  5
271
330
12
100
AcDbEntity
  8
10224-1_SMT
  6
BYLAYER
370
   211
 62
   256
100
AcDbPolyline
 90
     2
 70
     0
 43
0.001
 10
4.954
 20
0.9851
 10
4.704
 20
0.9851
  0
LWPOLYLINE
  5
272
330
12
100
AcDbEntity
  8
10224-1_SMT
  6
BYLAYER
370
   211
 62
   256
100
AcDbPolyline
 90
     2
 70
     0
 43
0.001
 10
4.954
 20
0.9842
 10
4.704
 20
0.9842
  0
LWPOLYLINE
  5
273
330
12
100
AcDbEntity
  8
10224-1_SMT
  6
BYLAYER
370
   211
 62
   256
100
AcDbPolyline
 90
     2
 70
     0
 43
0.001
 10
4.954
 20
0.9833
 10
4.704
 20
0.9833
  0
LWPOLYLINE
  5
274
330
12
100
AcDbEntity
  8
10224-1_SMT
  6
BYLAYER
370
   211
 62
   256
100
AcDbPolyline
 90
     2
 70
     0
 43
0.001
 10
4.954
 20
0.9824
 10
4.704
 20
0.9824
  0
LWPOLYLINE
  5
275
330
12
100
AcDbEntity
  8
10224-1_SMT
  6
BYLAYER
370
   211
 62
   256
100
AcDbPolyline
 90
     2
 70
     0
 43
0.001
 10
4.954
 20
0.9815
 10
4.704
 20
0.9815
  0
LWPOLYLINE
  5
276
330
12
100
AcDbEntity
  8
10224-1_SMT
  6
BYLAYER
370
   211
 62
   256
100
AcDbPolyline
 90
     2
 70
     0
 43
0.001
 10
4.954
 20
0.9806
 10
4.704
 20
0.9806
  0
LWPOLYLINE
  5
277
330
12
100
AcDbEntity
  8
10224-1_SMT
  6
BYLAYER
370
   211
 62
   256
100
AcDbPolyline
 90
     2
 70
     0
 43
0.001
 10
4.954
 20
0.9797
 10
4.704
 20
0.9797
  0
LWPOLYLINE
  5
278
330
12
100
AcDbEntity
  8
10224-1_SMT
  6
BYLAYER
370
   211
 62
   256
100
AcDbPolyline
 90
     2
 70
     0
 43
0.001
 10
4.954
 20
0.9788
 10
4.704
 20
0.9788
  0
LWPOLYLINE
  5
279
330
12
100
AcDbEntity
  8
10224-1_SMT
  6
BYLAYER
370
   211
 62
   256
100
AcDbPolyline
 90
     2
 70
     0
 43
0.001
 10
4.954
 20
0.9779
 10
4.704
 20
0.9779
  0
LWPOLYLINE
  5
27A
330
12
100
AcDbEntity
  8
10224-1_SMT
  6
BYLAYER
370
   211
 62
   256
100
AcDbPolyline
 90
     2
 70
     0
 43
0.001
 10
4.954
 20
0.977
 10
4.704
 20
0.977
  0
LWPOLYLINE
  5
27B
330
12
100
AcDbEntity
  8
10224-1_SMT
  6
BYLAYER
370
   211
 62
   256
100
AcDbPolyline
 90
     2
 70
     0
 43
0.001
 10
4.954
 20
0.9761
 10
4.704
 20
0.9761
  0
LWPOLYLINE
  5
27C
330
12
100
AcDbEntity
  8
10224-1_SMT
  6
BYLAYER
370
   211
 62
   256
100
AcDbPolyline
 90
     2
 70
     0
 43
0.001
 10
4.954
 20
0.9752
 10
4.704
 20
0.9752
  0
LWPOLYLINE
  5
27D
330
12
100
AcDbEntity
  8
10224-1_SMT
  6
BYLAYER
370
   211
 62
   256
100
AcDbPolyline
 90
     2
 70
     0
 43
0.001
 10
4.954
 20
0.9743
 10
4.704
 20
0.9743
  0
LWPOLYLINE
  5
27E
330
12
100
AcDbEntity
  8
10224-1_SMT
  6
BYLAYER
370
   211
 62
   256
100
AcDbPolyline
 90
     2
 70
     0
 43
0.001
 10
4.954
 20
0.9734
 10
4.704
 20
0.9734
  0
LWPOLYLINE
  5
27F
330
12
100
AcDbEntity
  8
10224-1_SMT
  6
BYLAYER
370
   211
 62
   256
100
AcDbPolyline
 90
     2
 70
     0
 43
0.001
 10
4.954
 20
0.9725
 10
4.704
 20
0.9725
  0
LWPOLYLINE
  5
280
330
12
100
AcDbEntity
  8
10224-1_SMT
  6
BYLAYER
370
   211
 62
   256
100
AcDbPolyline
 90
     2
 70
     0
 43
0.001
 10
4.954
 20
0.9716
 10
4.704
 20
0.9716
  0
LWPOLYLINE
  5
281
330
12
100
AcDbEntity
  8
10224-1_SMT
  6
BYLAYER
370
   211
 62
   256
100
AcDbPolyline
 90
     2
 70
     0
 43
0.001
 10
4.954
 20
0.9707
 10
4.704
 20
0.9707
  0
LWPOLYLINE
  5
282
330
12
100
AcDbEntity
  8
10224-1_SMT
  6
BYLAYER
370
   211
 62
   256
100
AcDbPolyline
 90
     2
 70
     0
 43
0.001
 10
4.954
 20
0.9698
 10
4.704
 20
0.9698
  0
LWPOLYLINE
  5
283
330
12
100
AcDbEntity
  8
10224-1_SMT
  6
BYLAYER
370
   211
 62
   256
100
AcDbPolyline
 90
     2
 70
     0
 43
0.001
 10
4.954
 20
0.9689
 10
4.704
 20
0.9689
  0
LWPOLYLINE
  5
284
330
12
100
AcDbEntity
  8
10224-1_SMT
  6
BYLAYER
370
   211
 62
   256
100
AcDbPolyline
 90
     2
 70
     0
 43
0.001
 10
4.954
 20
0.968
 10
4.704
 20
0.968
  0
LWPOLYLINE
  5
285
330
12
100
AcDbEntity
  8
10224-1_SMT
  6
BYLAYER
370
   211
 62
   256
100
AcDbPolyline
 90
     2
 70
     0
 43
0.001
 10
4.954
 20
0.9671
 10
4.704
 20
0.9671
  0
LWPOLYLINE
  5
286
330
12
100
AcDbEntity
  8
10224-1_SMT
  6
BYLAYER
370
   211
 62
   256
100
AcDbPolyline
 90
     2
 70
     0
 43
0.001
 10
4.954
 20
0.9662
 10
4.704
 20
0.9662
  0
LWPOLYLINE
  5
287
330
12
100
AcDbEntity
  8
10224-1_SMT
  6
BYLAYER
370
   211
 62
   256
100
AcDbPolyline
 90
     2
 70
     0
 43
0.001
 10
4.954
 20
0.9653
 10
4.704
 20
0.9653
  0
LWPOLYLINE
  5
288
330
12
100
AcDbEntity
  8
10224-1_SMT
  6
BYLAYER
370
   211
 62
   256
100
AcDbPolyline
 90
     2
 70
     0
 43
0.001
 10
4.954
 20
0.9644
 10
4.704
 20
0.9644
  0
LWPOLYLINE
  5
289
330
12
100
AcDbEntity
  8
10224-1_SMT
  6
BYLAYER
370
   211
 62
   256
100
AcDbPolyline
 90
     2
 70
     0
 43
0.001
 10
4.954
 20
0.9635
 10
4.704
 20
0.9635
  0
LWPOLYLINE
  5
28A
330
12
100
AcDbEntity
  8
10224-1_SMT
  6
BYLAYER
370
   211
 62
   256
100
AcDbPolyline
 90
     2
 70
     0
 43
0.001
 10
4.954
 20
0.9626
 10
4.704
 20
0.9626
  0
LWPOLYLINE
  5
28B
330
12
100
AcDbEntity
  8
10224-1_SMT
  6
BYLAYER
370
   211
 62
   256
100
AcDbPolyline
 90
     2
 70
     0
 43
0.001
 10
4.954
 20
0.9617
 10
4.704
 20
0.9617
  0
LWPOLYLINE
  5
28C
330
12
100
AcDbEntity
  8
10224-1_SMT
  6
BYLAYER
370
   211
 62
   256
100
AcDbPolyline
 90
     2
 70
     0
 43
0.001
 10
4.954
 20
0.9608
 10
4.704
 20
0.9608
  0
LWPOLYLINE
  5
28D
330
12
100
AcDbEntity
  8
10224-1_SMT
  6
BYLAYER
370
   211
 62
   256
100
AcDbPolyline
 90
     2
 70
     0
 43
0.001
 10
4.954
 20
0.9599
 10
4.704
 20
0.9599
  0
LWPOLYLINE
  5
28E
330
12
100
AcDbEntity
  8
10224-1_SMT
  6
BYLAYER
370
   211
 62
   256
100
AcDbPolyline
 90
     2
 70
     0
 43
0.001
 10
4.954
 20
0.959
 10
4.704
 20
0.959
  0
LWPOLYLINE
  5
28F
330
12
100
AcDbEntity
  8
10224-1_SMT
  6
BYLAYER
370
   211
 62
   256
100
AcDbPolyline
 90
     2
 70
     0
 43
0.001
 10
4.954
 20
0.9581
 10
4.704
 20
0.9581
  0
LWPOLYLINE
  5
290
330
12
100
AcDbEntity
  8
10224-1_SMT
  6
BYLAYER
370
   211
 62
   256
100
AcDbPolyline
 90
     2
 70
     0
 43
0.001
 10
4.954
 20
0.9572
 10
4.704
 20
0.9572
  0
LWPOLYLINE
  5
291
330
12
100
AcDbEntity
  8
10224-1_SMT
  6
BYLAYER
370
   211
 62
   256
100
AcDbPolyline
 90
     2
 70
     0
 43
0.001
 10
4.954
 20
0.9563
 10
4.704
 20
0.9563
  0
LWPOLYLINE
  5
292
330
12
100
AcDbEntity
  8
10224-1_SMT
  6
BYLAYER
370
   211
 62
   256
100
AcDbPolyline
 90
     2
 70
     0
 43
0.001
 10
4.954
 20
0.9554
 10
4.704
 20
0.9554
  0
LWPOLYLINE
  5
293
330
12
100
AcDbEntity
  8
10224-1_SMT
  6
BYLAYER
370
   211
 62
   256
100
AcDbPolyline
 90
     2
 70
     0
 43
0.001
 10
4.954
 20
0.9545
 10
4.704
 20
0.9545
  0
LWPOLYLINE
  5
294
330
12
100
AcDbEntity
  8
10224-1_SMT
  6
BYLAYER
370
   211
 62
   256
100
AcDbPolyline
 90
     2
 70
     0
 43
0.001
 10
4.954
 20
0.9536
 10
4.704
 20
0.9536
  0
LWPOLYLINE
  5
295
330
12
100
AcDbEntity
  8
10224-1_SMT
  6
BYLAYER
370
   211
 62
   256
100
AcDbPolyline
 90
     2
 70
     0
 43
0.001
 10
4.954
 20
0.9527
 10
4.704
 20
0.9527
  0
LWPOLYLINE
  5
296
330
12
100
AcDbEntity
  8
10224-1_SMT
  6
BYLAYER
370
   211
 62
   256
100
AcDbPolyline
 90
     2
 70
     0
 43
0.001
 10
4.954
 20
0.9518
 10
4.704
 20
0.9518
  0
LWPOLYLINE
  5
297
330
12
100
AcDbEntity
  8
10224-1_SMT
  6
BYLAYER
370
   211
 62
   256
100
AcDbPolyline
 90
     2
 70
     0
 43
0.001
 10
4.954
 20
0.9509
 10
4.704
 20
0.9509
  0
LWPOLYLINE
  5
298
330
12
100
AcDbEntity
  8
10224-1_SMT
  6
BYLAYER
370
   211
 62
   256
100
AcDbPolyline
 90
     2
 70
     0
 43
0.001
 10
4.954
 20
0.95
 10
4.704
 20
0.95
  0
LWPOLYLINE
  5
299
330
12
100
AcDbEntity
  8
10224-1_SMT
  6
BYLAYER
370
   211
 62
   256
100
AcDbPolyline
 90
     2
 70
     0
 43
0.001
 10
4.954
 20
0.9491
 10
4.704
 20
0.9491
  0
LWPOLYLINE
  5
29A
330
12
100
AcDbEntity
  8
10224-1_SMT
  6
BYLAYER
370
   211
 62
   256
100
AcDbPolyline
 90
     2
 70
     0
 43
0.001
 10
4.954
 20
0.9482
 10
4.704
 20
0.9482
  0
LWPOLYLINE
  5
29B
330
12
100
AcDbEntity
  8
10224-1_SMT
  6
BYLAYER
370
   211
 62
   256
100
AcDbPolyline
 90
     2
 70
     0
 43
0.001
 10
4.954
 20
0.9473
 10
4.704
 20
0.9473
  0
LWPOLYLINE
  5
29C
330
12
100
AcDbEntity
  8
10224-1_SMT
  6
BYLAYER
370
   211
 62
   256
100
AcDbPolyline
 90
     2
 70
     0
 43
0.001
 10
4.954
 20
0.9464
 10
4.704
 20
0.9464
  0
LWPOLYLINE
  5
29D
330
12
100
AcDbEntity
  8
10224-1_SMT
  6
BYLAYER
370
   211
 62
   256
100
AcDbPolyline
 90
     2
 70
     0
 43
0.001
 10
4.954
 20
0.9455
 10
4.704
 20
0.9455
  0
LWPOLYLINE
  5
29E
330
12
100
AcDbEntity
  8
10224-1_SMT
  6
BYLAYER
370
   211
 62
   256
100
AcDbPolyline
 90
     2
 70
     0
 43
0.001
 10
4.954
 20
0.9446
 10
4.704
 20
0.9446
  0
LWPOLYLINE
  5
29F
330
12
100
AcDbEntity
  8
10224-1_SMT
  6
BYLAYER
370
   211
 62
   256
100
AcDbPolyline
 90
     2
 70
     0
 43
0.001
 10
4.954
 20
0.9437
 10
4.704
 20
0.9437
  0
LWPOLYLINE
  5
2A0
330
12
100
AcDbEntity
  8
10224-1_SMT
  6
BYLAYER
370
   211
 62
   256
100
AcDbPolyline
 90
     2
 70
     0
 43
0.001
 10
4.954
 20
0.9428
 10
4.704
 20
0.9428
  0
LWPOLYLINE
  5
2A1
330
12
100
AcDbEntity
  8
10224-1_SMT
  6
BYLAYER
370
   211
 62
   256
100
AcDbPolyline
 90
     2
 70
     0
 43
0.001
 10
4.954
 20
0.9419
 10
4.704
 20
0.9419
  0
LWPOLYLINE
  5
2A2
330
12
100
AcDbEntity
  8
10224-1_SMT
  6
BYLAYER
370
   211
 62
   256
100
AcDbPolyline
 90
     2
 70
     0
 43
0.001
 10
4.954
 20
0.941
 10
4.704
 20
0.941
  0
LWPOLYLINE
  5
2A3
330
12
100
AcDbEntity
  8
10224-1_SMT
  6
BYLAYER
370
   211
 62
   256
100
AcDbPolyline
 90
     2
 70
     0
 43
0.001
 10
4.954
 20
0.9401
 10
4.704
 20
0.9401
  0
LWPOLYLINE
  5
2A4
330
12
100
AcDbEntity
  8
10224-1_SMT
  6
BYLAYER
370
   211
 62
   256
100
AcDbPolyline
 90
     2
 70
     0
 43
0.001
 10
4.954
 20
0.9392
 10
4.704
 20
0.9392
  0
LWPOLYLINE
  5
2A5
330
12
100
AcDbEntity
  8
10224-1_SMT
  6
BYLAYER
370
   211
 62
   256
100
AcDbPolyline
 90
     2
 70
     0
 43
0.001
 10
4.954
 20
0.9383
 10
4.704
 20
0.9383
  0
LWPOLYLINE
  5
2A6
330
12
100
AcDbEntity
  8
10224-1_SMT
  6
BYLAYER
370
   211
 62
   256
100
AcDbPolyline
 90
     2
 70
     0
 43
0.001
 10
4.954
 20
0.9374
 10
4.704
 20
0.9374
  0
LWPOLYLINE
  5
2A7
330
12
100
AcDbEntity
  8
10224-1_SMT
  6
BYLAYER
370
   211
 62
   256
100
AcDbPolyline
 90
     2
 70
     0
 43
0.001
 10
4.954
 20
0.9365
 10
4.704
 20
0.9365
  0
LWPOLYLINE
  5
2A8
330
12
100
AcDbEntity
  8
10224-1_SMT
  6
BYLAYER
370
   211
 62
   256
100
AcDbPolyline
 90
     2
 70
     0
 43
0.001
 10
4.954
 20
0.9356
 10
4.704
 20
0.9356
  0
LWPOLYLINE
  5
2A9
330
12
100
AcDbEntity
  8
10224-1_SMT
  6
BYLAYER
370
   211
 62
   256
100
AcDbPolyline
 90
     2
 70
     0
 43
0.001
 10
4.954
 20
0.9347
 10
4.704
 20
0.9347
  0
LWPOLYLINE
  5
2AA
330
12
100
AcDbEntity
  8
10224-1_SMT
  6
BYLAYER
370
   211
 62
   256
100
AcDbPolyline
 90
     2
 70
     0
 43
0.001
 10
4.954
 20
0.9338
 10
4.704
 20
0.9338
  0
LWPOLYLINE
  5
2AB
330
12
100
AcDbEntity
  8
10224-1_SMT
  6
BYLAYER
370
   211
 62
   256
100
AcDbPolyline
 90
     2
 70
     0
 43
0.001
 10
4.954
 20
0.9329
 10
4.704
 20
0.9329
  0
LWPOLYLINE
  5
2AC
330
12
100
AcDbEntity
  8
10224-1_SMT
  6
BYLAYER
370
   211
 62
   256
100
AcDbPolyline
 90
     2
 70
     0
 43
0.001
 10
4.954
 20
0.932
 10
4.704
 20
0.932
  0
LWPOLYLINE
  5
2AD
330
12
100
AcDbEntity
  8
10224-1_SMT
  6
BYLAYER
370
   211
 62
   256
100
AcDbPolyline
 90
     2
 70
     0
 43
0.001
 10
4.954
 20
0.9311
 10
4.704
 20
0.9311
  0
LWPOLYLINE
  5
2AE
330
12
100
AcDbEntity
  8
10224-1_SMT
  6
BYLAYER
370
   211
 62
   256
100
AcDbPolyline
 90
     2
 70
     0
 43
0.001
 10
4.954
 20
0.9302
 10
4.704
 20
0.9302
  0
LWPOLYLINE
  5
2AF
330
12
100
AcDbEntity
  8
10224-1_SMT
  6
BYLAYER
370
   211
 62
   256
100
AcDbPolyline
 90
     2
 70
     0
 43
0.001
 10
4.954
 20
0.9293
 10
4.704
 20
0.9293
  0
LWPOLYLINE
  5
2B0
330
12
100
AcDbEntity
  8
10224-1_SMT
  6
BYLAYER
370
   211
 62
   256
100
AcDbPolyline
 90
     2
 70
     0
 43
0.001
 10
4.954
 20
0.9284
 10
4.704
 20
0.9284
  0
LWPOLYLINE
  5
2B1
330
12
100
AcDbEntity
  8
10224-1_SMT
  6
BYLAYER
370
   211
 62
   256
100
AcDbPolyline
 90
     2
 70
     0
 43
0.001
 10
4.954
 20
0.9275
 10
4.704
 20
0.9275
  0
LWPOLYLINE
  5
2B2
330
12
100
AcDbEntity
  8
10224-1_SMT
  6
BYLAYER
370
   211
 62
   256
100
AcDbPolyline
 90
     2
 70
     0
 43
0.001
 10
4.954
 20
0.9266
 10
4.704
 20
0.9266
  0
LWPOLYLINE
  5
2B3
330
12
100
AcDbEntity
  8
10224-1_SMT
  6
BYLAYER
370
   211
 62
   256
100
AcDbPolyline
 90
     2
 70
     0
 43
0.001
 10
4.954
 20
0.9257
 10
4.704
 20
0.9257
  0
LWPOLYLINE
  5
2B4
330
12
100
AcDbEntity
  8
10224-1_SMT
  6
BYLAYER
370
   211
 62
   256
100
AcDbPolyline
 90
     2
 70
     0
 43
0.001
 10
4.954
 20
0.9248
 10
4.704
 20
0.9248
  0
LWPOLYLINE
  5
2B5
330
12
100
AcDbEntity
  8
10224-1_SMT
  6
BYLAYER
370
   211
 62
   256
100
AcDbPolyline
 90
     2
 70
     0
 43
0.001
 10
4.954
 20
0.9239
 10
4.704
 20
0.9239
  0
LWPOLYLINE
  5
2B6
330
12
100
AcDbEntity
  8
10224-1_SMT
  6
BYLAYER
370
   211
 62
   256
100
AcDbPolyline
 90
     2
 70
     0
 43
0.001
 10
4.954
 20
0.923
 10
4.704
 20
0.923
  0
LWPOLYLINE
  5
2B7
330
12
100
AcDbEntity
  8
10224-1_SMT
  6
BYLAYER
370
   211
 62
   256
100
AcDbPolyline
 90
     2
 70
     0
 43
0.001
 10
4.954
 20
0.9221
 10
4.704
 20
0.9221
  0
LWPOLYLINE
  5
2B8
330
12
100
AcDbEntity
  8
10224-1_SMT
  6
BYLAYER
370
   211
 62
   256
100
AcDbPolyline
 90
     2
 70
     0
 43
0.001
 10
4.954
 20
0.9212
 10
4.704
 20
0.9212
  0
LWPOLYLINE
  5
2B9
330
12
100
AcDbEntity
  8
10224-1_SMT
  6
BYLAYER
370
   211
 62
   256
100
AcDbPolyline
 90
     2
 70
     0
 43
0.001
 10
4.954
 20
0.9203
 10
4.704
 20
0.9203
  0
LWPOLYLINE
  5
2BA
330
12
100
AcDbEntity
  8
10224-1_SMT
  6
BYLAYER
370
   211
 62
   256
100
AcDbPolyline
 90
     2
 70
     0
 43
0.001
 10
4.954
 20
0.9194
 10
4.704
 20
0.9194
  0
LWPOLYLINE
  5
2BB
330
12
100
AcDbEntity
  8
10224-1_SMT
  6
BYLAYER
370
   211
 62
   256
100
AcDbPolyline
 90
     2
 70
     0
 43
0.001
 10
4.954
 20
0.9185
 10
4.704
 20
0.9185
  0
LWPOLYLINE
  5
2BC
330
12
100
AcDbEntity
  8
10224-1_SMT
  6
BYLAYER
370
   211
 62
   256
100
AcDbPolyline
 90
     2
 70
     0
 43
0.001
 10
4.954
 20
0.9176
 10
4.704
 20
0.9176
  0
LWPOLYLINE
  5
2BD
330
12
100
AcDbEntity
  8
10224-1_SMT
  6
BYLAYER
370
   211
 62
   256
100
AcDbPolyline
 90
     2
 70
     0
 43
0.001
 10
4.954
 20
0.9167
 10
4.704
 20
0.9167
  0
LWPOLYLINE
  5
2BE
330
12
100
AcDbEntity
  8
10224-1_SMT
  6
BYLAYER
370
   211
 62
   256
100
AcDbPolyline
 90
     2
 70
     0
 43
0.001
 10
4.954
 20
0.9158
 10
4.704
 20
0.9158
  0
LWPOLYLINE
  5
2BF
330
12
100
AcDbEntity
  8
10224-1_SMT
  6
BYLAYER
370
   211
 62
   256
100
AcDbPolyline
 90
     2
 70
     0
 43
0.001
 10
4.954
 20
0.9149
 10
4.704
 20
0.9149
  0
LWPOLYLINE
  5
2C0
330
12
100
AcDbEntity
  8
10224-1_SMT
  6
BYLAYER
370
   211
 62
   256
100
AcDbPolyline
 90
     2
 70
     0
 43
0.001
 10
4.954
 20
0.914
 10
4.704
 20
0.914
  0
LWPOLYLINE
  5
2C1
330
12
100
AcDbEntity
  8
10224-1_SMT
  6
BYLAYER
370
   211
 62
   256
100
AcDbPolyline
 90
     2
 70
     0
 43
0.001
 10
4.954
 20
0.9131
 10
4.704
 20
0.9131
  0
LWPOLYLINE
  5
2C2
330
12
100
AcDbEntity
  8
10224-1_SMT
  6
BYLAYER
370
   211
 62
   256
100
AcDbPolyline
 90
     2
 70
     0
 43
0.001
 10
4.954
 20
0.9122
 10
4.704
 20
0.9122
  0
LWPOLYLINE
  5
2C3
330
12
100
AcDbEntity
  8
10224-1_SMT
  6
BYLAYER
370
   211
 62
   256
100
AcDbPolyline
 90
     2
 70
     0
 43
0.001
 10
4.954
 20
0.9113
 10
4.704
 20
0.9113
  0
LWPOLYLINE
  5
2C4
330
12
100
AcDbEntity
  8
10224-1_SMT
  6
BYLAYER
370
   211
 62
   256
100
AcDbPolyline
 90
     2
 70
     0
 43
0.001
 10
4.954
 20
0.9104
 10
4.704
 20
0.9104
  0
LWPOLYLINE
  5
2C5
330
12
100
AcDbEntity
  8
10224-1_SMT
  6
BYLAYER
370
   211
 62
   256
100
AcDbPolyline
 90
     2
 70
     0
 43
0.001
 10
4.954
 20
0.9095
 10
4.704
 20
0.9095
  0
LWPOLYLINE
  5
2C6
330
12
100
AcDbEntity
  8
10224-1_SMT
  6
BYLAYER
370
   211
 62
   256
100
AcDbPolyline
 90
     2
 70
     0
 43
0.001
 10
4.954
 20
0.9086
 10
4.704
 20
0.9086
  0
LWPOLYLINE
  5
2C7
330
12
100
AcDbEntity
  8
10224-1_SMT
  6
BYLAYER
370
   211
 62
   256
100
AcDbPolyline
 90
     2
 70
     0
 43
0.001
 10
4.954
 20
0.9077
 10
4.704
 20
0.9077
  0
LWPOLYLINE
  5
2C8
330
12
100
AcDbEntity
  8
10224-1_SMT
  6
BYLAYER
370
   211
 62
   256
100
AcDbPolyline
 90
     2
 70
     0
 43
0.001
 10
4.954
 20
0.9068
 10
4.704
 20
0.9068
  0
LWPOLYLINE
  5
2C9
330
12
100
AcDbEntity
  8
10224-1_SMT
  6
BYLAYER
370
   211
 62
   256
100
AcDbPolyline
 90
     2
 70
     0
 43
0.001
 10
4.954
 20
0.9059
 10
4.704
 20
0.9059
  0
LWPOLYLINE
  5
2CA
330
12
100
AcDbEntity
  8
10224-1_SMT
  6
BYLAYER
370
   211
 62
   256
100
AcDbPolyline
 90
     2
 70
     0
 43
0.001
 10
4.954
 20
0.905
 10
4.704
 20
0.905
  0
LWPOLYLINE
  5
2CB
330
12
100
AcDbEntity
  8
10224-1_SMT
  6
BYLAYER
370
   211
 62
   256
100
AcDbPolyline
 90
     2
 70
     0
 43
0.001
 10
4.954
 20
0.9041
 10
4.704
 20
0.9041
  0
LWPOLYLINE
  5
2CC
330
12
100
AcDbEntity
  8
10224-1_SMT
  6
BYLAYER
370
   211
 62
   256
100
AcDbPolyline
 90
     2
 70
     0
 43
0.001
 10
4.954
 20
0.9032
 10
4.704
 20
0.9032
  0
LWPOLYLINE
  5
2CD
330
12
100
AcDbEntity
  8
10224-1_SMT
  6
BYLAYER
370
   211
 62
   256
100
AcDbPolyline
 90
     2
 70
     0
 43
0.001
 10
4.954
 20
0.9023
 10
4.704
 20
0.9023
  0
LWPOLYLINE
  5
2CE
330
12
100
AcDbEntity
  8
10224-1_SMT
  6
BYLAYER
370
   211
 62
   256
100
AcDbPolyline
 90
     2
 70
     0
 43
0.001
 10
4.954
 20
0.9014
 10
4.704
 20
0.9014
  0
LWPOLYLINE
  5
2CF
330
12
100
AcDbEntity
  8
10224-1_SMT
  6
BYLAYER
370
   211
 62
   256
100
AcDbPolyline
 90
     2
 70
     0
 43
0.001
 10
4.954
 20
0.9005
 10
4.704
 20
0.9005
  0
LWPOLYLINE
  5
2D0
330
12
100
AcDbEntity
  8
10224-1_SMT
  6
BYLAYER
370
   211
 62
   256
100
AcDbPolyline
 90
     2
 70
     0
 43
0.001
 10
4.954
 20
0.8996
 10
4.704
 20
0.8996
  0
LWPOLYLINE
  5
2D1
330
12
100
AcDbEntity
  8
10224-1_SMT
  6
BYLAYER
370
   211
 62
   256
100
AcDbPolyline
 90
     2
 70
     0
 43
0.001
 10
4.954
 20
0.8987
 10
4.704
 20
0.8987
  0
LWPOLYLINE
  5
2D2
330
12
100
AcDbEntity
  8
10224-1_SMT
  6
BYLAYER
370
   211
 62
   256
100
AcDbPolyline
 90
     2
 70
     0
 43
0.001
 10
4.954
 20
0.8978
 10
4.704
 20
0.8978
  0
LWPOLYLINE
  5
2D3
330
12
100
AcDbEntity
  8
10224-1_SMT
  6
BYLAYER
370
   211
 62
   256
100
AcDbPolyline
 90
     2
 70
     0
 43
0.001
 10
4.954
 20
0.8969
 10
4.704
 20
0.8969
  0
LWPOLYLINE
  5
2D4
330
12
100
AcDbEntity
  8
10224-1_SMT
  6
BYLAYER
370
   211
 62
   256
100
AcDbPolyline
 90
     2
 70
     0
 43
0.001
 10
4.954
 20
0.896
 10
4.704
 20
0.896
  0
LWPOLYLINE
  5
2D5
330
12
100
AcDbEntity
  8
10224-1_SMT
  6
BYLAYER
370
   211
 62
   256
100
AcDbPolyline
 90
     2
 70
     0
 43
0.001
 10
4.954
 20
0.8951
 10
4.704
 20
0.8951
  0
LWPOLYLINE
  5
2D6
330
12
100
AcDbEntity
  8
10224-1_SMT
  6
BYLAYER
370
   211
 62
   256
100
AcDbPolyline
 90
     2
 70
     0
 43
0.001
 10
4.954
 20
0.8942
 10
4.704
 20
0.8942
  0
LWPOLYLINE
  5
2D7
330
12
100
AcDbEntity
  8
10224-1_SMT
  6
BYLAYER
370
   211
 62
   256
100
AcDbPolyline
 90
     2
 70
     0
 43
0.001
 10
4.954
 20
0.8933
 10
4.704
 20
0.8933
  0
LWPOLYLINE
  5
2D8
330
12
100
AcDbEntity
  8
10224-1_SMT
  6
BYLAYER
370
   211
 62
   256
100
AcDbPolyline
 90
     2
 70
     0
 43
0.001
 10
4.954
 20
0.8924
 10
4.704
 20
0.8924
  0
LWPOLYLINE
  5
2D9
330
12
100
AcDbEntity
  8
10224-1_SMT
  6
BYLAYER
370
   211
 62
   256
100
AcDbPolyline
 90
     2
 70
     0
 43
0.001
 10
4.954
 20
0.8915
 10
4.704
 20
0.8915
  0
LWPOLYLINE
  5
2DA
330
12
100
AcDbEntity
  8
10224-1_SMT
  6
BYLAYER
370
   211
 62
   256
100
AcDbPolyline
 90
     2
 70
     0
 43
0.001
 10
4.954
 20
0.8906
 10
4.704
 20
0.8906
  0
LWPOLYLINE
  5
2DB
330
12
100
AcDbEntity
  8
10224-1_SMT
  6
BYLAYER
370
   211
 62
   256
100
AcDbPolyline
 90
     2
 70
     0
 43
0.001
 10
4.954
 20
0.8897
 10
4.704
 20
0.8897
  0
LWPOLYLINE
  5
2DC
330
12
100
AcDbEntity
  8
10224-1_SMT
  6
BYLAYER
370
   211
 62
   256
100
AcDbPolyline
 90
     2
 70
     0
 43
0.001
 10
4.954
 20
0.8888
 10
4.704
 20
0.8888
  0
LWPOLYLINE
  5
2DD
330
12
100
AcDbEntity
  8
10224-1_SMT
  6
BYLAYER
370
   211
 62
   256
100
AcDbPolyline
 90
     2
 70
     0
 43
0.001
 10
4.954
 20
0.8879
 10
4.704
 20
0.8879
  0
LWPOLYLINE
  5
2DE
330
12
100
AcDbEntity
  8
10224-1_SMT
  6
BYLAYER
370
   211
 62
   256
100
AcDbPolyline
 90
     2
 70
     0
 43
0.001
 10
4.954
 20
0.887
 10
4.704
 20
0.887
  0
LWPOLYLINE
  5
2DF
330
12
100
AcDbEntity
  8
10224-1_SMT
  6
BYLAYER
370
   211
 62
   256
100
AcDbPolyline
 90
     2
 70
     0
 43
0.001
 10
4.954
 20
0.8861
 10
4.704
 20
0.8861
  0
LWPOLYLINE
  5
2E0
330
12
100
AcDbEntity
  8
10224-1_SMT
  6
BYLAYER
370
   211
 62
   256
100
AcDbPolyline
 90
     2
 70
     0
 43
0.001
 10
4.954
 20
0.8852
 10
4.704
 20
0.8852
  0
LWPOLYLINE
  5
2E1
330
12
100
AcDbEntity
  8
10224-1_SMT
  6
BYLAYER
370
   211
 62
   256
100
AcDbPolyline
 90
     2
 70
     0
 43
0.001
 10
4.954
 20
0.8843
 10
4.704
 20
0.8843
  0
LWPOLYLINE
  5
2E2
330
12
100
AcDbEntity
  8
10224-1_SMT
  6
BYLAYER
370
   211
 62
   256
100
AcDbPolyline
 90
     2
 70
     0
 43
0.01
 10
0.162
 20
1.211
 10
0.031
 20
1.211
  0
LWPOLYLINE
  5
2E3
330
12
100
AcDbEntity
  8
10224-1_SMT
  6
BYLAYER
370
   211
 62
   256
100
AcDbPolyline
 90
     2
 70
     0
 43
0.01
 10
0.162
 20
1.202
 10
0.031
 20
1.202
  0
LWPOLYLINE
  5
2E4
330
12
100
AcDbEntity
  8
10224-1_SMT
  6
BYLAYER
370
   211
 62
   256
100
AcDbPolyline
 90
     2
 70
     0
 43
0.01
 10
0.162
 20
1.193
 10
0.031
 20
1.193
  0
LWPOLYLINE
  5
2E5
330
12
100
AcDbEntity
  8
10224-1_SMT
  6
BYLAYER
370
   211
 62
   256
100
AcDbPolyline
 90
     2
 70
     0
 43
0.01
 10
0.162
 20
1.184
 10
0.031
 20
1.184
  0
LWPOLYLINE
  5
2E6
330
12
100
AcDbEntity
  8
10224-1_SMT
  6
BYLAYER
370
   211
 62
   256
100
AcDbPolyline
 90
     2
 70
     0
 43
0.01
 10
0.162
 20
1.175
 10
0.031
 20
1.175
  0
LWPOLYLINE
  5
2E7
330
12
100
AcDbEntity
  8
10224-1_SMT
  6
BYLAYER
370
   211
 62
   256
100
AcDbPolyline
 90
     2
 70
     0
 43
0.01
 10
0.162
 20
1.166
 10
0.031
 20
1.166
  0
LWPOLYLINE
  5
2E8
330
12
100
AcDbEntity
  8
10224-1_SMT
  6
BYLAYER
370
   211
 62
   256
100
AcDbPolyline
 90
     2
 70
     0
 43
0.01
 10
0.162
 20
1.157
 10
0.031
 20
1.157
  0
LWPOLYLINE
  5
2E9
330
12
100
AcDbEntity
  8
10224-1_SMT
  6
BYLAYER
370
   211
 62
   256
100
AcDbPolyline
 90
     2
 70
     0
 43
0.01
 10
0.162
 20
1.148
 10
0.031
 20
1.148
  0
LWPOLYLINE
  5
2EA
330
12
100
AcDbEntity
  8
10224-1_SMT
  6
BYLAYER
370
   211
 62
   256
100
AcDbPolyline
 90
     2
 70
     0
 43
0.01
 10
0.162
 20
1.139
 10
0.031
 20
1.139
  0
LWPOLYLINE
  5
2EB
330
12
100
AcDbEntity
  8
10224-1_SMT
  6
BYLAYER
370
   211
 62
   256
100
AcDbPolyline
 90
     2
 70
     0
 43
0.01
 10
0.162
 20
1.13
 10
0.031
 20
1.13
  0
LWPOLYLINE
  5
2EC
330
12
100
AcDbEntity
  8
10224-1_SMT
  6
BYLAYER
370
   211
 62
   256
100
AcDbPolyline
 90
     2
 70
     0
 43
0.01
 10
0.162
 20
1.121
 10
0.031
 20
1.121
  0
LWPOLYLINE
  5
2ED
330
12
100
AcDbEntity
  8
10224-1_SMT
  6
BYLAYER
370
   211
 62
   256
100
AcDbPolyline
 90
     2
 70
     0
 43
0.01
 10
0.089
 20
1.248
 10
0.089
 20
1.108
  0
LWPOLYLINE
  5
2EE
330
12
100
AcDbEntity
  8
10224-1_SMT
  6
BYLAYER
370
   211
 62
   256
100
AcDbPolyline
 90
     2
 70
     0
 43
0.01
 10
0.08
 20
1.248
 10
0.08
 20
1.108
  0
LWPOLYLINE
  5
2EF
330
12
100
AcDbEntity
  8
10224-1_SMT
  6
BYLAYER
370
   211
 62
   256
100
AcDbPolyline
 90
     2
 70
     0
 43
0.01
 10
0.071
 20
1.248
 10
0.071
 20
1.108
  0
LWPOLYLINE
  5
2F0
330
12
100
AcDbEntity
  8
10224-1_SMT
  6
BYLAYER
370
   211
 62
   256
100
AcDbPolyline
 90
     2
 70
     0
 43
0.01
 10
0.062
 20
1.248
 10
0.062
 20
1.108
  0
LWPOLYLINE
  5
2F1
330
12
100
AcDbEntity
  8
10224-1_SMT
  6
BYLAYER
370
   211
 62
   256
100
AcDbPolyline
 90
     2
 70
     0
 43
0.01
 10
0.053
 20
1.248
 10
0.053
 20
1.108
  0
LWPOLYLINE
  5
2F2
330
12
100
AcDbEntity
  8
10224-1_SMT
  6
BYLAYER
370
   211
 62
   256
100
AcDbPolyline
 90
     2
 70
     0
 43
0.01
 10
0.044
 20
1.248
 10
0.044
 20
1.108
  0
LWPOLYLINE
  5
2F3
330
12
100
AcDbEntity
  8
10224-1_SMT
  6
BYLAYER
370
   211
 62
   256
100
AcDbPolyline
 90
     2
 70
     0
 43
0.01
 10
0.035
 20
1.248
 10
0.035
 20
1.108
  0
LWPOLYLINE
  5
2F4
330
12
100
AcDbEntity
  8
10224-1_SMT
  6
BYLAYER
370
   211
 62
   256
100
AcDbPolyline
 90
     2
 70
     0
 43
0.01
 10
0.162
 20
1.247
 10
0.031
 20
1.247
  0
LWPOLYLINE
  5
2F5
330
12
100
AcDbEntity
  8
10224-1_SMT
  6
BYLAYER
370
   211
 62
   256
100
AcDbPolyline
 90
     2
 70
     0
 43
0.01
 10
0.162
 20
1.238
 10
0.031
 20
1.238
  0
LWPOLYLINE
  5
2F6
330
12
100
AcDbEntity
  8
10224-1_SMT
  6
BYLAYER
370
   211
 62
   256
100
AcDbPolyline
 90
     2
 70
     0
 43
0.01
 10
0.162
 20
1.229
 10
0.031
 20
1.229
  0
LWPOLYLINE
  5
2F7
330
12
100
AcDbEntity
  8
10224-1_SMT
  6
BYLAYER
370
   211
 62
   256
100
AcDbPolyline
 90
     2
 70
     0
 43
0.01
 10
0.162
 20
1.22
 10
0.031
 20
1.22
  0
LWPOLYLINE
  5
2F8
330
12
100
AcDbEntity
  8
10224-1_SMT
  6
BYLAYER
370
   211
 62
   256
100
AcDbPolyline
 90
     2
 70
     0
 43
0.01
 10
0.162
 20
1.108
 10
0.031
 20
1.108
  0
LWPOLYLINE
  5
2F9
330
12
100
AcDbEntity
  8
10224-1_SMT
  6
BYLAYER
370
   211
 62
   256
100
AcDbPolyline
 90
     2
 70
     0
 43
0.01
 10
0.162
 20
1.248
 10
0.162
 20
1.108
  0
LWPOLYLINE
  5
2FA
330
12
100
AcDbEntity
  8
10224-1_SMT
  6
BYLAYER
370
   211
 62
   256
100
AcDbPolyline
 90
     2
 70
     0
 43
0.01
 10
0.161
 20
1.248
 10
0.161
 20
1.108
  0
LWPOLYLINE
  5
2FB
330
12
100
AcDbEntity
  8
10224-1_SMT
  6
BYLAYER
370
   211
 62
   256
100
AcDbPolyline
 90
     2
 70
     0
 43
0.01
 10
0.152
 20
1.248
 10
0.152
 20
1.108
  0
LWPOLYLINE
  5
2FC
330
12
100
AcDbEntity
  8
10224-1_SMT
  6
BYLAYER
370
   211
 62
   256
100
AcDbPolyline
 90
     2
 70
     0
 43
0.01
 10
0.143
 20
1.248
 10
0.143
 20
1.108
  0
LWPOLYLINE
  5
2FD
330
12
100
AcDbEntity
  8
10224-1_SMT
  6
BYLAYER
370
   211
 62
   256
100
AcDbPolyline
 90
     2
 70
     0
 43
0.01
 10
0.134
 20
1.248
 10
0.134
 20
1.108
  0
LWPOLYLINE
  5
2FE
330
12
100
AcDbEntity
  8
10224-1_SMT
  6
BYLAYER
370
   211
 62
   256
100
AcDbPolyline
 90
     2
 70
     0
 43
0.01
 10
0.125
 20
1.248
 10
0.125
 20
1.108
  0
LWPOLYLINE
  5
2FF
330
12
100
AcDbEntity
  8
10224-1_SMT
  6
BYLAYER
370
   211
 62
   256
100
AcDbPolyline
 90
     2
 70
     0
 43
0.01
 10
0.116
 20
1.248
 10
0.116
 20
1.108
  0
LWPOLYLINE
  5
300
330
12
100
AcDbEntity
  8
10224-1_SMT
  6
BYLAYER
370
   211
 62
   256
100
AcDbPolyline
 90
     2
 70
     0
 43
0.01
 10
0.107
 20
1.248
 10
0.107
 20
1.108
  0
LWPOLYLINE
  5
301
330
12
100
AcDbEntity
  8
10224-1_SMT
  6
BYLAYER
370
   211
 62
   256
100
AcDbPolyline
 90
     2
 70
     0
 43
0.01
 10
0.098
 20
1.248
 10
0.098
 20
1.108
  0
LWPOLYLINE
  5
302
330
12
100
AcDbEntity
  8
10224-1_SMT
  6
BYLAYER
370
   211
 62
   256
100
AcDbPolyline
 90
     2
 70
     0
 43
0.01
 10
0.162
 20
1.112
 10
0.031
 20
1.112
  0
LWPOLYLINE
  5
303
330
12
100
AcDbEntity
  8
10224-1_SMT
  6
BYLAYER
370
   211
 62
   256
100
AcDbPolyline
 90
     3
 70
     0
 43
0.01
 10
0.162
 20
1.248
 10
0.031
 20
1.248
 10
0.031
 20
1.108
  0
LWPOLYLINE
  5
304
330
12
100
AcDbEntity
  8
10224-1_SMT
  6
BYLAYER
370
   211
 62
   256
100
AcDbPolyline
 90
     2
 70
     0
 43
0.005
 10
3.151
 20
2.261
 10
2.622
 20
2.261
  0
LWPOLYLINE
  5
305
330
12
100
AcDbEntity
  8
10224-1_SMT
  6
BYLAYER
370
   211
 62
   256
100
AcDbPolyline
 90
     2
 70
     0
 43
0.005
 10
2.622
 20
2.462
 10
2.622
 20
2.257
  0
LWPOLYLINE
  5
306
330
12
100
AcDbEntity
  8
10224-1_SMT
  6
BYLAYER
370
   211
 62
   256
100
AcDbPolyline
 90
     2
 70
     0
 43
0.005
 10
3.151
 20
2.462
 10
2.622
 20
2.462
  0
LWPOLYLINE
  5
307
330
12
100
AcDbEntity
  8
10224-1_SMT
  6
BYLAYER
370
   211
 62
   256
100
AcDbPolyline
 90
     3
 70
     0
 43
0.005
 10
3.151
 20
2.462
 10
3.151
 20
2.257
 10
2.622
 20
2.257
  0
LWPOLYLINE
  5
308
330
12
100
AcDbEntity
  8
10224-1_SMT
  6
BYLAYER
370
   211
 62
   256
100
AcDbPolyline
 90
     2
 70
     0
 43
0.005
 10
3.148
 20
2.462
 10
3.148
 20
2.257
  0
LWPOLYLINE
  5
309
330
12
100
AcDbEntity
  8
10224-1_SMT
  6
BYLAYER
370
   211
 62
   256
100
AcDbPolyline
 90
     2
 70
     0
 43
0.005
 10
3.1435
 20
2.462
 10
3.1435
 20
2.257
  0
LWPOLYLINE
  5
30A
330
12
100
AcDbEntity
  8
10224-1_SMT
  6
BYLAYER
370
   211
 62
   256
100
AcDbPolyline
 90
     2
 70
     0
 43
0.005
 10
3.139
 20
2.462
 10
3.139
 20
2.257
  0
LWPOLYLINE
  5
30B
330
12
100
AcDbEntity
  8
10224-1_SMT
  6
BYLAYER
370
   211
 62
   256
100
AcDbPolyline
 90
     2
 70
     0
 43
0.005
 10
3.1345
 20
2.462
 10
3.1345
 20
2.257
  0
LWPOLYLINE
  5
30C
330
12
100
AcDbEntity
  8
10224-1_SMT
  6
BYLAYER
370
   211
 62
   256
100
AcDbPolyline
 90
     2
 70
     0
 43
0.005
 10
3.13
 20
2.462
 10
3.13
 20
2.257
  0
LWPOLYLINE
  5
30D
330
12
100
AcDbEntity
  8
10224-1_SMT
  6
BYLAYER
370
   211
 62
   256
100
AcDbPolyline
 90
     2
 70
     0
 43
0.005
 10
3.1255
 20
2.462
 10
3.1255
 20
2.257
  0
LWPOLYLINE
  5
30E
330
12
100
AcDbEntity
  8
10224-1_SMT
  6
BYLAYER
370
   211
 62
   256
100
AcDbPolyline
 90
     2
 70
     0
 43
0.005
 10
3.121
 20
2.462
 10
3.121
 20
2.257
  0
LWPOLYLINE
  5
30F
330
12
100
AcDbEntity
  8
10224-1_SMT
  6
BYLAYER
370
   211
 62
   256
100
AcDbPolyline
 90
     2
 70
     0
 43
0.005
 10
3.1165
 20
2.462
 10
3.1165
 20
2.257
  0
LWPOLYLINE
  5
310
330
12
100
AcDbEntity
  8
10224-1_SMT
  6
BYLAYER
370
   211
 62
   256
100
AcDbPolyline
 90
     2
 70
     0
 43
0.005
 10
3.112
 20
2.462
 10
3.112
 20
2.257
  0
LWPOLYLINE
  5
311
330
12
100
AcDbEntity
  8
10224-1_SMT
  6
BYLAYER
370
   211
 62
   256
100
AcDbPolyline
 90
     2
 70
     0
 43
0.005
 10
3.1075
 20
2.462
 10
3.1075
 20
2.257
  0
LWPOLYLINE
  5
312
330
12
100
AcDbEntity
  8
10224-1_SMT
  6
BYLAYER
370
   211
 62
   256
100
AcDbPolyline
 90
     2
 70
     0
 43
0.005
 10
3.103
 20
2.462
 10
3.103
 20
2.257
  0
LWPOLYLINE
  5
313
330
12
100
AcDbEntity
  8
10224-1_SMT
  6
BYLAYER
370
   211
 62
   256
100
AcDbPolyline
 90
     2
 70
     0
 43
0.005
 10
3.0985
 20
2.462
 10
3.0985
 20
2.257
  0
LWPOLYLINE
  5
314
330
12
100
AcDbEntity
  8
10224-1_SMT
  6
BYLAYER
370
   211
 62
   256
100
AcDbPolyline
 90
     2
 70
     0
 43
0.005
 10
3.094
 20
2.462
 10
3.094
 20
2.257
  0
LWPOLYLINE
  5
315
330
12
100
AcDbEntity
  8
10224-1_SMT
  6
BYLAYER
370
   211
 62
   256
100
AcDbPolyline
 90
     2
 70
     0
 43
0.005
 10
3.0895
 20
2.462
 10
3.0895
 20
2.257
  0
LWPOLYLINE
  5
316
330
12
100
AcDbEntity
  8
10224-1_SMT
  6
BYLAYER
370
   211
 62
   256
100
AcDbPolyline
 90
     2
 70
     0
 43
0.005
 10
3.085
 20
2.462
 10
3.085
 20
2.257
  0
LWPOLYLINE
  5
317
330
12
100
AcDbEntity
  8
10224-1_SMT
  6
BYLAYER
370
   211
 62
   256
100
AcDbPolyline
 90
     2
 70
     0
 43
0.005
 10
3.0805
 20
2.462
 10
3.0805
 20
2.257
  0
LWPOLYLINE
  5
318
330
12
100
AcDbEntity
  8
10224-1_SMT
  6
BYLAYER
370
   211
 62
   256
100
AcDbPolyline
 90
     2
 70
     0
 43
0.005
 10
3.076
 20
2.462
 10
3.076
 20
2.257
  0
LWPOLYLINE
  5
319
330
12
100
AcDbEntity
  8
10224-1_SMT
  6
BYLAYER
370
   211
 62
   256
100
AcDbPolyline
 90
     2
 70
     0
 43
0.005
 10
3.0715
 20
2.462
 10
3.0715
 20
2.257
  0
LWPOLYLINE
  5
31A
330
12
100
AcDbEntity
  8
10224-1_SMT
  6
BYLAYER
370
   211
 62
   256
100
AcDbPolyline
 90
     2
 70
     0
 43
0.005
 10
3.067
 20
2.462
 10
3.067
 20
2.257
  0
LWPOLYLINE
  5
31B
330
12
100
AcDbEntity
  8
10224-1_SMT
  6
BYLAYER
370
   211
 62
   256
100
AcDbPolyline
 90
     2
 70
     0
 43
0.005
 10
3.0625
 20
2.462
 10
3.0625
 20
2.257
  0
LWPOLYLINE
  5
31C
330
12
100
AcDbEntity
  8
10224-1_SMT
  6
BYLAYER
370
   211
 62
   256
100
AcDbPolyline
 90
     2
 70
     0
 43
0.005
 10
3.058
 20
2.462
 10
3.058
 20
2.257
  0
LWPOLYLINE
  5
31D
330
12
100
AcDbEntity
  8
10224-1_SMT
  6
BYLAYER
370
   211
 62
   256
100
AcDbPolyline
 90
     2
 70
     0
 43
0.005
 10
3.0535
 20
2.462
 10
3.0535
 20
2.257
  0
LWPOLYLINE
  5
31E
330
12
100
AcDbEntity
  8
10224-1_SMT
  6
BYLAYER
370
   211
 62
   256
100
AcDbPolyline
 90
     2
 70
     0
 43
0.005
 10
3.049
 20
2.462
 10
3.049
 20
2.257
  0
LWPOLYLINE
  5
31F
330
12
100
AcDbEntity
  8
10224-1_SMT
  6
BYLAYER
370
   211
 62
   256
100
AcDbPolyline
 90
     2
 70
     0
 43
0.005
 10
3.0445
 20
2.462
 10
3.0445
 20
2.257
  0
LWPOLYLINE
  5
320
330
12
100
AcDbEntity
  8
10224-1_SMT
  6
BYLAYER
370
   211
 62
   256
100
AcDbPolyline
 90
     2
 70
     0
 43
0.005
 10
3.04
 20
2.462
 10
3.04
 20
2.257
  0
LWPOLYLINE
  5
321
330
12
100
AcDbEntity
  8
10224-1_SMT
  6
BYLAYER
370
   211
 62
   256
100
AcDbPolyline
 90
     2
 70
     0
 43
0.005
 10
3.0355
 20
2.462
 10
3.0355
 20
2.257
  0
LWPOLYLINE
  5
322
330
12
100
AcDbEntity
  8
10224-1_SMT
  6
BYLAYER
370
   211
 62
   256
100
AcDbPolyline
 90
     2
 70
     0
 43
0.005
 10
3.031
 20
2.462
 10
3.031
 20
2.257
  0
LWPOLYLINE
  5
323
330
12
100
AcDbEntity
  8
10224-1_SMT
  6
BYLAYER
370
   211
 62
   256
100
AcDbPolyline
 90
     2
 70
     0
 43
0.005
 10
3.0265
 20
2.462
 10
3.0265
 20
2.257
  0
LWPOLYLINE
  5
324
330
12
100
AcDbEntity
  8
10224-1_SMT
  6
BYLAYER
370
   211
 62
   256
100
AcDbPolyline
 90
     2
 70
     0
 43
0.005
 10
3.022
 20
2.462
 10
3.022
 20
2.257
  0
LWPOLYLINE
  5
325
330
12
100
AcDbEntity
  8
10224-1_SMT
  6
BYLAYER
370
   211
 62
   256
100
AcDbPolyline
 90
     2
 70
     0
 43
0.005
 10
3.0175
 20
2.462
 10
3.0175
 20
2.257
  0
LWPOLYLINE
  5
326
330
12
100
AcDbEntity
  8
10224-1_SMT
  6
BYLAYER
370
   211
 62
   256
100
AcDbPolyline
 90
     2
 70
     0
 43
0.005
 10
3.013
 20
2.462
 10
3.013
 20
2.257
  0
LWPOLYLINE
  5
327
330
12
100
AcDbEntity
  8
10224-1_SMT
  6
BYLAYER
370
   211
 62
   256
100
AcDbPolyline
 90
     2
 70
     0
 43
0.005
 10
3.0085
 20
2.462
 10
3.0085
 20
2.257
  0
LWPOLYLINE
  5
328
330
12
100
AcDbEntity
  8
10224-1_SMT
  6
BYLAYER
370
   211
 62
   256
100
AcDbPolyline
 90
     2
 70
     0
 43
0.005
 10
3.004
 20
2.462
 10
3.004
 20
2.257
  0
LWPOLYLINE
  5
329
330
12
100
AcDbEntity
  8
10224-1_SMT
  6
BYLAYER
370
   211
 62
   256
100
AcDbPolyline
 90
     2
 70
     0
 43
0.005
 10
2.9995
 20
2.462
 10
2.9995
 20
2.257
  0
LWPOLYLINE
  5
32A
330
12
100
AcDbEntity
  8
10224-1_SMT
  6
BYLAYER
370
   211
 62
   256
100
AcDbPolyline
 90
     2
 70
     0
 43
0.005
 10
2.995
 20
2.462
 10
2.995
 20
2.257
  0
LWPOLYLINE
  5
32B
330
12
100
AcDbEntity
  8
10224-1_SMT
  6
BYLAYER
370
   211
 62
   256
100
AcDbPolyline
 90
     2
 70
     0
 43
0.005
 10
2.9905
 20
2.462
 10
2.9905
 20
2.257
  0
LWPOLYLINE
  5
32C
330
12
100
AcDbEntity
  8
10224-1_SMT
  6
BYLAYER
370
   211
 62
   256
100
AcDbPolyline
 90
     2
 70
     0
 43
0.005
 10
2.986
 20
2.462
 10
2.986
 20
2.257
  0
LWPOLYLINE
  5
32D
330
12
100
AcDbEntity
  8
10224-1_SMT
  6
BYLAYER
370
   211
 62
   256
100
AcDbPolyline
 90
     2
 70
     0
 43
0.005
 10
2.9815
 20
2.462
 10
2.9815
 20
2.257
  0
LWPOLYLINE
  5
32E
330
12
100
AcDbEntity
  8
10224-1_SMT
  6
BYLAYER
370
   211
 62
   256
100
AcDbPolyline
 90
     2
 70
     0
 43
0.005
 10
2.977
 20
2.462
 10
2.977
 20
2.257
  0
LWPOLYLINE
  5
32F
330
12
100
AcDbEntity
  8
10224-1_SMT
  6
BYLAYER
370
   211
 62
   256
100
AcDbPolyline
 90
     2
 70
     0
 43
0.005
 10
2.9725
 20
2.462
 10
2.9725
 20
2.257
  0
LWPOLYLINE
  5
330
330
12
100
AcDbEntity
  8
10224-1_SMT
  6
BYLAYER
370
   211
 62
   256
100
AcDbPolyline
 90
     2
 70
     0
 43
0.005
 10
2.968
 20
2.462
 10
2.968
 20
2.257
  0
LWPOLYLINE
  5
331
330
12
100
AcDbEntity
  8
10224-1_SMT
  6
BYLAYER
370
   211
 62
   256
100
AcDbPolyline
 90
     2
 70
     0
 43
0.005
 10
2.9635
 20
2.462
 10
2.9635
 20
2.257
  0
LWPOLYLINE
  5
332
330
12
100
AcDbEntity
  8
10224-1_SMT
  6
BYLAYER
370
   211
 62
   256
100
AcDbPolyline
 90
     2
 70
     0
 43
0.005
 10
2.959
 20
2.462
 10
2.959
 20
2.257
  0
LWPOLYLINE
  5
333
330
12
100
AcDbEntity
  8
10224-1_SMT
  6
BYLAYER
370
   211
 62
   256
100
AcDbPolyline
 90
     2
 70
     0
 43
0.005
 10
2.9545
 20
2.462
 10
2.9545
 20
2.257
  0
LWPOLYLINE
  5
334
330
12
100
AcDbEntity
  8
10224-1_SMT
  6
BYLAYER
370
   211
 62
   256
100
AcDbPolyline
 90
     2
 70
     0
 43
0.005
 10
2.95
 20
2.462
 10
2.95
 20
2.257
  0
LWPOLYLINE
  5
335
330
12
100
AcDbEntity
  8
10224-1_SMT
  6
BYLAYER
370
   211
 62
   256
100
AcDbPolyline
 90
     2
 70
     0
 43
0.005
 10
2.9455
 20
2.462
 10
2.9455
 20
2.257
  0
LWPOLYLINE
  5
336
330
12
100
AcDbEntity
  8
10224-1_SMT
  6
BYLAYER
370
   211
 62
   256
100
AcDbPolyline
 90
     2
 70
     0
 43
0.005
 10
2.941
 20
2.462
 10
2.941
 20
2.257
  0
LWPOLYLINE
  5
337
330
12
100
AcDbEntity
  8
10224-1_SMT
  6
BYLAYER
370
   211
 62
   256
100
AcDbPolyline
 90
     2
 70
     0
 43
0.005
 10
2.9365
 20
2.462
 10
2.9365
 20
2.257
  0
LWPOLYLINE
  5
338
330
12
100
AcDbEntity
  8
10224-1_SMT
  6
BYLAYER
370
   211
 62
   256
100
AcDbPolyline
 90
     2
 70
     0
 43
0.005
 10
2.932
 20
2.462
 10
2.932
 20
2.257
  0
LWPOLYLINE
  5
339
330
12
100
AcDbEntity
  8
10224-1_SMT
  6
BYLAYER
370
   211
 62
   256
100
AcDbPolyline
 90
     2
 70
     0
 43
0.005
 10
2.9275
 20
2.462
 10
2.9275
 20
2.257
  0
LWPOLYLINE
  5
33A
330
12
100
AcDbEntity
  8
10224-1_SMT
  6
BYLAYER
370
   211
 62
   256
100
AcDbPolyline
 90
     2
 70
     0
 43
0.005
 10
2.923
 20
2.462
 10
2.923
 20
2.257
  0
LWPOLYLINE
  5
33B
330
12
100
AcDbEntity
  8
10224-1_SMT
  6
BYLAYER
370
   211
 62
   256
100
AcDbPolyline
 90
     2
 70
     0
 43
0.005
 10
2.9185
 20
2.462
 10
2.9185
 20
2.257
  0
LWPOLYLINE
  5
33C
330
12
100
AcDbEntity
  8
10224-1_SMT
  6
BYLAYER
370
   211
 62
   256
100
AcDbPolyline
 90
     2
 70
     0
 43
0.005
 10
2.914
 20
2.462
 10
2.914
 20
2.257
  0
LWPOLYLINE
  5
33D
330
12
100
AcDbEntity
  8
10224-1_SMT
  6
BYLAYER
370
   211
 62
   256
100
AcDbPolyline
 90
     2
 70
     0
 43
0.005
 10
2.9095
 20
2.462
 10
2.9095
 20
2.257
  0
LWPOLYLINE
  5
33E
330
12
100
AcDbEntity
  8
10224-1_SMT
  6
BYLAYER
370
   211
 62
   256
100
AcDbPolyline
 90
     2
 70
     0
 43
0.005
 10
2.905
 20
2.462
 10
2.905
 20
2.257
  0
LWPOLYLINE
  5
33F
330
12
100
AcDbEntity
  8
10224-1_SMT
  6
BYLAYER
370
   211
 62
   256
100
AcDbPolyline
 90
     2
 70
     0
 43
0.005
 10
2.9005
 20
2.462
 10
2.9005
 20
2.257
  0
LWPOLYLINE
  5
340
330
12
100
AcDbEntity
  8
10224-1_SMT
  6
BYLAYER
370
   211
 62
   256
100
AcDbPolyline
 90
     2
 70
     0
 43
0.005
 10
2.896
 20
2.462
 10
2.896
 20
2.257
  0
LWPOLYLINE
  5
341
330
12
100
AcDbEntity
  8
10224-1_SMT
  6
BYLAYER
370
   211
 62
   256
100
AcDbPolyline
 90
     2
 70
     0
 43
0.005
 10
2.8915
 20
2.462
 10
2.8915
 20
2.257
  0
LWPOLYLINE
  5
342
330
12
100
AcDbEntity
  8
10224-1_SMT
  6
BYLAYER
370
   211
 62
   256
100
AcDbPolyline
 90
     2
 70
     0
 43
0.005
 10
2.887
 20
2.462
 10
2.887
 20
2.257
  0
LWPOLYLINE
  5
343
330
12
100
AcDbEntity
  8
10224-1_SMT
  6
BYLAYER
370
   211
 62
   256
100
AcDbPolyline
 90
     2
 70
     0
 43
0.005
 10
2.8825
 20
2.462
 10
2.8825
 20
2.257
  0
LWPOLYLINE
  5
344
330
12
100
AcDbEntity
  8
10224-1_SMT
  6
BYLAYER
370
   211
 62
   256
100
AcDbPolyline
 90
     2
 70
     0
 43
0.005
 10
2.878
 20
2.462
 10
2.878
 20
2.257
  0
LWPOLYLINE
  5
345
330
12
100
AcDbEntity
  8
10224-1_SMT
  6
BYLAYER
370
   211
 62
   256
100
AcDbPolyline
 90
     2
 70
     0
 43
0.005
 10
2.8735
 20
2.462
 10
2.8735
 20
2.257
  0
LWPOLYLINE
  5
346
330
12
100
AcDbEntity
  8
10224-1_SMT
  6
BYLAYER
370
   211
 62
   256
100
AcDbPolyline
 90
     2
 70
     0
 43
0.005
 10
2.869
 20
2.462
 10
2.869
 20
2.257
  0
LWPOLYLINE
  5
347
330
12
100
AcDbEntity
  8
10224-1_SMT
  6
BYLAYER
370
   211
 62
   256
100
AcDbPolyline
 90
     2
 70
     0
 43
0.005
 10
2.8645
 20
2.462
 10
2.8645
 20
2.257
  0
LWPOLYLINE
  5
348
330
12
100
AcDbEntity
  8
10224-1_SMT
  6
BYLAYER
370
   211
 62
   256
100
AcDbPolyline
 90
     2
 70
     0
 43
0.005
 10
2.86
 20
2.462
 10
2.86
 20
2.257
  0
LWPOLYLINE
  5
349
330
12
100
AcDbEntity
  8
10224-1_SMT
  6
BYLAYER
370
   211
 62
   256
100
AcDbPolyline
 90
     2
 70
     0
 43
0.005
 10
2.8555
 20
2.462
 10
2.8555
 20
2.257
  0
LWPOLYLINE
  5
34A
330
12
100
AcDbEntity
  8
10224-1_SMT
  6
BYLAYER
370
   211
 62
   256
100
AcDbPolyline
 90
     2
 70
     0
 43
0.005
 10
2.851
 20
2.462
 10
2.851
 20
2.257
  0
LWPOLYLINE
  5
34B
330
12
100
AcDbEntity
  8
10224-1_SMT
  6
BYLAYER
370
   211
 62
   256
100
AcDbPolyline
 90
     2
 70
     0
 43
0.005
 10
2.8465
 20
2.462
 10
2.8465
 20
2.257
  0
LWPOLYLINE
  5
34C
330
12
100
AcDbEntity
  8
10224-1_SMT
  6
BYLAYER
370
   211
 62
   256
100
AcDbPolyline
 90
     2
 70
     0
 43
0.005
 10
2.842
 20
2.462
 10
2.842
 20
2.257
  0
LWPOLYLINE
  5
34D
330
12
100
AcDbEntity
  8
10224-1_SMT
  6
BYLAYER
370
   211
 62
   256
100
AcDbPolyline
 90
     2
 70
     0
 43
0.005
 10
2.8375
 20
2.462
 10
2.8375
 20
2.257
  0
LWPOLYLINE
  5
34E
330
12
100
AcDbEntity
  8
10224-1_SMT
  6
BYLAYER
370
   211
 62
   256
100
AcDbPolyline
 90
     2
 70
     0
 43
0.005
 10
2.833
 20
2.462
 10
2.833
 20
2.257
  0
LWPOLYLINE
  5
34F
330
12
100
AcDbEntity
  8
10224-1_SMT
  6
BYLAYER
370
   211
 62
   256
100
AcDbPolyline
 90
     2
 70
     0
 43
0.005
 10
2.8285
 20
2.462
 10
2.8285
 20
2.257
  0
LWPOLYLINE
  5
350
330
12
100
AcDbEntity
  8
10224-1_SMT
  6
BYLAYER
370
   211
 62
   256
100
AcDbPolyline
 90
     2
 70
     0
 43
0.005
 10
2.824
 20
2.462
 10
2.824
 20
2.257
  0
LWPOLYLINE
  5
351
330
12
100
AcDbEntity
  8
10224-1_SMT
  6
BYLAYER
370
   211
 62
   256
100
AcDbPolyline
 90
     2
 70
     0
 43
0.005
 10
2.8195
 20
2.462
 10
2.8195
 20
2.257
  0
LWPOLYLINE
  5
352
330
12
100
AcDbEntity
  8
10224-1_SMT
  6
BYLAYER
370
   211
 62
   256
100
AcDbPolyline
 90
     2
 70
     0
 43
0.005
 10
2.815
 20
2.462
 10
2.815
 20
2.257
  0
LWPOLYLINE
  5
353
330
12
100
AcDbEntity
  8
10224-1_SMT
  6
BYLAYER
370
   211
 62
   256
100
AcDbPolyline
 90
     2
 70
     0
 43
0.005
 10
2.8105
 20
2.462
 10
2.8105
 20
2.257
  0
LWPOLYLINE
  5
354
330
12
100
AcDbEntity
  8
10224-1_SMT
  6
BYLAYER
370
   211
 62
   256
100
AcDbPolyline
 90
     2
 70
     0
 43
0.005
 10
2.806
 20
2.462
 10
2.806
 20
2.257
  0
LWPOLYLINE
  5
355
330
12
100
AcDbEntity
  8
10224-1_SMT
  6
BYLAYER
370
   211
 62
   256
100
AcDbPolyline
 90
     2
 70
     0
 43
0.005
 10
2.8015
 20
2.462
 10
2.8015
 20
2.257
  0
LWPOLYLINE
  5
356
330
12
100
AcDbEntity
  8
10224-1_SMT
  6
BYLAYER
370
   211
 62
   256
100
AcDbPolyline
 90
     2
 70
     0
 43
0.005
 10
2.797
 20
2.462
 10
2.797
 20
2.257
  0
LWPOLYLINE
  5
357
330
12
100
AcDbEntity
  8
10224-1_SMT
  6
BYLAYER
370
   211
 62
   256
100
AcDbPolyline
 90
     2
 70
     0
 43
0.005
 10
2.7925
 20
2.462
 10
2.7925
 20
2.257
  0
LWPOLYLINE
  5
358
330
12
100
AcDbEntity
  8
10224-1_SMT
  6
BYLAYER
370
   211
 62
   256
100
AcDbPolyline
 90
     2
 70
     0
 43
0.005
 10
2.788
 20
2.462
 10
2.788
 20
2.257
  0
LWPOLYLINE
  5
359
330
12
100
AcDbEntity
  8
10224-1_SMT
  6
BYLAYER
370
   211
 62
   256
100
AcDbPolyline
 90
     2
 70
     0
 43
0.005
 10
2.7835
 20
2.462
 10
2.7835
 20
2.257
  0
LWPOLYLINE
  5
35A
330
12
100
AcDbEntity
  8
10224-1_SMT
  6
BYLAYER
370
   211
 62
   256
100
AcDbPolyline
 90
     2
 70
     0
 43
0.005
 10
2.779
 20
2.462
 10
2.779
 20
2.257
  0
LWPOLYLINE
  5
35B
330
12
100
AcDbEntity
  8
10224-1_SMT
  6
BYLAYER
370
   211
 62
   256
100
AcDbPolyline
 90
     2
 70
     0
 43
0.005
 10
2.7745
 20
2.462
 10
2.7745
 20
2.257
  0
LWPOLYLINE
  5
35C
330
12
100
AcDbEntity
  8
10224-1_SMT
  6
BYLAYER
370
   211
 62
   256
100
AcDbPolyline
 90
     2
 70
     0
 43
0.005
 10
2.77
 20
2.462
 10
2.77
 20
2.257
  0
LWPOLYLINE
  5
35D
330
12
100
AcDbEntity
  8
10224-1_SMT
  6
BYLAYER
370
   211
 62
   256
100
AcDbPolyline
 90
     2
 70
     0
 43
0.005
 10
2.7655
 20
2.462
 10
2.7655
 20
2.257
  0
LWPOLYLINE
  5
35E
330
12
100
AcDbEntity
  8
10224-1_SMT
  6
BYLAYER
370
   211
 62
   256
100
AcDbPolyline
 90
     2
 70
     0
 43
0.005
 10
2.761
 20
2.462
 10
2.761
 20
2.257
  0
LWPOLYLINE
  5
35F
330
12
100
AcDbEntity
  8
10224-1_SMT
  6
BYLAYER
370
   211
 62
   256
100
AcDbPolyline
 90
     2
 70
     0
 43
0.005
 10
2.7565
 20
2.462
 10
2.7565
 20
2.257
  0
LWPOLYLINE
  5
360
330
12
100
AcDbEntity
  8
10224-1_SMT
  6
BYLAYER
370
   211
 62
   256
100
AcDbPolyline
 90
     2
 70
     0
 43
0.005
 10
2.752
 20
2.462
 10
2.752
 20
2.257
  0
LWPOLYLINE
  5
361
330
12
100
AcDbEntity
  8
10224-1_SMT
  6
BYLAYER
370
   211
 62
   256
100
AcDbPolyline
 90
     2
 70
     0
 43
0.005
 10
2.7475
 20
2.462
 10
2.7475
 20
2.257
  0
LWPOLYLINE
  5
362
330
12
100
AcDbEntity
  8
10224-1_SMT
  6
BYLAYER
370
   211
 62
   256
100
AcDbPolyline
 90
     2
 70
     0
 43
0.005
 10
2.743
 20
2.462
 10
2.743
 20
2.257
  0
LWPOLYLINE
  5
363
330
12
100
AcDbEntity
  8
10224-1_SMT
  6
BYLAYER
370
   211
 62
   256
100
AcDbPolyline
 90
     2
 70
     0
 43
0.005
 10
2.7385
 20
2.462
 10
2.7385
 20
2.257
  0
LWPOLYLINE
  5
364
330
12
100
AcDbEntity
  8
10224-1_SMT
  6
BYLAYER
370
   211
 62
   256
100
AcDbPolyline
 90
     2
 70
     0
 43
0.005
 10
2.734
 20
2.462
 10
2.734
 20
2.257
  0
LWPOLYLINE
  5
365
330
12
100
AcDbEntity
  8
10224-1_SMT
  6
BYLAYER
370
   211
 62
   256
100
AcDbPolyline
 90
     2
 70
     0
 43
0.005
 10
2.7295
 20
2.462
 10
2.7295
 20
2.257
  0
LWPOLYLINE
  5
366
330
12
100
AcDbEntity
  8
10224-1_SMT
  6
BYLAYER
370
   211
 62
   256
100
AcDbPolyline
 90
     2
 70
     0
 43
0.005
 10
2.725
 20
2.462
 10
2.725
 20
2.257
  0
LWPOLYLINE
  5
367
330
12
100
AcDbEntity
  8
10224-1_SMT
  6
BYLAYER
370
   211
 62
   256
100
AcDbPolyline
 90
     2
 70
     0
 43
0.005
 10
2.7205
 20
2.462
 10
2.7205
 20
2.257
  0
LWPOLYLINE
  5
368
330
12
100
AcDbEntity
  8
10224-1_SMT
  6
BYLAYER
370
   211
 62
   256
100
AcDbPolyline
 90
     2
 70
     0
 43
0.005
 10
2.716
 20
2.462
 10
2.716
 20
2.257
  0
LWPOLYLINE
  5
369
330
12
100
AcDbEntity
  8
10224-1_SMT
  6
BYLAYER
370
   211
 62
   256
100
AcDbPolyline
 90
     2
 70
     0
 43
0.005
 10
2.7115
 20
2.462
 10
2.7115
 20
2.257
  0
LWPOLYLINE
  5
36A
330
12
100
AcDbEntity
  8
10224-1_SMT
  6
BYLAYER
370
   211
 62
   256
100
AcDbPolyline
 90
     2
 70
     0
 43
0.005
 10
2.707
 20
2.462
 10
2.707
 20
2.257
  0
LWPOLYLINE
  5
36B
330
12
100
AcDbEntity
  8
10224-1_SMT
  6
BYLAYER
370
   211
 62
   256
100
AcDbPolyline
 90
     2
 70
     0
 43
0.005
 10
2.7025
 20
2.462
 10
2.7025
 20
2.257
  0
LWPOLYLINE
  5
36C
330
12
100
AcDbEntity
  8
10224-1_SMT
  6
BYLAYER
370
   211
 62
   256
100
AcDbPolyline
 90
     2
 70
     0
 43
0.005
 10
2.698
 20
2.462
 10
2.698
 20
2.257
  0
LWPOLYLINE
  5
36D
330
12
100
AcDbEntity
  8
10224-1_SMT
  6
BYLAYER
370
   211
 62
   256
100
AcDbPolyline
 90
     2
 70
     0
 43
0.005
 10
2.6935
 20
2.462
 10
2.6935
 20
2.257
  0
LWPOLYLINE
  5
36E
330
12
100
AcDbEntity
  8
10224-1_SMT
  6
BYLAYER
370
   211
 62
   256
100
AcDbPolyline
 90
     2
 70
     0
 43
0.005
 10
2.689
 20
2.462
 10
2.689
 20
2.257
  0
LWPOLYLINE
  5
36F
330
12
100
AcDbEntity
  8
10224-1_SMT
  6
BYLAYER
370
   211
 62
   256
100
AcDbPolyline
 90
     2
 70
     0
 43
0.005
 10
2.6845
 20
2.462
 10
2.6845
 20
2.257
  0
LWPOLYLINE
  5
370
330
12
100
AcDbEntity
  8
10224-1_SMT
  6
BYLAYER
370
   211
 62
   256
100
AcDbPolyline
 90
     2
 70
     0
 43
0.005
 10
2.68
 20
2.462
 10
2.68
 20
2.257
  0
LWPOLYLINE
  5
371
330
12
100
AcDbEntity
  8
10224-1_SMT
  6
BYLAYER
370
   211
 62
   256
100
AcDbPolyline
 90
     2
 70
     0
 43
0.005
 10
2.6755
 20
2.462
 10
2.6755
 20
2.257
  0
LWPOLYLINE
  5
372
330
12
100
AcDbEntity
  8
10224-1_SMT
  6
BYLAYER
370
   211
 62
   256
100
AcDbPolyline
 90
     2
 70
     0
 43
0.005
 10
2.671
 20
2.462
 10
2.671
 20
2.257
  0
LWPOLYLINE
  5
373
330
12
100
AcDbEntity
  8
10224-1_SMT
  6
BYLAYER
370
   211
 62
   256
100
AcDbPolyline
 90
     2
 70
     0
 43
0.005
 10
2.6665
 20
2.462
 10
2.6665
 20
2.257
  0
LWPOLYLINE
  5
374
330
12
100
AcDbEntity
  8
10224-1_SMT
  6
BYLAYER
370
   211
 62
   256
100
AcDbPolyline
 90
     2
 70
     0
 43
0.005
 10
2.662
 20
2.462
 10
2.662
 20
2.257
  0
LWPOLYLINE
  5
375
330
12
100
AcDbEntity
  8
10224-1_SMT
  6
BYLAYER
370
   211
 62
   256
100
AcDbPolyline
 90
     2
 70
     0
 43
0.005
 10
2.6575
 20
2.462
 10
2.6575
 20
2.257
  0
LWPOLYLINE
  5
376
330
12
100
AcDbEntity
  8
10224-1_SMT
  6
BYLAYER
370
   211
 62
   256
100
AcDbPolyline
 90
     2
 70
     0
 43
0.005
 10
2.653
 20
2.462
 10
2.653
 20
2.257
  0
LWPOLYLINE
  5
377
330
12
100
AcDbEntity
  8
10224-1_SMT
  6
BYLAYER
370
   211
 62
   256
100
AcDbPolyline
 90
     2
 70
     0
 43
0.005
 10
2.6485
 20
2.462
 10
2.6485
 20
2.257
  0
LWPOLYLINE
  5
378
330
12
100
AcDbEntity
  8
10224-1_SMT
  6
BYLAYER
370
   211
 62
   256
100
AcDbPolyline
 90
     2
 70
     0
 43
0.005
 10
2.644
 20
2.462
 10
2.644
 20
2.257
  0
LWPOLYLINE
  5
379
330
12
100
AcDbEntity
  8
10224-1_SMT
  6
BYLAYER
370
   211
 62
   256
100
AcDbPolyline
 90
     2
 70
     0
 43
0.005
 10
2.6395
 20
2.462
 10
2.6395
 20
2.257
  0
LWPOLYLINE
  5
37A
330
12
100
AcDbEntity
  8
10224-1_SMT
  6
BYLAYER
370
   211
 62
   256
100
AcDbPolyline
 90
     2
 70
     0
 43
0.005
 10
2.635
 20
2.462
 10
2.635
 20
2.257
  0
LWPOLYLINE
  5
37B
330
12
100
AcDbEntity
  8
10224-1_SMT
  6
BYLAYER
370
   211
 62
   256
100
AcDbPolyline
 90
     2
 70
     0
 43
0.005
 10
2.6305
 20
2.462
 10
2.6305
 20
2.257
  0
LWPOLYLINE
  5
37C
330
12
100
AcDbEntity
  8
10224-1_SMT
  6
BYLAYER
370
   211
 62
   256
100
AcDbPolyline
 90
     2
 70
     0
 43
0.005
 10
2.626
 20
2.462
 10
2.626
 20
2.257
  0
LWPOLYLINE
  5
37D
330
12
100
AcDbEntity
  8
10224-1_SMT
  6
BYLAYER
370
   211
 62
   256
100
AcDbPolyline
 90
     2
 70
     0
 43
0.005
 10
3.151
 20
2.459
 10
2.622
 20
2.459
  0
LWPOLYLINE
  5
37E
330
12
100
AcDbEntity
  8
10224-1_SMT
  6
BYLAYER
370
   211
 62
   256
100
AcDbPolyline
 90
     2
 70
     0
 43
0.005
 10
3.151
 20
2.4545
 10
2.622
 20
2.4545
  0
LWPOLYLINE
  5
37F
330
12
100
AcDbEntity
  8
10224-1_SMT
  6
BYLAYER
370
   211
 62
   256
100
AcDbPolyline
 90
     2
 70
     0
 43
0.005
 10
3.151
 20
2.45
 10
2.622
 20
2.45
  0
LWPOLYLINE
  5
380
330
12
100
AcDbEntity
  8
10224-1_SMT
  6
BYLAYER
370
   211
 62
   256
100
AcDbPolyline
 90
     2
 70
     0
 43
0.005
 10
3.151
 20
2.4455
 10
2.622
 20
2.4455
  0
LWPOLYLINE
  5
381
330
12
100
AcDbEntity
  8
10224-1_SMT
  6
BYLAYER
370
   211
 62
   256
100
AcDbPolyline
 90
     2
 70
     0
 43
0.005
 10
3.151
 20
2.441
 10
2.622
 20
2.441
  0
LWPOLYLINE
  5
382
330
12
100
AcDbEntity
  8
10224-1_SMT
  6
BYLAYER
370
   211
 62
   256
100
AcDbPolyline
 90
     2
 70
     0
 43
0.005
 10
3.151
 20
2.4365
 10
2.622
 20
2.4365
  0
LWPOLYLINE
  5
383
330
12
100
AcDbEntity
  8
10224-1_SMT
  6
BYLAYER
370
   211
 62
   256
100
AcDbPolyline
 90
     2
 70
     0
 43
0.005
 10
3.151
 20
2.432
 10
2.622
 20
2.432
  0
LWPOLYLINE
  5
384
330
12
100
AcDbEntity
  8
10224-1_SMT
  6
BYLAYER
370
   211
 62
   256
100
AcDbPolyline
 90
     2
 70
     0
 43
0.005
 10
3.151
 20
2.4275
 10
2.622
 20
2.4275
  0
LWPOLYLINE
  5
385
330
12
100
AcDbEntity
  8
10224-1_SMT
  6
BYLAYER
370
   211
 62
   256
100
AcDbPolyline
 90
     2
 70
     0
 43
0.005
 10
3.151
 20
2.423
 10
2.622
 20
2.423
  0
LWPOLYLINE
  5
386
330
12
100
AcDbEntity
  8
10224-1_SMT
  6
BYLAYER
370
   211
 62
   256
100
AcDbPolyline
 90
     2
 70
     0
 43
0.005
 10
3.151
 20
2.4185
 10
2.622
 20
2.4185
  0
LWPOLYLINE
  5
387
330
12
100
AcDbEntity
  8
10224-1_SMT
  6
BYLAYER
370
   211
 62
   256
100
AcDbPolyline
 90
     2
 70
     0
 43
0.005
 10
3.151
 20
2.414
 10
2.622
 20
2.414
  0
LWPOLYLINE
  5
388
330
12
100
AcDbEntity
  8
10224-1_SMT
  6
BYLAYER
370
   211
 62
   256
100
AcDbPolyline
 90
     2
 70
     0
 43
0.005
 10
3.151
 20
2.4095
 10
2.622
 20
2.4095
  0
LWPOLYLINE
  5
389
330
12
100
AcDbEntity
  8
10224-1_SMT
  6
BYLAYER
370
   211
 62
   256
100
AcDbPolyline
 90
     2
 70
     0
 43
0.005
 10
3.151
 20
2.405
 10
2.622
 20
2.405
  0
LWPOLYLINE
  5
38A
330
12
100
AcDbEntity
  8
10224-1_SMT
  6
BYLAYER
370
   211
 62
   256
100
AcDbPolyline
 90
     2
 70
     0
 43
0.005
 10
3.151
 20
2.4005
 10
2.622
 20
2.4005
  0
LWPOLYLINE
  5
38B
330
12
100
AcDbEntity
  8
10224-1_SMT
  6
BYLAYER
370
   211
 62
   256
100
AcDbPolyline
 90
     2
 70
     0
 43
0.005
 10
3.151
 20
2.396
 10
2.622
 20
2.396
  0
LWPOLYLINE
  5
38C
330
12
100
AcDbEntity
  8
10224-1_SMT
  6
BYLAYER
370
   211
 62
   256
100
AcDbPolyline
 90
     2
 70
     0
 43
0.005
 10
3.151
 20
2.3915
 10
2.622
 20
2.3915
  0
LWPOLYLINE
  5
38D
330
12
100
AcDbEntity
  8
10224-1_SMT
  6
BYLAYER
370
   211
 62
   256
100
AcDbPolyline
 90
     2
 70
     0
 43
0.005
 10
3.151
 20
2.387
 10
2.622
 20
2.387
  0
LWPOLYLINE
  5
38E
330
12
100
AcDbEntity
  8
10224-1_SMT
  6
BYLAYER
370
   211
 62
   256
100
AcDbPolyline
 90
     2
 70
     0
 43
0.005
 10
3.151
 20
2.3825
 10
2.622
 20
2.3825
  0
LWPOLYLINE
  5
38F
330
12
100
AcDbEntity
  8
10224-1_SMT
  6
BYLAYER
370
   211
 62
   256
100
AcDbPolyline
 90
     2
 70
     0
 43
0.005
 10
3.151
 20
2.378
 10
2.622
 20
2.378
  0
LWPOLYLINE
  5
390
330
12
100
AcDbEntity
  8
10224-1_SMT
  6
BYLAYER
370
   211
 62
   256
100
AcDbPolyline
 90
     2
 70
     0
 43
0.005
 10
3.151
 20
2.3735
 10
2.622
 20
2.3735
  0
LWPOLYLINE
  5
391
330
12
100
AcDbEntity
  8
10224-1_SMT
  6
BYLAYER
370
   211
 62
   256
100
AcDbPolyline
 90
     2
 70
     0
 43
0.005
 10
3.151
 20
2.369
 10
2.622
 20
2.369
  0
LWPOLYLINE
  5
392
330
12
100
AcDbEntity
  8
10224-1_SMT
  6
BYLAYER
370
   211
 62
   256
100
AcDbPolyline
 90
     2
 70
     0
 43
0.005
 10
3.151
 20
2.3645
 10
2.622
 20
2.3645
  0
LWPOLYLINE
  5
393
330
12
100
AcDbEntity
  8
10224-1_SMT
  6
BYLAYER
370
   211
 62
   256
100
AcDbPolyline
 90
     2
 70
     0
 43
0.005
 10
3.151
 20
2.36
 10
2.622
 20
2.36
  0
LWPOLYLINE
  5
394
330
12
100
AcDbEntity
  8
10224-1_SMT
  6
BYLAYER
370
   211
 62
   256
100
AcDbPolyline
 90
     2
 70
     0
 43
0.005
 10
3.151
 20
2.3555
 10
2.622
 20
2.3555
  0
LWPOLYLINE
  5
395
330
12
100
AcDbEntity
  8
10224-1_SMT
  6
BYLAYER
370
   211
 62
   256
100
AcDbPolyline
 90
     2
 70
     0
 43
0.005
 10
3.151
 20
2.351
 10
2.622
 20
2.351
  0
LWPOLYLINE
  5
396
330
12
100
AcDbEntity
  8
10224-1_SMT
  6
BYLAYER
370
   211
 62
   256
100
AcDbPolyline
 90
     2
 70
     0
 43
0.005
 10
3.151
 20
2.3465
 10
2.622
 20
2.3465
  0
LWPOLYLINE
  5
397
330
12
100
AcDbEntity
  8
10224-1_SMT
  6
BYLAYER
370
   211
 62
   256
100
AcDbPolyline
 90
     2
 70
     0
 43
0.005
 10
3.151
 20
2.342
 10
2.622
 20
2.342
  0
LWPOLYLINE
  5
398
330
12
100
AcDbEntity
  8
10224-1_SMT
  6
BYLAYER
370
   211
 62
   256
100
AcDbPolyline
 90
     2
 70
     0
 43
0.005
 10
3.151
 20
2.3375
 10
2.622
 20
2.3375
  0
LWPOLYLINE
  5
399
330
12
100
AcDbEntity
  8
10224-1_SMT
  6
BYLAYER
370
   211
 62
   256
100
AcDbPolyline
 90
     2
 70
     0
 43
0.005
 10
3.151
 20
2.333
 10
2.622
 20
2.333
  0
LWPOLYLINE
  5
39A
330
12
100
AcDbEntity
  8
10224-1_SMT
  6
BYLAYER
370
   211
 62
   256
100
AcDbPolyline
 90
     2
 70
     0
 43
0.005
 10
3.151
 20
2.3285
 10
2.622
 20
2.3285
  0
LWPOLYLINE
  5
39B
330
12
100
AcDbEntity
  8
10224-1_SMT
  6
BYLAYER
370
   211
 62
   256
100
AcDbPolyline
 90
     2
 70
     0
 43
0.005
 10
3.151
 20
2.324
 10
2.622
 20
2.324
  0
LWPOLYLINE
  5
39C
330
12
100
AcDbEntity
  8
10224-1_SMT
  6
BYLAYER
370
   211
 62
   256
100
AcDbPolyline
 90
     2
 70
     0
 43
0.005
 10
3.151
 20
2.3195
 10
2.622
 20
2.3195
  0
LWPOLYLINE
  5
39D
330
12
100
AcDbEntity
  8
10224-1_SMT
  6
BYLAYER
370
   211
 62
   256
100
AcDbPolyline
 90
     2
 70
     0
 43
0.005
 10
3.151
 20
2.315
 10
2.622
 20
2.315
  0
LWPOLYLINE
  5
39E
330
12
100
AcDbEntity
  8
10224-1_SMT
  6
BYLAYER
370
   211
 62
   256
100
AcDbPolyline
 90
     2
 70
     0
 43
0.005
 10
3.151
 20
2.3105
 10
2.622
 20
2.3105
  0
LWPOLYLINE
  5
39F
330
12
100
AcDbEntity
  8
10224-1_SMT
  6
BYLAYER
370
   211
 62
   256
100
AcDbPolyline
 90
     2
 70
     0
 43
0.005
 10
3.151
 20
2.306
 10
2.622
 20
2.306
  0
LWPOLYLINE
  5
3A0
330
12
100
AcDbEntity
  8
10224-1_SMT
  6
BYLAYER
370
   211
 62
   256
100
AcDbPolyline
 90
     2
 70
     0
 43
0.005
 10
3.151
 20
2.3015
 10
2.622
 20
2.3015
  0
LWPOLYLINE
  5
3A1
330
12
100
AcDbEntity
  8
10224-1_SMT
  6
BYLAYER
370
   211
 62
   256
100
AcDbPolyline
 90
     2
 70
     0
 43
0.005
 10
3.151
 20
2.297
 10
2.622
 20
2.297
  0
LWPOLYLINE
  5
3A2
330
12
100
AcDbEntity
  8
10224-1_SMT
  6
BYLAYER
370
   211
 62
   256
100
AcDbPolyline
 90
     2
 70
     0
 43
0.005
 10
3.151
 20
2.2925
 10
2.622
 20
2.2925
  0
LWPOLYLINE
  5
3A3
330
12
100
AcDbEntity
  8
10224-1_SMT
  6
BYLAYER
370
   211
 62
   256
100
AcDbPolyline
 90
     2
 70
     0
 43
0.005
 10
3.151
 20
2.288
 10
2.622
 20
2.288
  0
LWPOLYLINE
  5
3A4
330
12
100
AcDbEntity
  8
10224-1_SMT
  6
BYLAYER
370
   211
 62
   256
100
AcDbPolyline
 90
     2
 70
     0
 43
0.005
 10
3.151
 20
2.2835
 10
2.622
 20
2.2835
  0
LWPOLYLINE
  5
3A5
330
12
100
AcDbEntity
  8
10224-1_SMT
  6
BYLAYER
370
   211
 62
   256
100
AcDbPolyline
 90
     2
 70
     0
 43
0.005
 10
3.151
 20
2.279
 10
2.622
 20
2.279
  0
LWPOLYLINE
  5
3A6
330
12
100
AcDbEntity
  8
10224-1_SMT
  6
BYLAYER
370
   211
 62
   256
100
AcDbPolyline
 90
     2
 70
     0
 43
0.005
 10
3.151
 20
2.2745
 10
2.622
 20
2.2745
  0
LWPOLYLINE
  5
3A7
330
12
100
AcDbEntity
  8
10224-1_SMT
  6
BYLAYER
370
   211
 62
   256
100
AcDbPolyline
 90
     2
 70
     0
 43
0.005
 10
3.151
 20
2.27
 10
2.622
 20
2.27
  0
LWPOLYLINE
  5
3A8
330
12
100
AcDbEntity
  8
10224-1_SMT
  6
BYLAYER
370
   211
 62
   256
100
AcDbPolyline
 90
     2
 70
     0
 43
0.005
 10
3.151
 20
2.2655
 10
2.622
 20
2.2655
  0
ENDSEC
  0
SECTION
  2
OBJECTS
  0
DICTIONARY
  5
46
102
{ACAD_REACTORS
330
0
102
}
330
0
100
AcDbDictionary
280
     1
281
     0
  3
ACAD_GROUP
350
47
  3
ACAD_LAYOUT
350
48
  3
ACAD_MLINESTYLE
350
4B
  0
DICTIONARY
  5
47
102
{ACAD_REACTORS
330
46
102
}
330
46
100
AcDbDictionary
280
     1
281
     0
  0
DICTIONARY
  5
48
102
{ACAD_REACTORS
330
46
102
}
330
46
100
AcDbDictionary
280
     1
281
     0
  3
Model
350
49
  3
Layout1
350
4A
  0
LAYOUT
  5
49
102
{ACAD_REACTORS
330
48
102
}
330
48
100
AcDbPlotSettings
  1

  2
none_device
  4
ISO_A4_(210.00_x_297.00_MM)
 40
0.0
 41
0.0
 42
0.0
 43
0.0
 44
210.0
 45
297.0
 46
0.0
 47
0.0
 48
0.0
 49
0.0
140
0.0
141
0.0
141
1.0
143
1.0
 72
     1
 73
     0
 74
     5
  7

 75
    16
147
1.0
 76
     0
 77
     2
148
0.0
149
0.0
100
AcDbLayout
  1
Model
 70
     1
 71
     0
 10
-0.005
 20
-0.2475
 11
5.2395
 21
2.505
 12
0.0
 22
0.0
 32
0.0
 14
-0.005
 24
-0.2475
 34
0.0
 15
5.2395
 25
2.505
 35
0.0
146
0.0
 13
0.0
 23
0.0
 33
0.0
 16
1.0
 26
0.0
 36
0.0
 17
0.0
 27
1.0
 37
0.0
 76
     0
330
12
  0
LAYOUT
  5
4A
102
{ACAD_REACTORS
330
48
102
}
330
48
100
AcDbPlotSettings
  1

  2
none_device
  4

 40
0.0
 41
0.0
 42
0.0
 43
0.0
 44
0.0
 45
0.0
 46
0.0
 47
0.0
 48
0.0
 49
0.0
140
0.0
141
0.0
141
1.0
143
1.0
 72
     1
 73
     0
 74
     5
  7

 75
    16
147
1.0
 76
     0
 77
     2
148
0.0
149
0.0
100
AcDbLayout
  1
Layout1
 70
     1
 71
     1
 10
100000000000000000000.0
 20
100000000000000000000.0
 11
-100000000000000000000.0
 21
-100000000000000000000.0
 12
0.0
 22
0.0
 32
0.0
 14
100000000000000000000.0
 24
100000000000000000000.0
 34
0.0
 15
-100000000000000000000.0
 25
-100000000000000000000.0
 35
0.0
146
0.0
 13
0.0
 23
0.0
 33
0.0
 16
1.0
 26
0.0
 36
0.0
 17
0.0
 27
1.0
 37
0.0
 76
     0
330
13
  0
DICTIONARY
  5
4B
102
{ACAD_REACTORS
330
46
102
}
330
46
100
AcDbDictionary
280
     1
281
     0
  0
ENDSEC
  0
EOF
