  0
SECTION
  2
HEADER
  9
$ACADVER
  1
AC1018
  9
$INSBASE
 10
0.0
 20
0.0
 30
0.0
  9
$EXTMIN
 10
-0.807
 20
-1.3352
 30
0.0
  9
$EXTMAX
 10
5.0874
 20
3.1535
 30
0.0
  9
$LIMMIN
 10
-0.807
 20
-1.3352
  9
$LIMMAX
 10
5.0874
 20
3.1535
  9
$INSUNITS
 70
     4
  9
$HANDSEED
  5
  1459
  0
ENDSEC
  0
SECTION
  2
CLASSES
  0
ENDSEC
  0
SECTION
  2
TABLES
  0
TABLE
  2
VPORT
  5
1
330
0
100
AcDbSymbolTable
 70
     0
  0
ENDTAB
  0
TABLE
  2
LTYPE
  5
2
330
0
100
AcDbSymbolTable
 70
     3
  0
LTYPE
  5
3
330
2
100
AcDbSymbolTableRecord
100
AcDbLinetypeTableRecord
  2
BYLAYER
 70
     0
  3
Continuous
 72
    65
 73
     0
 40
0.0
  0
LTYPE
  5
4
330
2
100
AcDbSymbolTableRecord
100
AcDbLinetypeTableRecord
  2
BYBLOCK
 70
     0
  3
Continuous
 72
    65
 73
     0
 40
0.0
  0
LTYPE
  5
5
330
2
100
AcDbSymbolTableRecord
100
AcDbLinetypeTableRecord
  2
CONTINUOUS
 70
     0
  3
Continuous
 72
    65
 73
     0
 40
0.0
  0
ENDTAB
  0
TABLE
  2
LAYER
  5
6
330
0
100
AcDbSymbolTable
 70
     4
  0
LAYER
  5
7
330
6
100
AcDbSymbolTableRecord
100
AcDbLayerTableRecord
  2
0
 70
     0
 62
     7
  6
CONTINUOUS
370
     0
390
     0
  0
LAYER
  5
8
330
6
100
AcDbSymbolTableRecord
100
AcDbLayerTableRecord
  2
4WAYDRIVER1_DRD
 70
     0
 62
    96
  6
CONTINUOUS
370
     0
390
     0
  0
LAYER
  5
9
330
6
100
AcDbSymbolTableRecord
100
AcDbLayerTableRecord
  2
4WAYDRIVER1_SMT
 70
     0
 62
    90
  6
CONTINUOUS
370
     0
390
     0
  0
LAYER
  5
A
330
6
100
AcDbSymbolTableRecord
100
AcDbLayerTableRecord
  2
4WAYDRIVER1_SST
 70
     0
 62
    96
  6
CONTINUOUS
370
     0
390
     0
  0
ENDTAB
  0
TABLE
  2
STYLE
  5
B
330
0
100
AcDbSymbolTable
 70
     0
  0
ENDTAB
  0
TABLE
  2
VIEW
  5
C
330
0
100
AcDbSymbolTable
 70
     0
  0
ENDTAB
  0
TABLE
  2
UCS
  5
D
330
0
100
AcDbSymbolTable
 70
     0
  0
ENDTAB
  0
TABLE
  2
APPID
  5
E
330
0
100
AcDbSymbolTable
 70
     1
  0
APPID
  5
F
330
E
100
AcDbSymbolTableRecord
100
AcDbRegAppTableRecord
  2
ACAD
 70
     0
  0
ENDTAB
  0
TABLE
  2
DIMSTYLE
  5
10
330
0
100
AcDbSymbolTable
 70
     0
100
AcDbDimStyleTable
 71
     0
  0
ENDTAB
  0
TABLE
  2
BLOCK_RECORD
  5
11
330
0
100
AcDbSymbolTable
 70
     7
  0
BLOCK_RECORD
  5
12
330
11
100
AcDbSymbolTableRecord
100
AcDbBlockTableRecord
  2
*Model_Space
340
1C
  0
BLOCK_RECORD
  5
13
330
11
100
AcDbSymbolTableRecord
100
AcDbBlockTableRecord
  2
*Paper_Space
340
1D
  0
BLOCK_RECORD
  5
14
330
11
100
AcDbSymbolTableRecord
100
AcDbBlockTableRecord
  2
RECTANGLE_1
340
0
  0
BLOCK_RECORD
  5
15
330
11
100
AcDbSymbolTableRecord
100
AcDbBlockTableRecord
  2
ROUND_6
340
0
  0
BLOCK_RECORD
  5
16
330
11
100
AcDbSymbolTableRecord
100
AcDbBlockTableRecord
  2
ROUND_8
340
0
  0
BLOCK_RECORD
  5
17
330
11
100
AcDbSymbolTableRecord
100
AcDbBlockTableRecord
  2
ROUND_9
340
0
  0
BLOCK_RECORD
  5
18
330
11
100
AcDbSymbolTableRecord
100
AcDbBlockTableRecord
  2
ROUND_10
340
0
  0
ENDTAB
  0
ENDSEC
  0
SECTION
  2
BLOCKS
  0
BLOCK
  5
1F
330
12
100
AcDbEntity
  8
0
100
AcDbBlockBegin
  2
*Model_Space
 70
     0
 10
0.0
 20
0.0
 30
0.0
  3
*Model_Space
  1

  0
ENDBLK
  5
20
330
12
100
AcDbEntity
  8
0
100
AcDbBlockEnd
  0
BLOCK
  5
21
330
13
100
AcDbEntity
  8
0
100
AcDbBlockBegin
  2
*Paper_Space
 70
     0
 10
0.0
 20
0.0
 30
0.0
  3
*Paper_Space
  1

  0
ENDBLK
  5
22
330
13
100
AcDbEntity
  8
0
100
AcDbBlockEnd
  0
BLOCK
  5
23
330
14
100
AcDbEntity
  8
0
100
AcDbBlockBegin
  2
RECTANGLE_1
 70
     0
 10
0.0
 20
0.0
 30
0.0
  3
RECTANGLE_1
  1

  0
SOLID
  5
25
330
14
100
AcDbEntity
  8
0
  6
BYLAYER
 62
   256
100
AcDbTrace
 10
0.05
 20
0.125
 30
0.0
 11
0.05
 21
-0.125
 31
0.0
 12
-0.05
 22
0.125
 32
0.0
 13
-0.05
 23
-0.125
 33
0.0
  0
ENDBLK
  5
24
330
14
100
AcDbEntity
  8
0
100
AcDbBlockEnd
  0
BLOCK
  5
26
330
15
100
AcDbEntity
  8
0
100
AcDbBlockBegin
  2
ROUND_6
 70
     0
 10
0.0
 20
0.0
 30
0.0
  3
ROUND_6
  1

  0
HATCH
  5
28
330
15
100
AcDbEntity
  8
0
100
AcDbHatch
 10
0.0
 20
0.0
 30
0.0
210
0.0
220
0.0
230
1.0
  2
SOLID
 70
     1
 71
     0
 91
     1
 92
     0
 93
     1
 72
     2
 10
-1.11022302463E-016
 20
0.0
 40
0.0225
 50
0.0
 51
360.0
 73
     1
 97
     0
 75
     0
 76
     1
 98
     1
 10
0.0
 20
0.0
  0
ENDBLK
  5
27
330
15
100
AcDbEntity
  8
0
100
AcDbBlockEnd
  0
BLOCK
  5
29
330
16
100
AcDbEntity
  8
0
100
AcDbBlockBegin
  2
ROUND_8
 70
     0
 10
0.0
 20
0.0
 30
0.0
  3
ROUND_8
  1

  0
HATCH
  5
2B
330
16
100
AcDbEntity
  8
0
100
AcDbHatch
 10
0.0
 20
0.0
 30
0.0
210
0.0
220
0.0
230
1.0
  2
SOLID
 70
     1
 71
     0
 91
     1
 92
     0
 93
     1
 72
     2
 10
-1.11022302463E-016
 20
0.0
 40
0.005
 50
0.0
 51
360.0
 73
     1
 97
     0
 75
     0
 76
     1
 98
     1
 10
0.0
 20
0.0
  0
ENDBLK
  5
2A
330
16
100
AcDbEntity
  8
0
100
AcDbBlockEnd
  0
BLOCK
  5
2C
330
17
100
AcDbEntity
  8
0
100
AcDbBlockBegin
  2
ROUND_9
 70
     0
 10
0.0
 20
0.0
 30
0.0
  3
ROUND_9
  1

  0
HATCH
  5
2E
330
17
100
AcDbEntity
  8
0
100
AcDbHatch
 10
0.0
 20
0.0
 30
0.0
210
0.0
220
0.0
230
1.0
  2
SOLID
 70
     1
 71
     0
 91
     1
 92
     0
 93
     1
 72
     2
 10
-1.11022302463E-016
 20
0.0
 40
0.004
 50
0.0
 51
360.0
 73
     1
 97
     0
 75
     0
 76
     1
 98
     1
 10
0.0
 20
0.0
  0
ENDBLK
  5
2D
330
17
100
AcDbEntity
  8
0
100
AcDbBlockEnd
  0
BLOCK
  5
2F
330
18
100
AcDbEntity
  8
0
100
AcDbBlockBegin
  2
ROUND_10
 70
     0
 10
0.0
 20
0.0
 30
0.0
  3
ROUND_10
  1

  0
HATCH
  5
31
330
18
100
AcDbEntity
  8
0
100
AcDbHatch
 10
0.0
 20
0.0
 30
0.0
210
0.0
220
0.0
230
1.0
  2
SOLID
 70
     1
 71
     0
 91
     1
 92
     0
 93
     1
 72
     2
 10
-1.11022302463E-016
 20
0.0
 40
0.003
 50
0.0
 51
360.0
 73
     1
 97
     0
 75
     0
 76
     1
 98
     1
 10
0.0
 20
0.0
  0
ENDBLK
  5
30
330
18
100
AcDbEntity
  8
0
100
AcDbBlockEnd
  0
ENDSEC
  0
SECTION
  2
ENTITIES
  0
LWPOLYLINE
  5
32
330
12
100
AcDbEntity
  8
4WAYDRIVER1_DRD
  6
BYLAYER
370
   211
 62
   256
100
AcDbPolyline
 90
     8
 70
     0
 43
0.01
 10
1.6071
 20
-1.2419
 10
1.6238
 20
-1.2585
 10
1.6571
 20
-1.2585
 10
1.6738
 20
-1.2419
 10
1.6738
 20
-1.2252
 10
1.6405
 20
-1.1919
 10
1.6738
 20
-1.1585
 10
1.6072
 20
-1.1585
  0
LWPOLYLINE
  5
33
330
12
100
AcDbEntity
  8
4WAYDRIVER1_DRD
  6
BYLAYER
370
   211
 62
   256
100
AcDbPolyline
 90
     7
 70
     0
 43
0.01
 10
1.5121
 20
-1.2419
 10
1.5205
 20
-1.2585
 10
1.5705
 20
-1.2585
 10
1.5788
 20
-1.2419
 10
1.5788
 20
-1.2085
 10
1.5621
 20
-1.1919
 10
1.5122
 20
-1.1919
  0
LWPOLYLINE
  5
34
330
12
100
AcDbEntity
  8
4WAYDRIVER1_DRD
  6
BYLAYER
370
   211
 62
   256
100
AcDbPolyline
 90
     2
 70
     0
 43
0.01
 10
1.5121
 20
-1.1919
 10
1.5122
 20
-1.1585
  0
LWPOLYLINE
  5
35
330
12
100
AcDbEntity
  8
4WAYDRIVER1_DRD
  6
BYLAYER
370
   211
 62
   256
100
AcDbPolyline
 90
     2
 70
     0
 43
0.01
 10
1.5121
 20
-1.1585
 10
1.5788
 20
-1.1585
  0
LWPOLYLINE
  5
36
330
12
100
AcDbEntity
  8
4WAYDRIVER1_DRD
  6
BYLAYER
370
   211
 62
   256
100
AcDbPolyline
 90
     8
 70
     0
 43
0.01
 10
1.4171
 20
-1.2419
 10
1.4338
 20
-1.2585
 10
1.4671
 20
-1.2585
 10
1.4838
 20
-1.2419
 10
1.4838
 20
-1.2252
 10
1.4505
 20
-1.1919
 10
1.4838
 20
-1.1585
 10
1.4172
 20
-1.1585
  0
LWPOLYLINE
  5
37
330
12
100
AcDbEntity
  8
4WAYDRIVER1_DRD
  6
BYLAYER
370
   211
 62
   256
100
AcDbPolyline
 90
     3
 70
     0
 43
0.01
 10
0.4342
 20
-1.2585
 10
0.3759
 20
-1.2585
 10
0.3759
 20
-1.1585
  0
LWPOLYLINE
  5
38
330
12
100
AcDbEntity
  8
4WAYDRIVER1_DRD
  6
BYLAYER
370
   211
 62
   256
100
AcDbPolyline
 90
     2
 70
     0
 43
0.01
 10
0.3476
 20
-1.2252
 10
0.2809
 20
-1.2252
  0
LWPOLYLINE
  5
39
330
12
100
AcDbEntity
  8
4WAYDRIVER1_DRD
  6
BYLAYER
370
   211
 62
   256
100
AcDbPolyline
 90
     6
 70
     0
 43
0.01
 10
0.3476
 20
-1.2585
 10
0.3476
 20
-1.2085
 10
0.3226
 20
-1.1585
 10
0.3059
 20
-1.1585
 10
0.2809
 20
-1.2085
 10
0.2809
 20
-1.2585
  0
LWPOLYLINE
  5
3A
330
12
100
AcDbEntity
  8
4WAYDRIVER1_DRD
  6
BYLAYER
370
   211
 62
   256
100
AcDbPolyline
 90
     2
 70
     0
 43
0.01
 10
0.2193
 20
-1.2585
 10
0.2193
 20
-1.1585
  0
LWPOLYLINE
  5
3B
330
12
100
AcDbEntity
  8
4WAYDRIVER1_DRD
  6
BYLAYER
370
   211
 62
   256
100
AcDbPolyline
 90
     2
 70
     0
 43
0.01
 10
0.2526
 20
-1.1585
 10
0.1859
 20
-1.1585
  0
LWPOLYLINE
  5
3C
330
12
100
AcDbEntity
  8
4WAYDRIVER1_DRD
  6
BYLAYER
370
   211
 62
   256
100
AcDbPolyline
 90
     4
 70
     0
 43
0.01
 10
0.0992
 20
-1.2585
 10
0.0909
 20
-1.2419
 10
0.0909
 20
-1.1752
 10
0.0993
 20
-1.1585
  0
LWPOLYLINE
  5
3D
330
12
100
AcDbEntity
  8
4WAYDRIVER1_DRD
  6
BYLAYER
370
   211
 62
   256
100
AcDbPolyline
 90
     2
 70
     0
 43
0.01
 10
0.0992
 20
-1.1585
 10
0.1493
 20
-1.1585
  0
LWPOLYLINE
  5
3E
330
12
100
AcDbEntity
  8
4WAYDRIVER1_DRD
  6
BYLAYER
370
   211
 62
   256
100
AcDbPolyline
 90
     4
 70
     0
 43
0.01
 10
0.1492
 20
-1.1585
 10
0.1576
 20
-1.1752
 10
0.1576
 20
-1.2419
 10
0.1493
 20
-1.2585
  0
LWPOLYLINE
  5
3F
330
12
100
AcDbEntity
  8
4WAYDRIVER1_DRD
  6
BYLAYER
370
   211
 62
   256
100
AcDbPolyline
 90
     2
 70
     0
 43
0.01
 10
0.1492
 20
-1.2585
 10
0.0993
 20
-1.2585
  0
LWPOLYLINE
  5
40
330
12
100
AcDbEntity
  8
4WAYDRIVER1_DRD
  6
BYLAYER
370
   211
 62
   256
100
AcDbPolyline
 90
     2
 70
     0
 43
0.01
 10
0.0293
 20
-1.2585
 10
0.0293
 20
-1.1585
  0
LWPOLYLINE
  5
41
330
12
100
AcDbEntity
  8
4WAYDRIVER1_DRD
  6
BYLAYER
370
   211
 62
   256
100
AcDbPolyline
 90
     2
 70
     0
 43
0.01
 10
0.0626
 20
-1.1585
 10
-0.0041
 20
-1.1585
  0
LWPOLYLINE
  5
42
330
12
100
AcDbEntity
  8
4WAYDRIVER1_DRD
  6
BYLAYER
370
   211
 62
   256
100
AcDbPolyline
 90
    13
 70
     0
 43
0.01
 10
0.2844
 20
-1.0724
 10
0.2733
 20
-1.0613
 10
0.2677
 20
-1.0502
 10
0.2677
 20
-1.028
 10
0.2733
 20
-1.0169
 10
0.2844
 20
-1.0058
 10
0.2955
 20
-1.0058
 10
0.3066
 20
-1.0169
 10
0.3122
 20
-1.028
 10
0.3122
 20
-1.0502
 10
0.3066
 20
-1.0613
 10
0.2955
 20
-1.0724
 10
0.2844
 20
-1.0724
  0
LWPOLYLINE
  5
43
330
12
100
AcDbEntity
  8
4WAYDRIVER1_DRD
  6
BYLAYER
370
   211
 62
   256
100
AcDbPolyline
 90
     9
 70
     0
 43
0.01
 10
0.1977
 20
-1.0613
 10
0.2033
 20
-1.0724
 10
0.2366
 20
-1.0724
 10
0.2422
 20
-1.0613
 10
0.2422
 20
-1.0391
 10
0.2311
 20
-1.028
 10
0.1977
 20
-1.028
 10
0.1977
 20
-1.0058
 10
0.2422
 20
-1.0058
  0
LWPOLYLINE
  5
44
330
12
100
AcDbEntity
  8
4WAYDRIVER1_DRD
  6
BYLAYER
370
   211
 62
   256
100
AcDbPolyline
 90
     7
 70
     0
 43
0.01
 10
0.1722
 20
-1.0724
 10
0.1277
 20
-1.0724
 10
0.1722
 20
-1.028
 10
0.1722
 20
-1.0169
 10
0.1666
 20
-1.0058
 10
0.1333
 20
-1.0058
 10
0.1277
 20
-1.0169
  0
LWPOLYLINE
  5
45
330
12
100
AcDbEntity
  8
4WAYDRIVER1_DRD
  6
BYLAYER
370
   211
 62
   256
100
AcDbPolyline
 90
     5
 70
     0
 43
0.01
 10
0.0911
 20
-1.0724
 10
0.1022
 20
-1.0724
 10
0.1022
 20
-1.0613
 10
0.0911
 20
-1.0613
 10
0.0911
 20
-1.0724
  0
LWPOLYLINE
  5
46
330
12
100
AcDbEntity
  8
4WAYDRIVER1_DRD
  6
BYLAYER
370
   211
 62
   256
100
AcDbPolyline
 90
    13
 70
     0
 43
0.01
 10
0.0266
 20
-1.0724
 10
0.0155
 20
-1.0613
 10
0.01
 20
-1.0502
 10
0.01
 20
-1.028
 10
0.0155
 20
-1.0169
 10
0.0266
 20
-1.0058
 10
0.0377
 20
-1.0058
 10
0.0488
 20
-1.0169
 10
0.0544
 20
-1.028
 10
0.0544
 20
-1.0502
 10
0.0488
 20
-1.0613
 10
0.0377
 20
-1.0724
 10
0.0266
 20
-1.0724
  0
LWPOLYLINE
  5
47
330
12
100
AcDbEntity
  8
4WAYDRIVER1_DRD
  6
BYLAYER
370
   211
 62
   256
100
AcDbPolyline
 90
     2
 70
     0
 43
0.01
 10
1.6738
 20
-0.9224
 10
1.6516
 20
-0.9224
  0
LWPOLYLINE
  5
48
330
12
100
AcDbEntity
  8
4WAYDRIVER1_DRD
  6
BYLAYER
370
   211
 62
   256
100
AcDbPolyline
 90
     3
 70
     0
 43
0.01
 10
1.6627
 20
-0.9224
 10
1.6627
 20
-0.8558
 10
1.6516
 20
-0.8669
  0
LWPOLYLINE
  5
49
330
12
100
AcDbEntity
  8
4WAYDRIVER1_DRD
  6
BYLAYER
370
   211
 62
   256
100
AcDbPolyline
 90
     2
 70
     0
 43
0.01
 10
1.6149
 20
-0.9224
 10
1.5927
 20
-0.9224
  0
LWPOLYLINE
  5
4A
330
12
100
AcDbEntity
  8
4WAYDRIVER1_DRD
  6
BYLAYER
370
   211
 62
   256
100
AcDbPolyline
 90
     3
 70
     0
 43
0.01
 10
1.6038
 20
-0.9224
 10
1.6038
 20
-0.8558
 10
1.5927
 20
-0.8669
  0
LWPOLYLINE
  5
4B
330
12
100
AcDbEntity
  8
4WAYDRIVER1_DRD
  6
BYLAYER
370
   211
 62
   256
100
AcDbPolyline
 90
     9
 70
     0
 43
0.01
 10
0.2677
 20
-0.9113
 10
0.2733
 20
-0.9224
 10
0.3066
 20
-0.9224
 10
0.3122
 20
-0.9113
 10
0.3122
 20
-0.8891
 10
0.3011
 20
-0.878
 10
0.2677
 20
-0.878
 10
0.2677
 20
-0.8558
 10
0.3122
 20
-0.8558
  0
LWPOLYLINE
  5
4C
330
12
100
AcDbEntity
  8
4WAYDRIVER1_DRD
  6
BYLAYER
370
   211
 62
   256
100
AcDbPolyline
 90
     7
 70
     0
 43
0.01
 10
0.2422
 20
-0.9224
 10
0.1977
 20
-0.9224
 10
0.2422
 20
-0.878
 10
0.2422
 20
-0.8669
 10
0.2366
 20
-0.8558
 10
0.2033
 20
-0.8558
 10
0.1977
 20
-0.8669
  0
LWPOLYLINE
  5
4D
330
12
100
AcDbEntity
  8
4WAYDRIVER1_DRD
  6
BYLAYER
370
   211
 62
   256
100
AcDbPolyline
 90
     2
 70
     0
 43
0.01
 10
0.1722
 20
-0.9224
 10
0.15
 20
-0.9224
  0
LWPOLYLINE
  5
4E
330
12
100
AcDbEntity
  8
4WAYDRIVER1_DRD
  6
BYLAYER
370
   211
 62
   256
100
AcDbPolyline
 90
     3
 70
     0
 43
0.01
 10
0.1611
 20
-0.9224
 10
0.1611
 20
-0.8558
 10
0.15
 20
-0.8669
  0
LWPOLYLINE
  5
4F
330
12
100
AcDbEntity
  8
4WAYDRIVER1_DRD
  6
BYLAYER
370
   211
 62
   256
100
AcDbPolyline
 90
     5
 70
     0
 43
0.01
 10
0.1022
 20
-0.9224
 10
0.1133
 20
-0.9224
 10
0.1133
 20
-0.9113
 10
0.1022
 20
-0.9113
 10
0.1022
 20
-0.9224
  0
LWPOLYLINE
  5
50
330
12
100
AcDbEntity
  8
4WAYDRIVER1_DRD
  6
BYLAYER
370
   211
 62
   256
100
AcDbPolyline
 90
     7
 70
     0
 43
0.01
 10
0.0377
 20
-0.9224
 10
0.0266
 20
-0.9113
 10
0.0211
 20
-0.9002
 10
0.0211
 20
-0.878
 10
0.0266
 20
-0.8669
 10
0.0377
 20
-0.8558
 10
0.0489
 20
-0.8558
  0
LWPOLYLINE
  5
51
330
12
100
AcDbEntity
  8
4WAYDRIVER1_DRD
  6
BYLAYER
370
   211
 62
   256
100
AcDbPolyline
 90
     6
 70
     0
 43
0.01
 10
0.0488
 20
-0.8558
 10
0.06
 20
-0.8669
 10
0.0655
 20
-0.878
 10
0.0655
 20
-0.9002
 10
0.06
 20
-0.9113
 10
0.0489
 20
-0.9224
  0
LWPOLYLINE
  5
52
330
12
100
AcDbEntity
  8
4WAYDRIVER1_DRD
  6
BYLAYER
370
   211
 62
   256
100
AcDbPolyline
 90
     2
 70
     0
 43
0.01
 10
0.0488
 20
-0.9224
 10
0.0377
 20
-0.9224
  0
LWPOLYLINE
  5
53
330
12
100
AcDbEntity
  8
4WAYDRIVER1_DRD
  6
BYLAYER
370
   211
 62
   256
100
AcDbPolyline
 90
     7
 70
     0
 43
0.01
 10
1.646
 20
-0.7724
 10
1.6349
 20
-0.7613
 10
1.6294
 20
-0.7502
 10
1.6294
 20
-0.728
 10
1.6349
 20
-0.7169
 10
1.646
 20
-0.7058
 10
1.6572
 20
-0.7058
  0
LWPOLYLINE
  5
54
330
12
100
AcDbEntity
  8
4WAYDRIVER1_DRD
  6
BYLAYER
370
   211
 62
   256
100
AcDbPolyline
 90
     6
 70
     0
 43
0.01
 10
1.6571
 20
-0.7058
 10
1.6683
 20
-0.7169
 10
1.6738
 20
-0.728
 10
1.6738
 20
-0.7502
 10
1.6683
 20
-0.7613
 10
1.6572
 20
-0.7724
  0
LWPOLYLINE
  5
55
330
12
100
AcDbEntity
  8
4WAYDRIVER1_DRD
  6
BYLAYER
370
   211
 62
   256
100
AcDbPolyline
 90
     2
 70
     0
 43
0.01
 10
1.6571
 20
-0.7724
 10
1.646
 20
-0.7724
  0
LWPOLYLINE
  5
56
330
12
100
AcDbEntity
  8
4WAYDRIVER1_DRD
  6
BYLAYER
370
   211
 62
   256
100
AcDbPolyline
 90
     7
 70
     0
 43
0.01
 10
1.6038
 20
-0.7724
 10
1.5594
 20
-0.7724
 10
1.6038
 20
-0.728
 10
1.6038
 20
-0.7169
 10
1.5983
 20
-0.7058
 10
1.5649
 20
-0.7058
 10
1.5594
 20
-0.7169
  0
LWPOLYLINE
  5
57
330
12
100
AcDbEntity
  8
4WAYDRIVER1_DRD
  6
BYLAYER
370
   211
 62
   256
100
AcDbPolyline
 90
     8
 70
     0
 43
0.01
 10
1.4894
 20
-0.7613
 10
1.5005
 20
-0.7724
 10
1.5227
 20
-0.7724
 10
1.5338
 20
-0.7613
 10
1.5338
 20
-0.7502
 10
1.5116
 20
-0.728
 10
1.5338
 20
-0.7058
 10
1.4894
 20
-0.7058
  0
LWPOLYLINE
  5
58
330
12
100
AcDbEntity
  8
4WAYDRIVER1_DRD
  6
BYLAYER
370
   211
 62
   256
100
AcDbPolyline
 90
     9
 70
     0
 43
0.01
 10
0.2677
 20
-0.7613
 10
0.2733
 20
-0.7724
 10
0.3066
 20
-0.7724
 10
0.3122
 20
-0.7613
 10
0.3122
 20
-0.7391
 10
0.3011
 20
-0.728
 10
0.2677
 20
-0.728
 10
0.2677
 20
-0.7058
 10
0.3122
 20
-0.7058
  0
LWPOLYLINE
  5
59
330
12
100
AcDbEntity
  8
4WAYDRIVER1_DRD
  6
BYLAYER
370
   211
 62
   256
100
AcDbPolyline
 90
     7
 70
     0
 43
0.01
 10
0.2422
 20
-0.7724
 10
0.1977
 20
-0.7724
 10
0.2422
 20
-0.728
 10
0.2422
 20
-0.7169
 10
0.2366
 20
-0.7058
 10
0.2033
 20
-0.7058
 10
0.1977
 20
-0.7169
  0
LWPOLYLINE
  5
5A
330
12
100
AcDbEntity
  8
4WAYDRIVER1_DRD
  6
BYLAYER
370
   211
 62
   256
100
AcDbPolyline
 90
    13
 70
     0
 43
0.01
 10
0.1444
 20
-0.7724
 10
0.1333
 20
-0.7613
 10
0.1277
 20
-0.7502
 10
0.1277
 20
-0.728
 10
0.1333
 20
-0.7169
 10
0.1444
 20
-0.7058
 10
0.1555
 20
-0.7058
 10
0.1666
 20
-0.7169
 10
0.1722
 20
-0.728
 10
0.1722
 20
-0.7502
 10
0.1666
 20
-0.7613
 10
0.1555
 20
-0.7724
 10
0.1444
 20
-0.7724
  0
LWPOLYLINE
  5
5B
330
12
100
AcDbEntity
  8
4WAYDRIVER1_DRD
  6
BYLAYER
370
   211
 62
   256
100
AcDbPolyline
 90
     5
 70
     0
 43
0.01
 10
0.0911
 20
-0.7724
 10
0.1022
 20
-0.7724
 10
0.1022
 20
-0.7613
 10
0.0911
 20
-0.7613
 10
0.0911
 20
-0.7724
  0
LWPOLYLINE
  5
5C
330
12
100
AcDbEntity
  8
4WAYDRIVER1_DRD
  6
BYLAYER
370
   211
 62
   256
100
AcDbPolyline
 90
    13
 70
     0
 43
0.01
 10
0.0266
 20
-0.7724
 10
0.0155
 20
-0.7613
 10
0.01
 20
-0.7502
 10
0.01
 20
-0.728
 10
0.0155
 20
-0.7169
 10
0.0266
 20
-0.7058
 10
0.0377
 20
-0.7058
 10
0.0488
 20
-0.7169
 10
0.0544
 20
-0.728
 10
0.0544
 20
-0.7502
 10
0.0488
 20
-0.7613
 10
0.0377
 20
-0.7724
 10
0.0266
 20
-0.7724
  0
LWPOLYLINE
  5
5D
330
12
100
AcDbEntity
  8
4WAYDRIVER1_DRD
  6
BYLAYER
370
   211
 62
   256
100
AcDbPolyline
 90
     2
 70
     0
 43
0.01
 10
2.5142
 20
-0.5585
 10
2.4642
 20
-0.5585
  0
LWPOLYLINE
  5
5E
330
12
100
AcDbEntity
  8
4WAYDRIVER1_DRD
  6
BYLAYER
370
   211
 62
   256
100
AcDbPolyline
 90
     4
 70
     0
 43
0.01
 10
2.5309
 20
-0.6085
 10
2.4642
 20
-0.6085
 10
2.4642
 20
-0.5085
 10
2.5309
 20
-0.5085
  0
LWPOLYLINE
  5
5F
330
12
100
AcDbEntity
  8
4WAYDRIVER1_DRD
  6
BYLAYER
370
   211
 62
   256
100
AcDbPolyline
 90
     2
 70
     0
 43
0.01
 10
2.4026
 20
-0.6085
 10
2.4026
 20
-0.5085
  0
LWPOLYLINE
  5
60
330
12
100
AcDbEntity
  8
4WAYDRIVER1_DRD
  6
BYLAYER
370
   211
 62
   256
100
AcDbPolyline
 90
     2
 70
     0
 43
0.01
 10
2.4359
 20
-0.5085
 10
2.3692
 20
-0.5085
  0
LWPOLYLINE
  5
61
330
12
100
AcDbEntity
  8
4WAYDRIVER1_DRD
  6
BYLAYER
370
   211
 62
   256
100
AcDbPolyline
 90
     4
 70
     0
 43
0.01
 10
2.2825
 20
-0.6085
 10
2.2742
 20
-0.5919
 10
2.2742
 20
-0.5252
 10
2.2826
 20
-0.5085
  0
LWPOLYLINE
  5
62
330
12
100
AcDbEntity
  8
4WAYDRIVER1_DRD
  6
BYLAYER
370
   211
 62
   256
100
AcDbPolyline
 90
     2
 70
     0
 43
0.01
 10
2.2825
 20
-0.5085
 10
2.3326
 20
-0.5085
  0
LWPOLYLINE
  5
63
330
12
100
AcDbEntity
  8
4WAYDRIVER1_DRD
  6
BYLAYER
370
   211
 62
   256
100
AcDbPolyline
 90
     4
 70
     0
 43
0.01
 10
2.3325
 20
-0.5085
 10
2.3409
 20
-0.5252
 10
2.3409
 20
-0.5919
 10
2.3326
 20
-0.6085
  0
LWPOLYLINE
  5
64
330
12
100
AcDbEntity
  8
4WAYDRIVER1_DRD
  6
BYLAYER
370
   211
 62
   256
100
AcDbPolyline
 90
     2
 70
     0
 43
0.01
 10
2.3325
 20
-0.6085
 10
2.2826
 20
-0.6085
  0
LWPOLYLINE
  5
65
330
12
100
AcDbEntity
  8
4WAYDRIVER1_DRD
  6
BYLAYER
370
   211
 62
   256
100
AcDbPolyline
 90
     6
 70
     0
 43
0.01
 10
2.2459
 20
-0.5085
 10
2.2459
 20
-0.6085
 10
2.2292
 20
-0.5919
 10
2.1959
 20
-0.5252
 10
2.1792
 20
-0.5085
 10
2.1792
 20
-0.6085
  0
LWPOLYLINE
  5
66
330
12
100
AcDbEntity
  8
4WAYDRIVER1_DRD
  6
BYLAYER
370
   211
 62
   256
100
AcDbPolyline
 90
     2
 70
     0
 43
0.01
 10
1.5955
 20
-0.6085
 10
1.5955
 20
-0.5585
  0
LWPOLYLINE
  5
67
330
12
100
AcDbEntity
  8
4WAYDRIVER1_DRD
  6
BYLAYER
370
   211
 62
   256
100
AcDbPolyline
 90
     3
 70
     0
 43
0.01
 10
1.6288
 20
-0.5085
 10
1.6038
 20
-0.5585
 10
1.5872
 20
-0.5585
  0
LWPOLYLINE
  5
68
330
12
100
AcDbEntity
  8
4WAYDRIVER1_DRD
  6
BYLAYER
370
   211
 62
   256
100
AcDbPolyline
 90
     2
 70
     0
 43
0.01
 10
1.5871
 20
-0.5585
 10
1.5622
 20
-0.5085
  0
LWPOLYLINE
  5
69
330
12
100
AcDbEntity
  8
4WAYDRIVER1_DRD
  6
BYLAYER
370
   211
 62
   256
100
AcDbPolyline
 90
     2
 70
     0
 43
0.01
 10
1.5005
 20
-0.6085
 10
1.5005
 20
-0.5085
  0
LWPOLYLINE
  5
6A
330
12
100
AcDbEntity
  8
4WAYDRIVER1_DRD
  6
BYLAYER
370
   211
 62
   256
100
AcDbPolyline
 90
     2
 70
     0
 43
0.01
 10
1.5338
 20
-0.5085
 10
1.4672
 20
-0.5085
  0
LWPOLYLINE
  5
6B
330
12
100
AcDbEntity
  8
4WAYDRIVER1_DRD
  6
BYLAYER
370
   211
 62
   256
100
AcDbPolyline
 90
     2
 70
     0
 43
0.01
 10
1.4055
 20
-0.5752
 10
1.4388
 20
-0.6085
  0
LWPOLYLINE
  5
6C
330
12
100
AcDbEntity
  8
4WAYDRIVER1_DRD
  6
BYLAYER
370
   211
 62
   256
100
AcDbPolyline
 90
     9
 70
     0
 43
0.01
 10
1.3721
 20
-0.5919
 10
1.3805
 20
-0.6085
 10
1.4138
 20
-0.6085
 10
1.4221
 20
-0.5919
 10
1.4388
 20
-0.5752
 10
1.4388
 20
-0.5252
 10
1.4305
 20
-0.5085
 10
1.3805
 20
-0.5085
 10
1.3722
 20
-0.5252
  0
LWPOLYLINE
  5
6D
330
12
100
AcDbEntity
  8
4WAYDRIVER1_DRD
  6
BYLAYER
370
   211
 62
   256
100
AcDbPolyline
 90
     2
 70
     0
 43
0.01
 10
1.3721
 20
-0.5252
 10
1.3722
 20
-0.5919
  0
LWPOLYLINE
  5
6E
330
12
100
AcDbEntity
  8
4WAYDRIVER1_DRD
  6
BYLAYER
370
   211
 62
   256
100
AcDbPolyline
 90
     3
 70
     0
 43
0.01
 10
0.9438
 20
-0.6085
 10
0.8855
 20
-0.6085
 10
0.8855
 20
-0.5085
  0
LWPOLYLINE
  5
6F
330
12
100
AcDbEntity
  8
4WAYDRIVER1_DRD
  6
BYLAYER
370
   211
 62
   256
100
AcDbPolyline
 90
     9
 70
     0
 43
0.01
 10
0.7988
 20
-0.6085
 10
0.7905
 20
-0.5919
 10
0.7905
 20
-0.5252
 10
0.7988
 20
-0.5085
 10
0.8488
 20
-0.5085
 10
0.8572
 20
-0.5252
 10
0.8572
 20
-0.5919
 10
0.8488
 20
-0.6085
 10
0.7988
 20
-0.6085
  0
LWPOLYLINE
  5
70
330
12
100
AcDbEntity
  8
4WAYDRIVER1_DRD
  6
BYLAYER
370
   211
 62
   256
100
AcDbPolyline
 90
     2
 70
     0
 43
0.01
 10
0.7288
 20
-0.6085
 10
0.7288
 20
-0.5085
  0
LWPOLYLINE
  5
71
330
12
100
AcDbEntity
  8
4WAYDRIVER1_DRD
  6
BYLAYER
370
   211
 62
   256
100
AcDbPolyline
 90
     2
 70
     0
 43
0.01
 10
0.7622
 20
-0.5085
 10
0.6955
 20
-0.5085
  0
LWPOLYLINE
  5
72
330
12
100
AcDbEntity
  8
4WAYDRIVER1_DRD
  6
BYLAYER
370
   211
 62
   256
100
AcDbPolyline
 90
     7
 70
     0
 43
0.01
 10
0.1617
 20
-0.6085
 10
0.1617
 20
-0.5085
 10
0.1451
 20
-0.5252
 10
0.1284
 20
-0.5585
 10
0.1117
 20
-0.5252
 10
0.0951
 20
-0.5085
 10
0.0951
 20
-0.6085
  0
LWPOLYLINE
  5
73
330
12
100
AcDbEntity
  8
4WAYDRIVER1_DRD
  6
BYLAYER
370
   211
 62
   256
100
AcDbPolyline
 90
     2
 70
     0
 43
0.01
 10
0.0667
 20
-0.5752
 10
9.99999999999E-005
 20
-0.5752
  0
LWPOLYLINE
  5
74
330
12
100
AcDbEntity
  8
4WAYDRIVER1_DRD
  6
BYLAYER
370
   211
 62
   256
100
AcDbPolyline
 90
     6
 70
     0
 43
0.01
 10
0.0667
 20
-0.6085
 10
0.0667
 20
-0.5585
 10
0.0417
 20
-0.5085
 10
0.0251
 20
-0.5085
 10
9.99999999999E-005
 20
-0.5585
 10
9.99999999999E-005
 20
-0.6085
  0
LWPOLYLINE
  5
75
330
12
100
AcDbEntity
  8
4WAYDRIVER1_DRD
  6
BYLAYER
370
   211
 62
   256
100
AcDbPolyline
 90
     2
 70
     0
 43
0.01
 10
-0.0283
 20
-0.6085
 10
-0.0616
 20
-0.6085
  0
LWPOLYLINE
  5
76
330
12
100
AcDbEntity
  8
4WAYDRIVER1_DRD
  6
BYLAYER
370
   211
 62
   256
100
AcDbPolyline
 90
     2
 70
     0
 43
0.01
 10
-0.0449
 20
-0.6085
 10
-0.0449
 20
-0.5085
  0
LWPOLYLINE
  5
77
330
12
100
AcDbEntity
  8
4WAYDRIVER1_DRD
  6
BYLAYER
370
   211
 62
   256
100
AcDbPolyline
 90
     2
 70
     0
 43
0.01
 10
-0.0283
 20
-0.5085
 10
-0.0616
 20
-0.5085
  0
LWPOLYLINE
  5
78
330
12
100
AcDbEntity
  8
4WAYDRIVER1_DRD
  6
BYLAYER
370
   211
 62
   256
100
AcDbPolyline
 90
     2
 70
     0
 43
0.01
 10
-0.1649
 20
-0.6085
 10
-0.1649
 20
-0.5085
  0
LWPOLYLINE
  5
79
330
12
100
AcDbEntity
  8
4WAYDRIVER1_DRD
  6
BYLAYER
370
   211
 62
   256
100
AcDbPolyline
 90
     6
 70
     0
 43
0.01
 10
-0.1733
 20
-0.6085
 10
-0.1233
 20
-0.6085
 10
-0.1066
 20
-0.5752
 10
-0.1066
 20
-0.5419
 10
-0.1233
 20
-0.5085
 10
-0.1732
 20
-0.5085
  0
LWPOLYLINE
  5
7A
330
12
100
AcDbEntity
  8
4WAYDRIVER1_DRD
  6
BYLAYER
370
   211
 62
   256
100
AcDbPolyline
 90
     7
 70
     0
 43
0.01
 10
-0.482
 20
-0.6085
 10
-0.482
 20
-0.5085
 10
-0.4987
 20
-0.5252
 10
-0.5153
 20
-0.5585
 10
-0.532
 20
-0.5252
 10
-0.5487
 20
-0.5085
 10
-0.5487
 20
-0.6085
  0
LWPOLYLINE
  5
7B
330
12
100
AcDbEntity
  8
4WAYDRIVER1_DRD
  6
BYLAYER
370
   211
 62
   256
100
AcDbPolyline
 90
     2
 70
     0
 43
0.01
 10
-0.6103
 20
-0.6085
 10
-0.6103
 20
-0.5585
  0
LWPOLYLINE
  5
7C
330
12
100
AcDbEntity
  8
4WAYDRIVER1_DRD
  6
BYLAYER
370
   211
 62
   256
100
AcDbPolyline
 90
     4
 70
     0
 43
0.01
 10
-0.577
 20
-0.5085
 10
-0.602
 20
-0.5585
 10
-0.6187
 20
-0.5585
 10
-0.6437
 20
-0.5085
  0
LWPOLYLINE
  5
7D
330
12
100
AcDbEntity
  8
4WAYDRIVER1_DRD
  6
BYLAYER
370
   211
 62
   256
100
AcDbPolyline
 90
    12
 70
     0
 43
0.01
 10
-0.672
 20
-0.5252
 10
-0.6803
 20
-0.5085
 10
-0.7303
 20
-0.5085
 10
-0.7387
 20
-0.5252
 10
-0.7387
 20
-0.5419
 10
-0.7303
 20
-0.5585
 10
-0.6803
 20
-0.5585
 10
-0.672
 20
-0.5752
 10
-0.672
 20
-0.5919
 10
-0.6803
 20
-0.6085
 10
-0.7303
 20
-0.6085
 10
-0.7387
 20
-0.5919
  0
LWPOLYLINE
  5
7E
330
12
100
AcDbEntity
  8
4WAYDRIVER1_DRD
  6
BYLAYER
370
   211
 62
   256
100
AcDbPolyline
 90
     2
 70
     0
 43
0.01
 10
1.5467
 20
-0.4085
 10
1.5467
 20
-0.3085
  0
LWPOLYLINE
  5
7F
330
12
100
AcDbEntity
  8
4WAYDRIVER1_DRD
  6
BYLAYER
370
   211
 62
   256
100
AcDbPolyline
 90
     2
 70
     0
 43
0.01
 10
1.58
 20
-0.3085
 10
1.5134
 20
-0.3085
  0
LWPOLYLINE
  5
80
330
12
100
AcDbEntity
  8
4WAYDRIVER1_DRD
  6
BYLAYER
370
   211
 62
   256
100
AcDbPolyline
 90
     2
 70
     0
 43
0.01
 10
1.46
 20
-0.3585
 10
1.485
 20
-0.4085
  0
LWPOLYLINE
  5
81
330
12
100
AcDbEntity
  8
4WAYDRIVER1_DRD
  6
BYLAYER
370
   211
 62
   256
100
AcDbPolyline
 90
     7
 70
     0
 43
0.01
 10
1.4184
 20
-0.3585
 10
1.4684
 20
-0.3585
 10
1.485
 20
-0.3419
 10
1.485
 20
-0.3252
 10
1.4684
 20
-0.3085
 10
1.4184
 20
-0.3085
 10
1.4184
 20
-0.4085
  0
LWPOLYLINE
  5
82
330
12
100
AcDbEntity
  8
4WAYDRIVER1_DRD
  6
BYLAYER
370
   211
 62
   256
100
AcDbPolyline
 90
     2
 70
     0
 43
0.01
 10
1.39
 20
-0.3752
 10
1.3234
 20
-0.3752
  0
LWPOLYLINE
  5
83
330
12
100
AcDbEntity
  8
4WAYDRIVER1_DRD
  6
BYLAYER
370
   211
 62
   256
100
AcDbPolyline
 90
     6
 70
     0
 43
0.01
 10
1.39
 20
-0.4085
 10
1.39
 20
-0.3585
 10
1.365
 20
-0.3085
 10
1.3484
 20
-0.3085
 10
1.3234
 20
-0.3585
 10
1.3234
 20
-0.4085
  0
LWPOLYLINE
  5
84
330
12
100
AcDbEntity
  8
4WAYDRIVER1_DRD
  6
BYLAYER
370
   211
 62
   256
100
AcDbPolyline
 90
     2
 70
     0
 43
0.01
 10
1.295
 20
-0.3585
 10
1.2284
 20
-0.3585
  0
LWPOLYLINE
  5
85
330
12
100
AcDbEntity
  8
4WAYDRIVER1_DRD
  6
BYLAYER
370
   211
 62
   256
100
AcDbPolyline
 90
     2
 70
     0
 43
0.01
 10
1.295
 20
-0.4085
 10
1.295
 20
-0.3085
  0
LWPOLYLINE
  5
86
330
12
100
AcDbEntity
  8
4WAYDRIVER1_DRD
  6
BYLAYER
370
   211
 62
   256
100
AcDbPolyline
 90
     2
 70
     0
 43
0.01
 10
1.2284
 20
-0.4085
 10
1.2284
 20
-0.3085
  0
LWPOLYLINE
  5
87
330
12
100
AcDbEntity
  8
4WAYDRIVER1_DRD
  6
BYLAYER
370
   211
 62
   256
100
AcDbPolyline
 90
     8
 70
     0
 43
0.01
 10
1.2001
 20
-0.3919
 10
1.1917
 20
-0.4085
 10
1.1417
 20
-0.4085
 10
1.1334
 20
-0.3919
 10
1.1334
 20
-0.3252
 10
1.1417
 20
-0.3085
 10
1.1917
 20
-0.3085
 10
1.2001
 20
-0.3252
  0
LWPOLYLINE
  5
88
330
12
100
AcDbEntity
  8
4WAYDRIVER1_DRD
  6
BYLAYER
370
   211
 62
   256
100
AcDbPolyline
 90
     3
 70
     0
 43
0.01
 10
0.9726
 20
-0.4085
 10
0.9142
 20
-0.4085
 10
0.9142
 20
-0.3085
  0
LWPOLYLINE
  5
89
330
12
100
AcDbEntity
  8
4WAYDRIVER1_DRD
  6
BYLAYER
370
   211
 62
   256
100
AcDbPolyline
 90
     3
 70
     0
 43
0.01
 10
0.8859
 20
-0.4085
 10
0.8276
 20
-0.4085
 10
0.8276
 20
-0.3085
  0
LWPOLYLINE
  5
8A
330
12
100
AcDbEntity
  8
4WAYDRIVER1_DRD
  6
BYLAYER
370
   211
 62
   256
100
AcDbPolyline
 90
     2
 70
     0
 43
0.01
 10
0.7993
 20
-0.4085
 10
0.7659
 20
-0.4085
  0
LWPOLYLINE
  5
8B
330
12
100
AcDbEntity
  8
4WAYDRIVER1_DRD
  6
BYLAYER
370
   211
 62
   256
100
AcDbPolyline
 90
     2
 70
     0
 43
0.01
 10
0.7826
 20
-0.4085
 10
0.7826
 20
-0.3085
  0
LWPOLYLINE
  5
8C
330
12
100
AcDbEntity
  8
4WAYDRIVER1_DRD
  6
BYLAYER
370
   211
 62
   256
100
AcDbPolyline
 90
     2
 70
     0
 43
0.01
 10
0.7993
 20
-0.3085
 10
0.7659
 20
-0.3085
  0
LWPOLYLINE
  5
8D
330
12
100
AcDbEntity
  8
4WAYDRIVER1_DRD
  6
BYLAYER
370
   211
 62
   256
100
AcDbPolyline
 90
     2
 70
     0
 43
0.01
 10
0.6959
 20
-0.3585
 10
0.7209
 20
-0.4085
  0
LWPOLYLINE
  5
8E
330
12
100
AcDbEntity
  8
4WAYDRIVER1_DRD
  6
BYLAYER
370
   211
 62
   256
100
AcDbPolyline
 90
     7
 70
     0
 43
0.01
 10
0.6543
 20
-0.3585
 10
0.7043
 20
-0.3585
 10
0.7209
 20
-0.3419
 10
0.7209
 20
-0.3252
 10
0.7043
 20
-0.3085
 10
0.6543
 20
-0.3085
 10
0.6543
 20
-0.4085
  0
LWPOLYLINE
  5
8F
330
12
100
AcDbEntity
  8
4WAYDRIVER1_DRD
  6
BYLAYER
370
   211
 62
   256
100
AcDbPolyline
 90
     2
 70
     0
 43
0.01
 10
0.5676
 20
-0.4085
 10
0.5676
 20
-0.3085
  0
LWPOLYLINE
  5
90
330
12
100
AcDbEntity
  8
4WAYDRIVER1_DRD
  6
BYLAYER
370
   211
 62
   256
100
AcDbPolyline
 90
     6
 70
     0
 43
0.01
 10
0.5593
 20
-0.4085
 10
0.6093
 20
-0.4085
 10
0.6259
 20
-0.3752
 10
0.6259
 20
-0.3419
 10
0.6093
 20
-0.3085
 10
0.5593
 20
-0.3085
  0
LWPOLYLINE
  5
91
330
12
100
AcDbEntity
  8
4WAYDRIVER1_DRD
  6
BYLAYER
370
   211
 62
   256
100
AcDbPolyline
 90
     8
 70
     0
 43
0.01
 10
4.2407
 20
-0.5866
 10
4.2157
 20
-0.5866
 10
4.2115
 20
-0.595
 10
4.2157
 20
-0.6033
 10
4.2407
 20
-0.6033
 10
4.2449
 20
-0.6116
 10
4.2407
 20
-0.62
 10
4.2157
 20
-0.62
  0
LWPOLYLINE
  5
92
330
12
100
AcDbEntity
  8
4WAYDRIVER1_DRD
  6
BYLAYER
370
   211
 62
   256
100
AcDbPolyline
 90
     2
 70
     0
 43
0.01
 10
4.1832
 20
-0.5866
 10
4.1582
 20
-0.5866
  0
LWPOLYLINE
  5
93
330
12
100
AcDbEntity
  8
4WAYDRIVER1_DRD
  6
BYLAYER
370
   211
 62
   256
100
AcDbPolyline
 90
     4
 70
     0
 43
0.01
 10
4.1874
 20
-0.62
 10
4.1707
 20
-0.62
 10
4.1665
 20
-0.6116
 10
4.1665
 20
-0.57
  0
LWPOLYLINE
  5
94
330
12
100
AcDbEntity
  8
4WAYDRIVER1_DRD
  6
BYLAYER
370
   211
 62
   256
100
AcDbPolyline
 90
     9
 70
     0
 43
0.01
 10
4.1049
 20
-0.62
 10
4.1007
 20
-0.6116
 10
4.1007
 20
-0.595
 10
4.1049
 20
-0.5866
 10
4.1299
 20
-0.5866
 10
4.134
 20
-0.595
 10
4.134
 20
-0.6116
 10
4.1299
 20
-0.62
 10
4.1049
 20
-0.62
  0
LWPOLYLINE
  5
95
330
12
100
AcDbEntity
  8
4WAYDRIVER1_DRD
  6
BYLAYER
370
   211
 62
   256
100
AcDbPolyline
 90
     2
 70
     0
 43
0.01
 10
4.0765
 20
-0.62
 10
4.0599
 20
-0.62
  0
LWPOLYLINE
  5
96
330
12
100
AcDbEntity
  8
4WAYDRIVER1_DRD
  6
BYLAYER
370
   211
 62
   256
100
AcDbPolyline
 90
     3
 70
     0
 43
0.01
 10
4.0682
 20
-0.62
 10
4.0682
 20
-0.57
 10
4.0599
 20
-0.57
  0
LWPOLYLINE
  5
97
330
12
100
AcDbEntity
  8
4WAYDRIVER1_DRD
  6
BYLAYER
370
   211
 62
   256
100
AcDbPolyline
 90
     8
 70
     0
 43
0.01
 10
4.0274
 20
-0.5866
 10
4.0024
 20
-0.5866
 10
3.9982
 20
-0.595
 10
4.0024
 20
-0.6033
 10
4.0274
 20
-0.6033
 10
4.0315
 20
-0.6116
 10
4.0274
 20
-0.62
 10
4.0024
 20
-0.62
  0
LWPOLYLINE
  5
98
330
12
100
AcDbEntity
  8
4WAYDRIVER1_DRD
  6
BYLAYER
370
   211
 62
   256
100
AcDbPolyline
 90
     5
 70
     0
 43
0.01
 10
3.8978
 20
-0.62
 10
3.8978
 20
-0.595
 10
3.8936
 20
-0.5866
 10
3.8686
 20
-0.5866
 10
3.8686
 20
-0.62
  0
LWPOLYLINE
  5
99
330
12
100
AcDbEntity
  8
4WAYDRIVER1_DRD
  6
BYLAYER
370
   211
 62
   256
100
AcDbPolyline
 90
     5
 70
     0
 43
0.01
 10
3.8361
 20
-0.57
 10
3.8361
 20
-0.5699
 10
3.8362
 20
-0.5699
 10
3.8362
 20
-0.57
 10
3.8361
 20
-0.57
  0
LWPOLYLINE
  5
9A
330
12
100
AcDbEntity
  8
4WAYDRIVER1_DRD
  6
BYLAYER
370
   211
 62
   256
100
AcDbPolyline
 90
     2
 70
     0
 43
0.01
 10
3.8445
 20
-0.62
 10
3.8278
 20
-0.62
  0
LWPOLYLINE
  5
9B
330
12
100
AcDbEntity
  8
4WAYDRIVER1_DRD
  6
BYLAYER
370
   211
 62
   256
100
AcDbPolyline
 90
     3
 70
     0
 43
0.01
 10
3.8361
 20
-0.62
 10
3.8361
 20
-0.5866
 10
3.8278
 20
-0.5866
  0
LWPOLYLINE
  5
9C
330
12
100
AcDbEntity
  8
4WAYDRIVER1_DRD
  6
BYLAYER
370
   211
 62
   256
100
AcDbPolyline
 90
     8
 70
     0
 43
0.01
 10
3.719
 20
-0.5866
 10
3.694
 20
-0.5866
 10
3.6899
 20
-0.595
 10
3.694
 20
-0.6033
 10
3.719
 20
-0.6033
 10
3.7232
 20
-0.6116
 10
3.719
 20
-0.62
 10
3.694
 20
-0.62
  0
LWPOLYLINE
  5
9D
330
12
100
AcDbEntity
  8
4WAYDRIVER1_DRD
  6
BYLAYER
370
   211
 62
   256
100
AcDbPolyline
 90
     9
 70
     0
 43
0.01
 10
3.6615
 20
-0.62
 10
3.6365
 20
-0.62
 10
3.6324
 20
-0.6116
 10
3.6324
 20
-0.595
 10
3.6365
 20
-0.5866
 10
3.6615
 20
-0.5866
 10
3.6657
 20
-0.595
 10
3.6657
 20
-0.6033
 10
3.6324
 20
-0.6033
  0
LWPOLYLINE
  5
9E
330
12
100
AcDbEntity
  8
4WAYDRIVER1_DRD
  6
BYLAYER
370
   211
 62
   256
100
AcDbPolyline
 90
     2
 70
     0
 43
0.01
 10
3.6082
 20
-0.62
 10
3.5915
 20
-0.62
  0
LWPOLYLINE
  5
9F
330
12
100
AcDbEntity
  8
4WAYDRIVER1_DRD
  6
BYLAYER
370
   211
 62
   256
100
AcDbPolyline
 90
     3
 70
     0
 43
0.01
 10
3.5999
 20
-0.62
 10
3.5999
 20
-0.57
 10
3.5915
 20
-0.57
  0
LWPOLYLINE
  5
A0
330
12
100
AcDbEntity
  8
4WAYDRIVER1_DRD
  6
BYLAYER
370
   211
 62
   256
100
AcDbPolyline
 90
     9
 70
     0
 43
0.01
 10
3.534
 20
-0.62
 10
3.5299
 20
-0.6116
 10
3.5299
 20
-0.595
 10
3.534
 20
-0.5866
 10
3.559
 20
-0.5866
 10
3.5632
 20
-0.595
 10
3.5632
 20
-0.6116
 10
3.559
 20
-0.62
 10
3.534
 20
-0.62
  0
LWPOLYLINE
  5
A1
330
12
100
AcDbEntity
  8
4WAYDRIVER1_DRD
  6
BYLAYER
370
   211
 62
   256
100
AcDbPolyline
 90
     4
 70
     0
 43
0.01
 10
3.5057
 20
-0.62
 10
3.5057
 20
-0.595
 10
3.5015
 20
-0.5866
 10
3.4765
 20
-0.5866
  0
LWPOLYLINE
  5
A2
330
12
100
AcDbEntity
  8
4WAYDRIVER1_DRD
  6
BYLAYER
370
   211
 62
   256
100
AcDbPolyline
 90
     2
 70
     0
 43
0.01
 10
3.4765
 20
-0.62
 10
3.4765
 20
-0.57
  0
LWPOLYLINE
  5
A3
330
12
100
AcDbEntity
  8
4WAYDRIVER1_DRD
  6
BYLAYER
370
   211
 62
   256
100
AcDbPolyline
 90
     2
 70
     0
 43
0.01
 10
3.3719
 20
-0.62
 10
3.347
 20
-0.62
  0
LWPOLYLINE
  5
A4
330
12
100
AcDbEntity
  8
4WAYDRIVER1_DRD
  6
BYLAYER
370
   211
 62
   256
100
AcDbPolyline
 90
     4
 70
     0
 43
0.01
 10
3.3469
 20
-0.62
 10
3.3428
 20
-0.6116
 10
3.3428
 20
-0.595
 10
3.347
 20
-0.5866
  0
LWPOLYLINE
  5
A5
330
12
100
AcDbEntity
  8
4WAYDRIVER1_DRD
  6
BYLAYER
370
   211
 62
   256
100
AcDbPolyline
 90
     2
 70
     0
 43
0.01
 10
3.3469
 20
-0.5866
 10
3.372
 20
-0.5866
  0
LWPOLYLINE
  5
A6
330
12
100
AcDbEntity
  8
4WAYDRIVER1_DRD
  6
BYLAYER
370
   211
 62
   256
100
AcDbPolyline
 90
     4
 70
     0
 43
0.01
 10
3.3719
 20
-0.5866
 10
3.3761
 20
-0.595
 10
3.3761
 20
-0.6033
 10
3.3428
 20
-0.6033
  0
LWPOLYLINE
  5
A7
330
12
100
AcDbEntity
  8
4WAYDRIVER1_DRD
  6
BYLAYER
370
   211
 62
   256
100
AcDbPolyline
 90
     4
 70
     0
 43
0.01
 10
3.3186
 20
-0.5866
 10
3.302
 20
-0.5866
 10
3.2978
 20
-0.595
 10
3.2895
 20
-0.595
  0
LWPOLYLINE
  5
A8
330
12
100
AcDbEntity
  8
4WAYDRIVER1_DRD
  6
BYLAYER
370
   211
 62
   256
100
AcDbPolyline
 90
     2
 70
     0
 43
0.01
 10
3.2895
 20
-0.5866
 10
3.2895
 20
-0.62
  0
LWPOLYLINE
  5
A9
330
12
100
AcDbEntity
  8
4WAYDRIVER1_DRD
  6
BYLAYER
370
   211
 62
   256
100
AcDbPolyline
 90
     9
 70
     0
 43
0.01
 10
3.2361
 20
-0.62
 10
3.232
 20
-0.6116
 10
3.232
 20
-0.595
 10
3.2361
 20
-0.5866
 10
3.2611
 20
-0.5866
 10
3.2653
 20
-0.595
 10
3.2653
 20
-0.6116
 10
3.2611
 20
-0.62
 10
3.2361
 20
-0.62
  0
LWPOLYLINE
  5
AA
330
12
100
AcDbEntity
  8
4WAYDRIVER1_DRD
  6
BYLAYER
370
   211
 62
   256
100
AcDbPolyline
 90
     5
 70
     0
 43
0.01
 10
3.2078
 20
-0.62
 10
3.2078
 20
-0.595
 10
3.2036
 20
-0.5866
 10
3.1786
 20
-0.5866
 10
3.1786
 20
-0.62
  0
LWPOLYLINE
  5
AB
330
12
100
AcDbEntity
  8
4WAYDRIVER1_DRD
  6
BYLAYER
370
   211
 62
   256
100
AcDbPolyline
 90
     9
 70
     0
 43
0.01
 10
3.1336
 20
-0.6366
 10
3.1503
 20
-0.6366
 10
3.1545
 20
-0.6283
 10
3.1545
 20
-0.5866
 10
3.1295
 20
-0.5866
 10
3.1253
 20
-0.595
 10
3.1253
 20
-0.6116
 10
3.1295
 20
-0.62
 10
3.1545
 20
-0.62
  0
LWPOLYLINE
  5
AC
330
12
100
AcDbEntity
  8
4WAYDRIVER1_DRD
  6
BYLAYER
370
   211
 62
   256
100
AcDbPolyline
 90
     2
 70
     0
 43
0.01
 10
3.1011
 20
-0.62
 10
3.0845
 20
-0.62
  0
LWPOLYLINE
  5
AD
330
12
100
AcDbEntity
  8
4WAYDRIVER1_DRD
  6
BYLAYER
370
   211
 62
   256
100
AcDbPolyline
 90
     2
 70
     0
 43
0.01
 10
3.0928
 20
-0.62
 10
3.0928
 20
-0.57
  0
LWPOLYLINE
  5
AE
330
12
100
AcDbEntity
  8
4WAYDRIVER1_DRD
  6
BYLAYER
370
   211
 62
   256
100
AcDbPolyline
 90
     2
 70
     0
 43
0.01
 10
3.1011
 20
-0.57
 10
3.0845
 20
-0.57
  0
LWPOLYLINE
  5
AF
330
12
100
AcDbEntity
  8
4WAYDRIVER1_DRD
  6
BYLAYER
370
   211
 62
   256
100
AcDbPolyline
 90
     5
 70
     0
 43
0.01
 10
3.3738
 20
-0.489
 10
3.3738
 20
-0.4806
 10
3.3821
 20
-0.4806
 10
3.3821
 20
-0.489
 10
3.3738
 20
-0.489
  0
LWPOLYLINE
  5
B0
330
12
100
AcDbEntity
  8
4WAYDRIVER1_DRD
  6
BYLAYER
370
   211
 62
   256
100
AcDbPolyline
 90
     5
 70
     0
 43
0.01
 10
3.3738
 20
-0.514
 10
3.3738
 20
-0.5056
 10
3.3821
 20
-0.5056
 10
3.3821
 20
-0.514
 10
3.3738
 20
-0.514
  0
LWPOLYLINE
  5
B1
330
12
100
AcDbEntity
  8
4WAYDRIVER1_DRD
  6
BYLAYER
370
   211
 62
   256
100
AcDbPolyline
 90
     8
 70
     0
 43
0.01
 10
3.3371
 20
-0.4806
 10
3.3121
 20
-0.4806
 10
3.308
 20
-0.489
 10
3.3121
 20
-0.4973
 10
3.3371
 20
-0.4973
 10
3.3413
 20
-0.5056
 10
3.3371
 20
-0.514
 10
3.3121
 20
-0.514
  0
LWPOLYLINE
  5
B2
330
12
100
AcDbEntity
  8
4WAYDRIVER1_DRD
  6
BYLAYER
370
   211
 62
   256
100
AcDbPolyline
 90
     9
 70
     0
 43
0.01
 10
3.2796
 20
-0.514
 10
3.2546
 20
-0.514
 10
3.2505
 20
-0.5056
 10
3.2505
 20
-0.489
 10
3.2546
 20
-0.4806
 10
3.2796
 20
-0.4806
 10
3.2838
 20
-0.489
 10
3.2838
 20
-0.4973
 10
3.2505
 20
-0.4973
  0
LWPOLYLINE
  5
B3
330
12
100
AcDbEntity
  8
4WAYDRIVER1_DRD
  6
BYLAYER
370
   211
 62
   256
100
AcDbPolyline
 90
     2
 70
     0
 43
0.01
 10
3.2221
 20
-0.4806
 10
3.1972
 20
-0.4806
  0
LWPOLYLINE
  5
B4
330
12
100
AcDbEntity
  8
4WAYDRIVER1_DRD
  6
BYLAYER
370
   211
 62
   256
100
AcDbPolyline
 90
     2
 70
     0
 43
0.01
 10
3.2263
 20
-0.514
 10
3.2097
 20
-0.514
  0
LWPOLYLINE
  5
B5
330
12
100
AcDbEntity
  8
4WAYDRIVER1_DRD
  6
BYLAYER
370
   211
 62
   256
100
AcDbPolyline
 90
     3
 70
     0
 43
0.01
 10
3.2096
 20
-0.514
 10
3.2055
 20
-0.5056
 10
3.2055
 20
-0.464
  0
LWPOLYLINE
  5
B6
330
12
100
AcDbEntity
  8
4WAYDRIVER1_DRD
  6
BYLAYER
370
   211
 62
   256
100
AcDbPolyline
 90
     2
 70
     0
 43
0.01
 10
3.1438
 20
-0.514
 10
3.1397
 20
-0.5056
  0
LWPOLYLINE
  5
B7
330
12
100
AcDbEntity
  8
4WAYDRIVER1_DRD
  6
BYLAYER
370
   211
 62
   256
100
AcDbPolyline
 90
     2
 70
     0
 43
0.01
 10
3.1396
 20
-0.5056
 10
3.1397
 20
-0.489
  0
LWPOLYLINE
  5
B8
330
12
100
AcDbEntity
  8
4WAYDRIVER1_DRD
  6
BYLAYER
370
   211
 62
   256
100
AcDbPolyline
 90
     7
 70
     0
 43
0.01
 10
3.1396
 20
-0.489
 10
3.1438
 20
-0.4806
 10
3.1688
 20
-0.4806
 10
3.173
 20
-0.489
 10
3.173
 20
-0.5056
 10
3.1688
 20
-0.514
 10
3.1438
 20
-0.514
  0
LWPOLYLINE
  5
B9
330
12
100
AcDbEntity
  8
4WAYDRIVER1_DRD
  6
BYLAYER
370
   211
 62
   256
100
AcDbPolyline
 90
     5
 70
     0
 43
0.01
 10
3.1155
 20
-0.464
 10
3.1155
 20
-0.514
 10
3.1071
 20
-0.5056
 10
3.0905
 20
-0.4723
 10
3.0822
 20
-0.464
  0
LWPOLYLINE
  5
BA
330
12
100
AcDbEntity
  8
4WAYDRIVER1_DRD
  6
BYLAYER
370
   211
 62
   256
100
AcDbPolyline
 90
     2
 70
     0
 43
0.01
 10
3.0821
 20
-0.464
 10
3.0822
 20
-0.514
  0
LWPOLYLINE
  5
BB
330
12
100
AcDbEntity
  8
4WAYDRIVER1_DRD
  6
BYLAYER
370
   211
 62
   256
100
AcDbPolyline
 90
     5
 70
     0
 43
0.01
 10
4.7952
 20
-1.027
 10
4.8035
 20
-1.027
 10
4.8035
 20
-1.0186
 10
4.7952
 20
-1.0186
 10
4.7952
 20
-1.027
  0
LWPOLYLINE
  5
BC
330
12
100
AcDbEntity
  8
4WAYDRIVER1_DRD
  6
BYLAYER
370
   211
 62
   256
100
AcDbPolyline
 90
     2
 70
     0
 43
0.01
 10
4.7627
 20
-0.9936
 10
4.746
 20
-1.027
  0
LWPOLYLINE
  5
BD
330
12
100
AcDbEntity
  8
4WAYDRIVER1_DRD
  6
BYLAYER
370
   211
 62
   256
100
AcDbPolyline
 90
     3
 70
     0
 43
0.01
 10
4.7377
 20
-1.0436
 10
4.746
 20
-1.027
 10
4.7294
 20
-0.9936
  0
LWPOLYLINE
  5
BE
330
12
100
AcDbEntity
  8
4WAYDRIVER1_DRD
  6
BYLAYER
370
   211
 62
   256
100
AcDbPolyline
 90
     2
 70
     0
 43
0.01
 10
4.7052
 20
-1.027
 10
4.6885
 20
-1.027
  0
LWPOLYLINE
  5
BF
330
12
100
AcDbEntity
  8
4WAYDRIVER1_DRD
  6
BYLAYER
370
   211
 62
   256
100
AcDbPolyline
 90
     2
 70
     0
 43
0.01
 10
4.6968
 20
-1.027
 10
4.6969
 20
-0.977
  0
LWPOLYLINE
  5
C0
330
12
100
AcDbEntity
  8
4WAYDRIVER1_DRD
  6
BYLAYER
370
   211
 62
   256
100
AcDbPolyline
 90
     2
 70
     0
 43
0.01
 10
4.6968
 20
-0.977
 10
4.6885
 20
-0.977
  0
LWPOLYLINE
  5
C1
330
12
100
AcDbEntity
  8
4WAYDRIVER1_DRD
  6
BYLAYER
370
   211
 62
   256
100
AcDbPolyline
 90
     5
 70
     0
 43
0.01
 10
4.6602
 20
-1.027
 10
4.6602
 20
-1.002
 10
4.656
 20
-0.9936
 10
4.631
 20
-0.9936
 10
4.631
 20
-1.027
  0
LWPOLYLINE
  5
C2
330
12
100
AcDbEntity
  8
4WAYDRIVER1_DRD
  6
BYLAYER
370
   211
 62
   256
100
AcDbPolyline
 90
     9
 70
     0
 43
0.01
 10
4.5777
 20
-1.027
 10
4.5735
 20
-1.0186
 10
4.5735
 20
-1.002
 10
4.5777
 20
-0.9936
 10
4.6027
 20
-0.9936
 10
4.6069
 20
-1.002
 10
4.6069
 20
-1.0186
 10
4.6027
 20
-1.027
 10
4.5777
 20
-1.027
  0
LWPOLYLINE
  5
C3
330
12
100
AcDbEntity
  8
4WAYDRIVER1_DRD
  6
BYLAYER
370
   211
 62
   256
100
AcDbPolyline
 90
     7
 70
     0
 43
0.01
 10
4.4439
 20
-1.0436
 10
4.4439
 20
-0.9936
 10
4.4689
 20
-0.9936
 10
4.4731
 20
-1.002
 10
4.4731
 20
-1.0186
 10
4.4689
 20
-1.027
 10
4.4439
 20
-1.027
  0
LWPOLYLINE
  5
C4
330
12
100
AcDbEntity
  8
4WAYDRIVER1_DRD
  6
BYLAYER
370
   211
 62
   256
100
AcDbPolyline
 90
     9
 70
     0
 43
0.01
 10
4.3906
 20
-1.027
 10
4.3864
 20
-1.0186
 10
4.3864
 20
-1.002
 10
4.3906
 20
-0.9936
 10
4.4156
 20
-0.9936
 10
4.4198
 20
-1.002
 10
4.4198
 20
-1.0186
 10
4.4156
 20
-1.027
 10
4.3906
 20
-1.027
  0
LWPOLYLINE
  5
C5
330
12
100
AcDbEntity
  8
4WAYDRIVER1_DRD
  6
BYLAYER
370
   211
 62
   256
100
AcDbPolyline
 90
     2
 70
     0
 43
0.01
 10
4.3581
 20
-0.9936
 10
4.3331
 20
-0.9936
  0
LWPOLYLINE
  5
C6
330
12
100
AcDbEntity
  8
4WAYDRIVER1_DRD
  6
BYLAYER
370
   211
 62
   256
100
AcDbPolyline
 90
     4
 70
     0
 43
0.01
 10
4.3623
 20
-1.027
 10
4.3456
 20
-1.027
 10
4.3415
 20
-1.0186
 10
4.3415
 20
-0.977
  0
LWPOLYLINE
  5
C7
330
12
100
AcDbEntity
  8
4WAYDRIVER1_DRD
  6
BYLAYER
370
   211
 62
   256
100
AcDbPolyline
 90
     5
 70
     0
 43
0.01
 10
4.2327
 20
-1.027
 10
4.2327
 20
-1.002
 10
4.2285
 20
-0.9936
 10
4.2035
 20
-0.9936
 10
4.2035
 20
-1.027
  0
LWPOLYLINE
  5
C8
330
12
100
AcDbEntity
  8
4WAYDRIVER1_DRD
  6
BYLAYER
370
   211
 62
   256
100
AcDbPolyline
 90
     9
 70
     0
 43
0.01
 10
4.1502
 20
-1.027
 10
4.146
 20
-1.0186
 10
4.146
 20
-1.002
 10
4.1502
 20
-0.9936
 10
4.1752
 20
-0.9936
 10
4.1794
 20
-1.002
 10
4.1794
 20
-1.0186
 10
4.1752
 20
-1.027
 10
4.1502
 20
-1.027
  0
LWPOLYLINE
  5
C9
330
12
100
AcDbEntity
  8
4WAYDRIVER1_DRD
  6
BYLAYER
370
   211
 62
   256
100
AcDbPolyline
 90
     2
 70
     0
 43
0.01
 10
4.0289
 20
-1.0103
 10
4.0206
 20
-1.0103
  0
LWPOLYLINE
  5
CA
330
12
100
AcDbEntity
  8
4WAYDRIVER1_DRD
  6
BYLAYER
370
   211
 62
   256
100
AcDbPolyline
 90
     2
 70
     0
 43
0.01
 10
4.0456
 20
-1.027
 10
4.029
 20
-1.0103
  0
LWPOLYLINE
  5
CB
330
12
100
AcDbEntity
  8
4WAYDRIVER1_DRD
  6
BYLAYER
370
   211
 62
   256
100
AcDbPolyline
 90
     2
 70
     0
 43
0.01
 10
4.0289
 20
-1.0103
 10
4.0456
 20
-0.9936
  0
LWPOLYLINE
  5
CC
330
12
100
AcDbEntity
  8
4WAYDRIVER1_DRD
  6
BYLAYER
370
   211
 62
   256
100
AcDbPolyline
 90
     2
 70
     0
 43
0.01
 10
4.0206
 20
-1.027
 10
4.0206
 20
-0.977
  0
LWPOLYLINE
  5
CD
330
12
100
AcDbEntity
  8
4WAYDRIVER1_DRD
  6
BYLAYER
370
   211
 62
   256
100
AcDbPolyline
 90
     3
 70
     0
 43
0.01
 10
3.9881
 20
-0.9936
 10
3.9631
 20
-0.9936
 10
3.959
 20
-1.002
  0
LWPOLYLINE
  5
CE
330
12
100
AcDbEntity
  8
4WAYDRIVER1_DRD
  6
BYLAYER
370
   211
 62
   256
100
AcDbPolyline
 90
     6
 70
     0
 43
0.01
 10
3.9589
 20
-1.002
 10
3.9631
 20
-1.0103
 10
3.9881
 20
-1.0103
 10
3.9923
 20
-1.0186
 10
3.9881
 20
-1.027
 10
3.9631
 20
-1.027
  0
LWPOLYLINE
  5
CF
330
12
100
AcDbEntity
  8
4WAYDRIVER1_DRD
  6
BYLAYER
370
   211
 62
   256
100
AcDbPolyline
 90
     7
 70
     0
 43
0.01
 10
3.9098
 20
-0.9936
 10
3.9264
 20
-0.9936
 10
3.9306
 20
-1.002
 10
3.9306
 20
-1.0186
 10
3.9348
 20
-1.027
 10
3.9056
 20
-1.027
 10
3.9015
 20
-1.0186
  0
LWPOLYLINE
  5
D0
330
12
100
AcDbEntity
  8
4WAYDRIVER1_DRD
  6
BYLAYER
370
   211
 62
   256
100
AcDbPolyline
 90
     3
 70
     0
 43
0.01
 10
3.9014
 20
-1.0186
 10
3.9056
 20
-1.0103
 10
3.9306
 20
-1.0103
  0
LWPOLYLINE
  5
D1
330
12
100
AcDbEntity
  8
4WAYDRIVER1_DRD
  6
BYLAYER
370
   211
 62
   256
100
AcDbPolyline
 90
     2
 70
     0
 43
0.01
 10
3.8606
 20
-1.027
 10
3.8606
 20
-1.002
  0
LWPOLYLINE
  5
D2
330
12
100
AcDbEntity
  8
4WAYDRIVER1_DRD
  6
BYLAYER
370
   211
 62
   256
100
AcDbPolyline
 90
     6
 70
     0
 43
0.01
 10
3.8773
 20
-1.027
 10
3.8773
 20
-1.002
 10
3.8731
 20
-0.9936
 10
3.8648
 20
-0.9936
 10
3.8606
 20
-1.002
 10
3.8565
 20
-0.9936
  0
LWPOLYLINE
  5
D3
330
12
100
AcDbEntity
  8
4WAYDRIVER1_DRD
  6
BYLAYER
370
   211
 62
   256
100
AcDbPolyline
 90
     3
 70
     0
 43
0.01
 10
3.8564
 20
-0.9936
 10
3.8481
 20
-0.9936
 10
3.844
 20
-1.002
  0
LWPOLYLINE
  5
D4
330
12
100
AcDbEntity
  8
4WAYDRIVER1_DRD
  6
BYLAYER
370
   211
 62
   256
100
AcDbPolyline
 90
     2
 70
     0
 43
0.01
 10
3.8439
 20
-1.002
 10
3.844
 20
-1.027
  0
LWPOLYLINE
  5
D5
330
12
100
AcDbEntity
  8
4WAYDRIVER1_DRD
  6
BYLAYER
370
   211
 62
   256
100
AcDbPolyline
 90
     4
 70
     0
 43
0.01
 10
3.7435
 20
-0.9936
 10
3.7269
 20
-0.9936
 10
3.7227
 20
-1.002
 10
3.7144
 20
-1.002
  0
LWPOLYLINE
  5
D6
330
12
100
AcDbEntity
  8
4WAYDRIVER1_DRD
  6
BYLAYER
370
   211
 62
   256
100
AcDbPolyline
 90
     2
 70
     0
 43
0.01
 10
3.7144
 20
-0.9936
 10
3.7144
 20
-1.027
  0
LWPOLYLINE
  5
D7
330
12
100
AcDbEntity
  8
4WAYDRIVER1_DRD
  6
BYLAYER
370
   211
 62
   256
100
AcDbPolyline
 90
     2
 70
     0
 43
0.01
 10
3.686
 20
-1.027
 10
3.6611
 20
-1.027
  0
LWPOLYLINE
  5
D8
330
12
100
AcDbEntity
  8
4WAYDRIVER1_DRD
  6
BYLAYER
370
   211
 62
   256
100
AcDbPolyline
 90
     4
 70
     0
 43
0.01
 10
3.661
 20
-1.027
 10
3.6569
 20
-1.0186
 10
3.6569
 20
-1.002
 10
3.6611
 20
-0.9936
  0
LWPOLYLINE
  5
D9
330
12
100
AcDbEntity
  8
4WAYDRIVER1_DRD
  6
BYLAYER
370
   211
 62
   256
100
AcDbPolyline
 90
     2
 70
     0
 43
0.01
 10
3.661
 20
-0.9936
 10
3.6861
 20
-0.9936
  0
LWPOLYLINE
  5
DA
330
12
100
AcDbEntity
  8
4WAYDRIVER1_DRD
  6
BYLAYER
370
   211
 62
   256
100
AcDbPolyline
 90
     4
 70
     0
 43
0.01
 10
3.686
 20
-0.9936
 10
3.6902
 20
-1.002
 10
3.6902
 20
-1.0103
 10
3.6569
 20
-1.0103
  0
LWPOLYLINE
  5
DB
330
12
100
AcDbEntity
  8
4WAYDRIVER1_DRD
  6
BYLAYER
370
   211
 62
   256
100
AcDbPolyline
 90
     4
 70
     0
 43
0.01
 10
3.6327
 20
-0.977
 10
3.6327
 20
-1.027
 10
3.6077
 20
-1.027
 10
3.6036
 20
-1.0186
  0
LWPOLYLINE
  5
DC
330
12
100
AcDbEntity
  8
4WAYDRIVER1_DRD
  6
BYLAYER
370
   211
 62
   256
100
AcDbPolyline
 90
     2
 70
     0
 43
0.01
 10
3.6035
 20
-1.0186
 10
3.6036
 20
-1.002
  0
LWPOLYLINE
  5
DD
330
12
100
AcDbEntity
  8
4WAYDRIVER1_DRD
  6
BYLAYER
370
   211
 62
   256
100
AcDbPolyline
 90
     3
 70
     0
 43
0.01
 10
3.6035
 20
-1.002
 10
3.6077
 20
-0.9936
 10
3.6327
 20
-0.9936
  0
LWPOLYLINE
  5
DE
330
12
100
AcDbEntity
  8
4WAYDRIVER1_DRD
  6
BYLAYER
370
   211
 62
   256
100
AcDbPolyline
 90
     2
 70
     0
 43
0.01
 10
3.5794
 20
-1.027
 10
3.5627
 20
-1.027
  0
LWPOLYLINE
  5
DF
330
12
100
AcDbEntity
  8
4WAYDRIVER1_DRD
  6
BYLAYER
370
   211
 62
   256
100
AcDbPolyline
 90
     2
 70
     0
 43
0.01
 10
3.571
 20
-1.027
 10
3.5711
 20
-0.977
  0
LWPOLYLINE
  5
E0
330
12
100
AcDbEntity
  8
4WAYDRIVER1_DRD
  6
BYLAYER
370
   211
 62
   256
100
AcDbPolyline
 90
     2
 70
     0
 43
0.01
 10
3.571
 20
-0.977
 10
3.5627
 20
-0.977
  0
LWPOLYLINE
  5
E1
330
12
100
AcDbEntity
  8
4WAYDRIVER1_DRD
  6
BYLAYER
370
   211
 62
   256
100
AcDbPolyline
 90
     2
 70
     0
 43
0.01
 10
3.5052
 20
-1.027
 10
3.5011
 20
-1.0186
  0
LWPOLYLINE
  5
E2
330
12
100
AcDbEntity
  8
4WAYDRIVER1_DRD
  6
BYLAYER
370
   211
 62
   256
100
AcDbPolyline
 90
     2
 70
     0
 43
0.01
 10
3.501
 20
-1.0186
 10
3.5011
 20
-1.002
  0
LWPOLYLINE
  5
E3
330
12
100
AcDbEntity
  8
4WAYDRIVER1_DRD
  6
BYLAYER
370
   211
 62
   256
100
AcDbPolyline
 90
     7
 70
     0
 43
0.01
 10
3.501
 20
-1.002
 10
3.5052
 20
-0.9936
 10
3.5302
 20
-0.9936
 10
3.5344
 20
-1.002
 10
3.5344
 20
-1.0186
 10
3.5302
 20
-1.027
 10
3.5052
 20
-1.027
  0
LWPOLYLINE
  5
E4
330
12
100
AcDbEntity
  8
4WAYDRIVER1_DRD
  6
BYLAYER
370
   211
 62
   256
100
AcDbPolyline
 90
     4
 70
     0
 43
0.01
 10
3.4769
 20
-0.9853
 10
3.4727
 20
-0.977
 10
3.4477
 20
-0.977
 10
3.4436
 20
-0.9853
  0
LWPOLYLINE
  5
E5
330
12
100
AcDbEntity
  8
4WAYDRIVER1_DRD
  6
BYLAYER
370
   211
 62
   256
100
AcDbPolyline
 90
     2
 70
     0
 43
0.01
 10
3.4435
 20
-0.9853
 10
3.4436
 20
-0.9936
  0
LWPOLYLINE
  5
E6
330
12
100
AcDbEntity
  8
4WAYDRIVER1_DRD
  6
BYLAYER
370
   211
 62
   256
100
AcDbPolyline
 90
     8
 70
     0
 43
0.01
 10
3.4435
 20
-0.9936
 10
3.4477
 20
-1.002
 10
3.4727
 20
-1.002
 10
3.4769
 20
-1.0103
 10
3.4769
 20
-1.0186
 10
3.4727
 20
-1.027
 10
3.4477
 20
-1.027
 10
3.4436
 20
-1.0186
  0
LWPOLYLINE
  5
E7
330
12
100
AcDbEntity
  8
4WAYDRIVER1_DRD
  6
BYLAYER
370
   211
 62
   256
100
AcDbPolyline
 90
     5
 70
     0
 43
0.01
 10
3.3431
 20
-1.027
 10
3.3431
 20
-1.002
 10
3.339
 20
-0.9936
 10
3.314
 20
-0.9936
 10
3.314
 20
-1.027
  0
LWPOLYLINE
  5
E8
330
12
100
AcDbEntity
  8
4WAYDRIVER1_DRD
  6
BYLAYER
370
   211
 62
   256
100
AcDbPolyline
 90
     9
 70
     0
 43
0.01
 10
3.2856
 20
-1.027
 10
3.2606
 20
-1.027
 10
3.2565
 20
-1.0186
 10
3.2565
 20
-1.002
 10
3.2606
 20
-0.9936
 10
3.2856
 20
-0.9936
 10
3.2898
 20
-1.002
 10
3.2898
 20
-1.0103
 10
3.2565
 20
-1.0103
  0
LWPOLYLINE
  5
E9
330
12
100
AcDbEntity
  8
4WAYDRIVER1_DRD
  6
BYLAYER
370
   211
 62
   256
100
AcDbPolyline
 90
     9
 70
     0
 43
0.01
 10
3.2281
 20
-1.027
 10
3.2031
 20
-1.027
 10
3.199
 20
-1.0186
 10
3.199
 20
-1.002
 10
3.2031
 20
-0.9936
 10
3.2281
 20
-0.9936
 10
3.2323
 20
-1.002
 10
3.2323
 20
-1.0103
 10
3.199
 20
-1.0103
  0
LWPOLYLINE
  5
EA
330
12
100
AcDbEntity
  8
4WAYDRIVER1_DRD
  6
BYLAYER
370
   211
 62
   256
100
AcDbPolyline
 90
     2
 70
     0
 43
0.01
 10
3.1748
 20
-0.9936
 10
3.1582
 20
-0.9936
  0
LWPOLYLINE
  5
EB
330
12
100
AcDbEntity
  8
4WAYDRIVER1_DRD
  6
BYLAYER
370
   211
 62
   256
100
AcDbPolyline
 90
     3
 70
     0
 43
0.01
 10
3.1581
 20
-0.9936
 10
3.154
 20
-1.002
 10
3.1457
 20
-1.002
  0
LWPOLYLINE
  5
EC
330
12
100
AcDbEntity
  8
4WAYDRIVER1_DRD
  6
BYLAYER
370
   211
 62
   256
100
AcDbPolyline
 90
     2
 70
     0
 43
0.01
 10
3.1456
 20
-0.9936
 10
3.1457
 20
-1.027
  0
LWPOLYLINE
  5
ED
330
12
100
AcDbEntity
  8
4WAYDRIVER1_DRD
  6
BYLAYER
370
   211
 62
   256
100
AcDbPolyline
 90
     6
 70
     0
 43
0.01
 10
3.1048
 20
-1.002
 10
3.1215
 20
-1.002
 10
3.1215
 20
-1.0186
 10
3.1173
 20
-1.027
 10
3.0923
 20
-1.027
 10
3.0882
 20
-1.0186
  0
LWPOLYLINE
  5
EE
330
12
100
AcDbEntity
  8
4WAYDRIVER1_DRD
  6
BYLAYER
370
   211
 62
   256
100
AcDbPolyline
 90
     2
 70
     0
 43
0.01
 10
3.0881
 20
-1.0186
 10
3.0882
 20
-0.9853
  0
LWPOLYLINE
  5
EF
330
12
100
AcDbEntity
  8
4WAYDRIVER1_DRD
  6
BYLAYER
370
   211
 62
   256
100
AcDbPolyline
 90
     4
 70
     0
 43
0.01
 10
3.0881
 20
-0.9853
 10
3.0923
 20
-0.977
 10
3.1173
 20
-0.977
 10
3.1215
 20
-0.9853
  0
LWPOLYLINE
  5
F0
330
12
100
AcDbEntity
  8
4WAYDRIVER1_DRD
  6
BYLAYER
370
   211
 62
   256
100
AcDbPolyline
 90
     2
 70
     0
 43
0.01
 10
4.9966
 20
-0.8876
 10
4.98
 20
-0.8876
  0
LWPOLYLINE
  5
F1
330
12
100
AcDbEntity
  8
4WAYDRIVER1_DRD
  6
BYLAYER
370
   211
 62
   256
100
AcDbPolyline
 90
     3
 70
     0
 43
0.01
 10
4.9799
 20
-0.8876
 10
4.9758
 20
-0.896
 10
4.9675
 20
-0.896
  0
LWPOLYLINE
  5
F2
330
12
100
AcDbEntity
  8
4WAYDRIVER1_DRD
  6
BYLAYER
370
   211
 62
   256
100
AcDbPolyline
 90
     2
 70
     0
 43
0.01
 10
4.9674
 20
-0.8876
 10
4.9675
 20
-0.921
  0
LWPOLYLINE
  5
F3
330
12
100
AcDbEntity
  8
4WAYDRIVER1_DRD
  6
BYLAYER
370
   211
 62
   256
100
AcDbPolyline
 90
     3
 70
     0
 43
0.01
 10
4.9391
 20
-0.921
 10
4.9141
 20
-0.921
 10
4.91
 20
-0.9126
  0
LWPOLYLINE
  5
F4
330
12
100
AcDbEntity
  8
4WAYDRIVER1_DRD
  6
BYLAYER
370
   211
 62
   256
100
AcDbPolyline
 90
     2
 70
     0
 43
0.01
 10
4.9099
 20
-0.9126
 10
4.91
 20
-0.896
  0
LWPOLYLINE
  5
F5
330
12
100
AcDbEntity
  8
4WAYDRIVER1_DRD
  6
BYLAYER
370
   211
 62
   256
100
AcDbPolyline
 90
     6
 70
     0
 43
0.01
 10
4.9099
 20
-0.896
 10
4.9141
 20
-0.8876
 10
4.9391
 20
-0.8876
 10
4.9433
 20
-0.896
 10
4.9433
 20
-0.9043
 10
4.91
 20
-0.9043
  0
LWPOLYLINE
  5
F6
330
12
100
AcDbEntity
  8
4WAYDRIVER1_DRD
  6
BYLAYER
370
   211
 62
   256
100
AcDbPolyline
 90
     7
 70
     0
 43
0.01
 10
4.8566
 20
-0.9376
 10
4.8566
 20
-0.8876
 10
4.8816
 20
-0.8876
 10
4.8858
 20
-0.896
 10
4.8858
 20
-0.9126
 10
4.8816
 20
-0.921
 10
4.8566
 20
-0.921
  0
LWPOLYLINE
  5
F7
330
12
100
AcDbEntity
  8
4WAYDRIVER1_DRD
  6
BYLAYER
370
   211
 62
   256
100
AcDbPolyline
 90
     4
 70
     0
 43
0.01
 10
4.8033
 20
-0.9376
 10
4.8033
 20
-0.8876
 10
4.8283
 20
-0.8876
 10
4.8325
 20
-0.896
  0
LWPOLYLINE
  5
F8
330
12
100
AcDbEntity
  8
4WAYDRIVER1_DRD
  6
BYLAYER
370
   211
 62
   256
100
AcDbPolyline
 90
     2
 70
     0
 43
0.01
 10
4.8324
 20
-0.896
 10
4.8325
 20
-0.9126
  0
LWPOLYLINE
  5
F9
330
12
100
AcDbEntity
  8
4WAYDRIVER1_DRD
  6
BYLAYER
370
   211
 62
   256
100
AcDbPolyline
 90
     3
 70
     0
 43
0.01
 10
4.8324
 20
-0.9126
 10
4.8283
 20
-0.921
 10
4.8033
 20
-0.921
  0
LWPOLYLINE
  5
FA
330
12
100
AcDbEntity
  8
4WAYDRIVER1_DRD
  6
BYLAYER
370
   211
 62
   256
100
AcDbPolyline
 90
     4
 70
     0
 43
0.01
 10
4.7499
 20
-0.921
 10
4.7458
 20
-0.9126
 10
4.7458
 20
-0.896
 10
4.75
 20
-0.8876
  0
LWPOLYLINE
  5
FB
330
12
100
AcDbEntity
  8
4WAYDRIVER1_DRD
  6
BYLAYER
370
   211
 62
   256
100
AcDbPolyline
 90
     2
 70
     0
 43
0.01
 10
4.7499
 20
-0.8876
 10
4.775
 20
-0.8876
  0
LWPOLYLINE
  5
FC
330
12
100
AcDbEntity
  8
4WAYDRIVER1_DRD
  6
BYLAYER
370
   211
 62
   256
100
AcDbPolyline
 90
     4
 70
     0
 43
0.01
 10
4.7749
 20
-0.8876
 10
4.7791
 20
-0.896
 10
4.7791
 20
-0.9126
 10
4.775
 20
-0.921
  0
LWPOLYLINE
  5
FD
330
12
100
AcDbEntity
  8
4WAYDRIVER1_DRD
  6
BYLAYER
370
   211
 62
   256
100
AcDbPolyline
 90
     2
 70
     0
 43
0.01
 10
4.7749
 20
-0.921
 10
4.75
 20
-0.921
  0
LWPOLYLINE
  5
FE
330
12
100
AcDbEntity
  8
4WAYDRIVER1_DRD
  6
BYLAYER
370
   211
 62
   256
100
AcDbPolyline
 90
     3
 70
     0
 43
0.01
 10
4.7216
 20
-0.8876
 10
4.6966
 20
-0.8876
 10
4.6925
 20
-0.896
  0
LWPOLYLINE
  5
FF
330
12
100
AcDbEntity
  8
4WAYDRIVER1_DRD
  6
BYLAYER
370
   211
 62
   256
100
AcDbPolyline
 90
     2
 70
     0
 43
0.01
 10
4.6924
 20
-0.896
 10
4.6925
 20
-0.9126
  0
LWPOLYLINE
  5
100
330
12
100
AcDbEntity
  8
4WAYDRIVER1_DRD
  6
BYLAYER
370
   211
 62
   256
100
AcDbPolyline
 90
     3
 70
     0
 43
0.01
 10
4.6924
 20
-0.9126
 10
4.6966
 20
-0.921
 10
4.7216
 20
-0.921
  0
LWPOLYLINE
  5
101
330
12
100
AcDbEntity
  8
4WAYDRIVER1_DRD
  6
BYLAYER
370
   211
 62
   256
100
AcDbPolyline
 90
     2
 70
     0
 43
0.01
 10
4.592
 20
-0.921
 10
4.5671
 20
-0.921
  0
LWPOLYLINE
  5
102
330
12
100
AcDbEntity
  8
4WAYDRIVER1_DRD
  6
BYLAYER
370
   211
 62
   256
100
AcDbPolyline
 90
     5
 70
     0
 43
0.01
 10
4.567
 20
-0.921
 10
4.5712
 20
-0.9126
 10
4.5879
 20
-0.896
 10
4.592
 20
-0.8876
 10
4.5671
 20
-0.8876
  0
LWPOLYLINE
  5
103
330
12
100
AcDbEntity
  8
4WAYDRIVER1_DRD
  6
BYLAYER
370
   211
 62
   256
100
AcDbPolyline
 90
     2
 70
     0
 43
0.01
 10
4.5137
 20
-0.921
 10
4.5096
 20
-0.9126
  0
LWPOLYLINE
  5
104
330
12
100
AcDbEntity
  8
4WAYDRIVER1_DRD
  6
BYLAYER
370
   211
 62
   256
100
AcDbPolyline
 90
     2
 70
     0
 43
0.01
 10
4.5095
 20
-0.9126
 10
4.5096
 20
-0.896
  0
LWPOLYLINE
  5
105
330
12
100
AcDbEntity
  8
4WAYDRIVER1_DRD
  6
BYLAYER
370
   211
 62
   256
100
AcDbPolyline
 90
     7
 70
     0
 43
0.01
 10
4.5095
 20
-0.896
 10
4.5137
 20
-0.8876
 10
4.5387
 20
-0.8876
 10
4.5429
 20
-0.896
 10
4.5429
 20
-0.9126
 10
4.5387
 20
-0.921
 10
4.5137
 20
-0.921
  0
LWPOLYLINE
  5
106
330
12
100
AcDbEntity
  8
4WAYDRIVER1_DRD
  6
BYLAYER
370
   211
 62
   256
100
AcDbPolyline
 90
     2
 70
     0
 43
0.01
 10
4.4854
 20
-0.921
 10
4.4521
 20
-0.921
  0
LWPOLYLINE
  5
107
330
12
100
AcDbEntity
  8
4WAYDRIVER1_DRD
  6
BYLAYER
370
   211
 62
   256
100
AcDbPolyline
 90
     6
 70
     0
 43
0.01
 10
4.452
 20
-0.921
 10
4.4854
 20
-0.8876
 10
4.4854
 20
-0.8793
 10
4.4812
 20
-0.871
 10
4.4562
 20
-0.871
 10
4.4521
 20
-0.8793
  0
LWPOLYLINE
  5
108
330
12
100
AcDbEntity
  8
4WAYDRIVER1_DRD
  6
BYLAYER
370
   211
 62
   256
100
AcDbPolyline
 90
     5
 70
     0
 43
0.01
 10
4.3516
 20
-0.9043
 10
4.3183
 20
-0.9043
 10
4.335
 20
-0.871
 10
4.3433
 20
-0.871
 10
4.3433
 20
-0.921
  0
LWPOLYLINE
  5
109
330
12
100
AcDbEntity
  8
4WAYDRIVER1_DRD
  6
BYLAYER
370
   211
 62
   256
100
AcDbPolyline
 90
     2
 70
     0
 43
0.01
 10
4.2816
 20
-0.896
 10
4.2941
 20
-0.921
  0
LWPOLYLINE
  5
10A
330
12
100
AcDbEntity
  8
4WAYDRIVER1_DRD
  6
BYLAYER
370
   211
 62
   256
100
AcDbPolyline
 90
     7
 70
     0
 43
0.01
 10
4.2608
 20
-0.896
 10
4.2858
 20
-0.896
 10
4.2941
 20
-0.8876
 10
4.2941
 20
-0.8793
 10
4.2858
 20
-0.871
 10
4.2608
 20
-0.871
 10
4.2608
 20
-0.921
  0
LWPOLYLINE
  5
10B
330
12
100
AcDbEntity
  8
4WAYDRIVER1_DRD
  6
BYLAYER
370
   211
 62
   256
100
AcDbPolyline
 90
     2
 70
     0
 43
0.01
 10
4.2283
 20
-0.896
 10
4.2033
 20
-0.896
  0
LWPOLYLINE
  5
10C
330
12
100
AcDbEntity
  8
4WAYDRIVER1_DRD
  6
BYLAYER
370
   211
 62
   256
100
AcDbPolyline
 90
     3
 70
     0
 43
0.01
 10
4.2033
 20
-0.921
 10
4.2033
 20
-0.871
 10
4.2366
 20
-0.871
  0
LWPOLYLINE
  5
10D
330
12
100
AcDbEntity
  8
4WAYDRIVER1_DRD
  6
BYLAYER
370
   211
 62
   256
100
AcDbPolyline
 90
     4
 70
     0
 43
0.01
 10
4.1029
 20
-0.921
 10
4.1029
 20
-0.896
 10
4.0987
 20
-0.8876
 10
4.0737
 20
-0.8876
  0
LWPOLYLINE
  5
10E
330
12
100
AcDbEntity
  8
4WAYDRIVER1_DRD
  6
BYLAYER
370
   211
 62
   256
100
AcDbPolyline
 90
     2
 70
     0
 43
0.01
 10
4.0737
 20
-0.921
 10
4.0737
 20
-0.871
  0
LWPOLYLINE
  5
10F
330
12
100
AcDbEntity
  8
4WAYDRIVER1_DRD
  6
BYLAYER
370
   211
 62
   256
100
AcDbPolyline
 90
     2
 70
     0
 43
0.01
 10
4.0495
 20
-0.8876
 10
4.0246
 20
-0.8876
  0
LWPOLYLINE
  5
110
330
12
100
AcDbEntity
  8
4WAYDRIVER1_DRD
  6
BYLAYER
370
   211
 62
   256
100
AcDbPolyline
 90
     4
 70
     0
 43
0.01
 10
4.0245
 20
-0.8876
 10
4.0204
 20
-0.896
 10
4.0204
 20
-0.9126
 10
4.0246
 20
-0.921
  0
LWPOLYLINE
  5
111
330
12
100
AcDbEntity
  8
4WAYDRIVER1_DRD
  6
BYLAYER
370
   211
 62
   256
100
AcDbPolyline
 90
     2
 70
     0
 43
0.01
 10
4.0245
 20
-0.921
 10
4.0496
 20
-0.921
  0
LWPOLYLINE
  5
112
330
12
100
AcDbEntity
  8
4WAYDRIVER1_DRD
  6
BYLAYER
370
   211
 62
   256
100
AcDbPolyline
 90
     4
 70
     0
 43
0.01
 10
3.9962
 20
-0.921
 10
3.9962
 20
-0.896
 10
3.992
 20
-0.8876
 10
3.9671
 20
-0.8876
  0
LWPOLYLINE
  5
113
330
12
100
AcDbEntity
  8
4WAYDRIVER1_DRD
  6
BYLAYER
370
   211
 62
   256
100
AcDbPolyline
 90
     2
 70
     0
 43
0.01
 10
3.967
 20
-0.8876
 10
3.9671
 20
-0.921
  0
LWPOLYLINE
  5
114
330
12
100
AcDbEntity
  8
4WAYDRIVER1_DRD
  6
BYLAYER
370
   211
 62
   256
100
AcDbPolyline
 90
     5
 70
     0
 43
0.01
 10
3.9345
 20
-0.871
 10
3.9345
 20
-0.8709
 10
3.9346
 20
-0.8709
 10
3.9346
 20
-0.871
 10
3.9345
 20
-0.871
  0
LWPOLYLINE
  5
115
330
12
100
AcDbEntity
  8
4WAYDRIVER1_DRD
  6
BYLAYER
370
   211
 62
   256
100
AcDbPolyline
 90
     2
 70
     0
 43
0.01
 10
3.9429
 20
-0.921
 10
3.9262
 20
-0.921
  0
LWPOLYLINE
  5
116
330
12
100
AcDbEntity
  8
4WAYDRIVER1_DRD
  6
BYLAYER
370
   211
 62
   256
100
AcDbPolyline
 90
     2
 70
     0
 43
0.01
 10
3.9345
 20
-0.921
 10
3.9346
 20
-0.8876
  0
LWPOLYLINE
  5
117
330
12
100
AcDbEntity
  8
4WAYDRIVER1_DRD
  6
BYLAYER
370
   211
 62
   256
100
AcDbPolyline
 90
     2
 70
     0
 43
0.01
 10
3.9345
 20
-0.8876
 10
3.9262
 20
-0.8876
  0
LWPOLYLINE
  5
118
330
12
100
AcDbEntity
  8
4WAYDRIVER1_DRD
  6
BYLAYER
370
   211
 62
   256
100
AcDbPolyline
 90
     7
 70
     0
 43
0.01
 10
3.8216
 20
-0.921
 10
3.7883
 20
-0.921
 10
3.8216
 20
-0.8876
 10
3.8216
 20
-0.8793
 10
3.8175
 20
-0.871
 10
3.7925
 20
-0.871
 10
3.7883
 20
-0.8793
  0
LWPOLYLINE
  5
119
330
12
100
AcDbEntity
  8
4WAYDRIVER1_DRD
  6
BYLAYER
370
   211
 62
   256
100
AcDbPolyline
 90
     9
 70
     0
 43
0.01
 10
3.735
 20
-0.896
 10
3.76
 20
-0.896
 10
3.7641
 20
-0.9043
 10
3.7641
 20
-0.9126
 10
3.76
 20
-0.921
 10
3.735
 20
-0.921
 10
3.7308
 20
-0.9126
 10
3.7308
 20
-0.9043
 10
3.7475
 20
-0.871
  0
LWPOLYLINE
  5
11A
330
12
100
AcDbEntity
  8
4WAYDRIVER1_DRD
  6
BYLAYER
370
   211
 62
   256
100
AcDbPolyline
 90
    13
 70
     0
 43
0.01
 10
3.6858
 20
-0.921
 10
3.6775
 20
-0.9126
 10
3.6733
 20
-0.9043
 10
3.6733
 20
-0.8876
 10
3.6775
 20
-0.8793
 10
3.6858
 20
-0.871
 10
3.6941
 20
-0.871
 10
3.7025
 20
-0.8793
 10
3.7066
 20
-0.8876
 10
3.7066
 20
-0.9043
 10
3.7025
 20
-0.9126
 10
3.6941
 20
-0.921
 10
3.6858
 20
-0.921
  0
LWPOLYLINE
  5
11B
330
12
100
AcDbEntity
  8
4WAYDRIVER1_DRD
  6
BYLAYER
370
   211
 62
   256
100
AcDbPolyline
 90
     5
 70
     0
 43
0.01
 10
3.6408
 20
-0.921
 10
3.6491
 20
-0.921
 10
3.6491
 20
-0.9126
 10
3.6408
 20
-0.9126
 10
3.6408
 20
-0.921
  0
LWPOLYLINE
  5
11C
330
12
100
AcDbEntity
  8
4WAYDRIVER1_DRD
  6
BYLAYER
370
   211
 62
   256
100
AcDbPolyline
 90
    13
 70
     0
 43
0.01
 10
3.5875
 20
-0.921
 10
3.5791
 20
-0.9126
 10
3.575
 20
-0.9043
 10
3.575
 20
-0.8876
 10
3.5791
 20
-0.8793
 10
3.5875
 20
-0.871
 10
3.5958
 20
-0.871
 10
3.6041
 20
-0.8793
 10
3.6083
 20
-0.8876
 10
3.6083
 20
-0.9043
 10
3.6041
 20
-0.9126
 10
3.5958
 20
-0.921
 10
3.5875
 20
-0.921
  0
LWPOLYLINE
  5
11D
330
12
100
AcDbEntity
  8
4WAYDRIVER1_DRD
  6
BYLAYER
370
   211
 62
   256
100
AcDbPolyline
 90
     4
 70
     0
 43
0.01
 10
3.4746
 20
-0.8876
 10
3.4579
 20
-0.8876
 10
3.4537
 20
-0.896
 10
3.4454
 20
-0.896
  0
LWPOLYLINE
  5
11E
330
12
100
AcDbEntity
  8
4WAYDRIVER1_DRD
  6
BYLAYER
370
   211
 62
   256
100
AcDbPolyline
 90
     2
 70
     0
 43
0.01
 10
3.4454
 20
-0.8876
 10
3.4454
 20
-0.921
  0
LWPOLYLINE
  5
11F
330
12
100
AcDbEntity
  8
4WAYDRIVER1_DRD
  6
BYLAYER
370
   211
 62
   256
100
AcDbPolyline
 90
     9
 70
     0
 43
0.01
 10
3.4171
 20
-0.921
 10
3.3921
 20
-0.921
 10
3.3879
 20
-0.9126
 10
3.3879
 20
-0.896
 10
3.3921
 20
-0.8876
 10
3.4171
 20
-0.8876
 10
3.4212
 20
-0.896
 10
3.4212
 20
-0.9043
 10
3.3879
 20
-0.9043
  0
LWPOLYLINE
  5
120
330
12
100
AcDbEntity
  8
4WAYDRIVER1_DRD
  6
BYLAYER
370
   211
 62
   256
100
AcDbPolyline
 90
     2
 70
     0
 43
0.01
 10
3.3637
 20
-0.8876
 10
3.3471
 20
-0.921
  0
LWPOLYLINE
  5
121
330
12
100
AcDbEntity
  8
4WAYDRIVER1_DRD
  6
BYLAYER
370
   211
 62
   256
100
AcDbPolyline
 90
     3
 70
     0
 43
0.01
 10
3.3387
 20
-0.9376
 10
3.3471
 20
-0.921
 10
3.3304
 20
-0.8876
  0
LWPOLYLINE
  5
122
330
12
100
AcDbEntity
  8
4WAYDRIVER1_DRD
  6
BYLAYER
370
   211
 62
   256
100
AcDbPolyline
 90
     9
 70
     0
 43
0.01
 10
3.2812
 20
-0.8876
 10
3.2979
 20
-0.8876
 10
3.3021
 20
-0.896
 10
3.3021
 20
-0.9126
 10
3.3062
 20
-0.921
 10
3.2771
 20
-0.921
 10
3.2729
 20
-0.9126
 10
3.2771
 20
-0.9043
 10
3.3021
 20
-0.9043
  0
LWPOLYLINE
  5
123
330
12
100
AcDbEntity
  8
4WAYDRIVER1_DRD
  6
BYLAYER
370
   211
 62
   256
100
AcDbPolyline
 90
     2
 70
     0
 43
0.01
 10
3.2487
 20
-0.921
 10
3.2321
 20
-0.921
  0
LWPOLYLINE
  5
124
330
12
100
AcDbEntity
  8
4WAYDRIVER1_DRD
  6
BYLAYER
370
   211
 62
   256
100
AcDbPolyline
 90
     3
 70
     0
 43
0.01
 10
3.2404
 20
-0.921
 10
3.2404
 20
-0.871
 10
3.2321
 20
-0.871
  0
LWPOLYLINE
  5
125
330
12
100
AcDbEntity
  8
4WAYDRIVER1_DRD
  6
BYLAYER
370
   211
 62
   256
100
AcDbPolyline
 90
     2
 70
     0
 43
0.01
 10
3.1275
 20
-0.921
 10
3.0942
 20
-0.921
  0
LWPOLYLINE
  5
126
330
12
100
AcDbEntity
  8
4WAYDRIVER1_DRD
  6
BYLAYER
370
   211
 62
   256
100
AcDbPolyline
 90
     6
 70
     0
 43
0.01
 10
3.0941
 20
-0.921
 10
3.1275
 20
-0.8876
 10
3.1275
 20
-0.8793
 10
3.1233
 20
-0.871
 10
3.0983
 20
-0.871
 10
3.0942
 20
-0.8793
  0
LWPOLYLINE
  5
127
330
12
100
AcDbEntity
  8
4WAYDRIVER1_DRD
  6
BYLAYER
370
   211
 62
   256
100
AcDbPolyline
 90
     5
 70
     0
 43
0.01
 10
3.3617
 20
-0.769
 10
3.3617
 20
-0.7606
 10
3.37
 20
-0.7606
 10
3.37
 20
-0.769
 10
3.3617
 20
-0.769
  0
LWPOLYLINE
  5
128
330
12
100
AcDbEntity
  8
4WAYDRIVER1_DRD
  6
BYLAYER
370
   211
 62
   256
100
AcDbPolyline
 90
     5
 70
     0
 43
0.01
 10
3.3617
 20
-0.794
 10
3.3617
 20
-0.7856
 10
3.37
 20
-0.7856
 10
3.37
 20
-0.794
 10
3.3617
 20
-0.794
  0
LWPOLYLINE
  5
129
330
12
100
AcDbEntity
  8
4WAYDRIVER1_DRD
  6
BYLAYER
370
   211
 62
   256
100
AcDbPolyline
 90
     8
 70
     0
 43
0.01
 10
3.325
 20
-0.7606
 10
3.3
 20
-0.7606
 10
3.2958
 20
-0.769
 10
3.3
 20
-0.7773
 10
3.325
 20
-0.7773
 10
3.3292
 20
-0.7856
 10
3.325
 20
-0.794
 10
3.3
 20
-0.794
  0
LWPOLYLINE
  5
12A
330
12
100
AcDbEntity
  8
4WAYDRIVER1_DRD
  6
BYLAYER
370
   211
 62
   256
100
AcDbPolyline
 90
     2
 70
     0
 43
0.01
 10
3.2716
 20
-0.7606
 10
3.2467
 20
-0.7606
  0
LWPOLYLINE
  5
12B
330
12
100
AcDbEntity
  8
4WAYDRIVER1_DRD
  6
BYLAYER
370
   211
 62
   256
100
AcDbPolyline
 90
     4
 70
     0
 43
0.01
 10
3.2466
 20
-0.7606
 10
3.2425
 20
-0.769
 10
3.2425
 20
-0.7856
 10
3.2467
 20
-0.794
  0
LWPOLYLINE
  5
12C
330
12
100
AcDbEntity
  8
4WAYDRIVER1_DRD
  6
BYLAYER
370
   211
 62
   256
100
AcDbPolyline
 90
     2
 70
     0
 43
0.01
 10
3.2466
 20
-0.794
 10
3.2717
 20
-0.794
  0
LWPOLYLINE
  5
12D
330
12
100
AcDbEntity
  8
4WAYDRIVER1_DRD
  6
BYLAYER
370
   211
 62
   256
100
AcDbPolyline
 90
     2
 70
     0
 43
0.01
 10
3.2141
 20
-0.794
 10
3.1892
 20
-0.794
  0
LWPOLYLINE
  5
12E
330
12
100
AcDbEntity
  8
4WAYDRIVER1_DRD
  6
BYLAYER
370
   211
 62
   256
100
AcDbPolyline
 90
     4
 70
     0
 43
0.01
 10
3.1891
 20
-0.794
 10
3.185
 20
-0.7856
 10
3.185
 20
-0.769
 10
3.1892
 20
-0.7606
  0
LWPOLYLINE
  5
12F
330
12
100
AcDbEntity
  8
4WAYDRIVER1_DRD
  6
BYLAYER
370
   211
 62
   256
100
AcDbPolyline
 90
     2
 70
     0
 43
0.01
 10
3.1891
 20
-0.7606
 10
3.2142
 20
-0.7606
  0
LWPOLYLINE
  5
130
330
12
100
AcDbEntity
  8
4WAYDRIVER1_DRD
  6
BYLAYER
370
   211
 62
   256
100
AcDbPolyline
 90
     4
 70
     0
 43
0.01
 10
3.2141
 20
-0.7606
 10
3.2183
 20
-0.769
 10
3.2183
 20
-0.7773
 10
3.185
 20
-0.7773
  0
LWPOLYLINE
  5
131
330
12
100
AcDbEntity
  8
4WAYDRIVER1_DRD
  6
BYLAYER
370
   211
 62
   256
100
AcDbPolyline
 90
     2
 70
     0
 43
0.01
 10
3.1316
 20
-0.8106
 10
3.1317
 20
-0.7606
  0
LWPOLYLINE
  5
132
330
12
100
AcDbEntity
  8
4WAYDRIVER1_DRD
  6
BYLAYER
370
   211
 62
   256
100
AcDbPolyline
 90
     6
 70
     0
 43
0.01
 10
3.1316
 20
-0.7606
 10
3.1566
 20
-0.7606
 10
3.1608
 20
-0.769
 10
3.1608
 20
-0.7856
 10
3.1566
 20
-0.794
 10
3.1317
 20
-0.794
  0
LWPOLYLINE
  5
133
330
12
100
AcDbEntity
  8
4WAYDRIVER1_DRD
  6
BYLAYER
370
   211
 62
   256
100
AcDbPolyline
 90
     4
 70
     0
 43
0.01
 10
3.1075
 20
-0.7523
 10
3.1033
 20
-0.744
 10
3.0783
 20
-0.744
 10
3.0742
 20
-0.7523
  0
LWPOLYLINE
  5
134
330
12
100
AcDbEntity
  8
4WAYDRIVER1_DRD
  6
BYLAYER
370
   211
 62
   256
100
AcDbPolyline
 90
     2
 70
     0
 43
0.01
 10
3.0741
 20
-0.7523
 10
3.0742
 20
-0.7606
  0
LWPOLYLINE
  5
135
330
12
100
AcDbEntity
  8
4WAYDRIVER1_DRD
  6
BYLAYER
370
   211
 62
   256
100
AcDbPolyline
 90
     8
 70
     0
 43
0.01
 10
3.0741
 20
-0.7606
 10
3.0783
 20
-0.769
 10
3.1033
 20
-0.769
 10
3.1075
 20
-0.7773
 10
3.1075
 20
-0.7856
 10
3.1033
 20
-0.794
 10
3.0783
 20
-0.794
 10
3.0742
 20
-0.7856
  0
LWPOLYLINE
  5
136
330
12
100
AcDbEntity
  8
4WAYDRIVER1_DRD
  6
BYLAYER
370
   211
 62
   256
100
AcDbPolyline
 90
     2
 70
     0
 43
0.01
 10
5.0824
 20
-1.0936
 10
5.0658
 20
-1.127
  0
LWPOLYLINE
  5
137
330
12
100
AcDbEntity
  8
4WAYDRIVER1_DRD
  6
BYLAYER
370
   211
 62
   256
100
AcDbPolyline
 90
     3
 70
     0
 43
0.01
 10
5.0574
 20
-1.1436
 10
5.0658
 20
-1.127
 10
5.0491
 20
-1.0936
  0
LWPOLYLINE
  5
138
330
12
100
AcDbEntity
  8
4WAYDRIVER1_DRD
  6
BYLAYER
370
   211
 62
   256
100
AcDbPolyline
 90
     2
 70
     0
 43
0.01
 10
5.0249
 20
-1.127
 10
5.0083
 20
-1.127
  0
LWPOLYLINE
  5
139
330
12
100
AcDbEntity
  8
4WAYDRIVER1_DRD
  6
BYLAYER
370
   211
 62
   256
100
AcDbPolyline
 90
     3
 70
     0
 43
0.01
 10
5.0166
 20
-1.127
 10
5.0166
 20
-1.077
 10
5.0083
 20
-1.077
  0
LWPOLYLINE
  5
13A
330
12
100
AcDbEntity
  8
4WAYDRIVER1_DRD
  6
BYLAYER
370
   211
 62
   256
100
AcDbPolyline
 90
     4
 70
     0
 43
0.01
 10
4.9799
 20
-1.127
 10
4.9799
 20
-1.102
 10
4.9757
 20
-1.0936
 10
4.9508
 20
-1.0936
  0
LWPOLYLINE
  5
13B
330
12
100
AcDbEntity
  8
4WAYDRIVER1_DRD
  6
BYLAYER
370
   211
 62
   256
100
AcDbPolyline
 90
     2
 70
     0
 43
0.01
 10
4.9507
 20
-1.0936
 10
4.9508
 20
-1.127
  0
LWPOLYLINE
  5
13C
330
12
100
AcDbEntity
  8
4WAYDRIVER1_DRD
  6
BYLAYER
370
   211
 62
   256
100
AcDbPolyline
 90
     2
 70
     0
 43
0.01
 10
4.8974
 20
-1.127
 10
4.8933
 20
-1.1186
  0
LWPOLYLINE
  5
13D
330
12
100
AcDbEntity
  8
4WAYDRIVER1_DRD
  6
BYLAYER
370
   211
 62
   256
100
AcDbPolyline
 90
     2
 70
     0
 43
0.01
 10
4.8932
 20
-1.1186
 10
4.8933
 20
-1.102
  0
LWPOLYLINE
  5
13E
330
12
100
AcDbEntity
  8
4WAYDRIVER1_DRD
  6
BYLAYER
370
   211
 62
   256
100
AcDbPolyline
 90
     7
 70
     0
 43
0.01
 10
4.8932
 20
-1.102
 10
4.8974
 20
-1.0936
 10
4.9224
 20
-1.0936
 10
4.9266
 20
-1.102
 10
4.9266
 20
-1.1186
 10
4.9224
 20
-1.127
 10
4.8974
 20
-1.127
  0
LWPOLYLINE
  5
13F
330
12
100
AcDbEntity
  8
4WAYDRIVER1_DRD
  6
BYLAYER
370
   211
 62
   256
100
AcDbPolyline
 90
     4
 70
     0
 43
0.01
 10
4.7928
 20
-1.127
 10
4.7928
 20
-1.102
 10
4.7887
 20
-1.0936
 10
4.7637
 20
-1.0936
  0
LWPOLYLINE
  5
140
330
12
100
AcDbEntity
  8
4WAYDRIVER1_DRD
  6
BYLAYER
370
   211
 62
   256
100
AcDbPolyline
 90
     2
 70
     0
 43
0.01
 10
4.7637
 20
-1.127
 10
4.7637
 20
-1.077
  0
LWPOLYLINE
  5
141
330
12
100
AcDbEntity
  8
4WAYDRIVER1_DRD
  6
BYLAYER
370
   211
 62
   256
100
AcDbPolyline
 90
     8
 70
     0
 43
0.01
 10
4.7353
 20
-1.0936
 10
4.7103
 20
-1.0936
 10
4.7062
 20
-1.102
 10
4.7103
 20
-1.1103
 10
4.7353
 20
-1.1103
 10
4.7395
 20
-1.1186
 10
4.7353
 20
-1.127
 10
4.7103
 20
-1.127
  0
LWPOLYLINE
  5
142
330
12
100
AcDbEntity
  8
4WAYDRIVER1_DRD
  6
BYLAYER
370
   211
 62
   256
100
AcDbPolyline
 90
     5
 70
     0
 43
0.01
 10
4.6736
 20
-1.077
 10
4.6736
 20
-1.0769
 10
4.6737
 20
-1.0769
 10
4.6737
 20
-1.077
 10
4.6736
 20
-1.077
  0
LWPOLYLINE
  5
143
330
12
100
AcDbEntity
  8
4WAYDRIVER1_DRD
  6
BYLAYER
370
   211
 62
   256
100
AcDbPolyline
 90
     2
 70
     0
 43
0.01
 10
4.682
 20
-1.127
 10
4.6653
 20
-1.127
  0
LWPOLYLINE
  5
144
330
12
100
AcDbEntity
  8
4WAYDRIVER1_DRD
  6
BYLAYER
370
   211
 62
   256
100
AcDbPolyline
 90
     3
 70
     0
 43
0.01
 10
4.6737
 20
-1.127
 10
4.6737
 20
-1.0936
 10
4.6653
 20
-1.0936
  0
LWPOLYLINE
  5
145
330
12
100
AcDbEntity
  8
4WAYDRIVER1_DRD
  6
BYLAYER
370
   211
 62
   256
100
AcDbPolyline
 90
     5
 70
     0
 43
0.01
 10
4.637
 20
-1.127
 10
4.637
 20
-1.102
 10
4.6328
 20
-1.0936
 10
4.6078
 20
-1.0936
 10
4.6078
 20
-1.127
  0
LWPOLYLINE
  5
146
330
12
100
AcDbEntity
  8
4WAYDRIVER1_DRD
  6
BYLAYER
370
   211
 62
   256
100
AcDbPolyline
 90
     5
 70
     0
 43
0.01
 10
4.5753
 20
-1.077
 10
4.5753
 20
-1.0769
 10
4.5754
 20
-1.0769
 10
4.5754
 20
-1.077
 10
4.5753
 20
-1.077
  0
LWPOLYLINE
  5
147
330
12
100
AcDbEntity
  8
4WAYDRIVER1_DRD
  6
BYLAYER
370
   211
 62
   256
100
AcDbPolyline
 90
     2
 70
     0
 43
0.01
 10
4.5837
 20
-1.127
 10
4.567
 20
-1.127
  0
LWPOLYLINE
  5
148
330
12
100
AcDbEntity
  8
4WAYDRIVER1_DRD
  6
BYLAYER
370
   211
 62
   256
100
AcDbPolyline
 90
     3
 70
     0
 43
0.01
 10
4.5753
 20
-1.127
 10
4.5753
 20
-1.0936
 10
4.567
 20
-1.0936
  0
LWPOLYLINE
  5
149
330
12
100
AcDbEntity
  8
4WAYDRIVER1_DRD
  6
BYLAYER
370
   211
 62
   256
100
AcDbPolyline
 90
     2
 70
     0
 43
0.01
 10
4.5387
 20
-1.102
 10
4.5137
 20
-1.102
  0
LWPOLYLINE
  5
14A
330
12
100
AcDbEntity
  8
4WAYDRIVER1_DRD
  6
BYLAYER
370
   211
 62
   256
100
AcDbPolyline
 90
     4
 70
     0
 43
0.01
 10
4.5262
 20
-1.127
 10
4.5262
 20
-1.0853
 10
4.5304
 20
-1.077
 10
4.5387
 20
-1.077
  0
LWPOLYLINE
  5
14B
330
12
100
AcDbEntity
  8
4WAYDRIVER1_DRD
  6
BYLAYER
370
   211
 62
   256
100
AcDbPolyline
 90
     4
 70
     0
 43
0.01
 10
4.4133
 20
-1.0936
 10
4.3966
 20
-1.0936
 10
4.3925
 20
-1.102
 10
4.3841
 20
-1.102
  0
LWPOLYLINE
  5
14C
330
12
100
AcDbEntity
  8
4WAYDRIVER1_DRD
  6
BYLAYER
370
   211
 62
   256
100
AcDbPolyline
 90
     2
 70
     0
 43
0.01
 10
4.3841
 20
-1.0936
 10
4.3841
 20
-1.127
  0
LWPOLYLINE
  5
14D
330
12
100
AcDbEntity
  8
4WAYDRIVER1_DRD
  6
BYLAYER
370
   211
 62
   256
100
AcDbPolyline
 90
     9
 70
     0
 43
0.01
 10
4.3558
 20
-1.127
 10
4.3308
 20
-1.127
 10
4.3266
 20
-1.1186
 10
4.3266
 20
-1.102
 10
4.3308
 20
-1.0936
 10
4.3558
 20
-1.0936
 10
4.36
 20
-1.102
 10
4.36
 20
-1.1103
 10
4.3266
 20
-1.1103
  0
LWPOLYLINE
  5
14E
330
12
100
AcDbEntity
  8
4WAYDRIVER1_DRD
  6
BYLAYER
370
   211
 62
   256
100
AcDbPolyline
 90
     2
 70
     0
 43
0.01
 10
4.3024
 20
-1.077
 10
4.3025
 20
-1.127
  0
LWPOLYLINE
  5
14F
330
12
100
AcDbEntity
  8
4WAYDRIVER1_DRD
  6
BYLAYER
370
   211
 62
   256
100
AcDbPolyline
 90
     2
 70
     0
 43
0.01
 10
4.3024
 20
-1.127
 10
4.2775
 20
-1.127
  0
LWPOLYLINE
  5
150
330
12
100
AcDbEntity
  8
4WAYDRIVER1_DRD
  6
BYLAYER
370
   211
 62
   256
100
AcDbPolyline
 90
     4
 70
     0
 43
0.01
 10
4.2774
 20
-1.127
 10
4.2733
 20
-1.1186
 10
4.2733
 20
-1.102
 10
4.2775
 20
-1.0936
  0
LWPOLYLINE
  5
151
330
12
100
AcDbEntity
  8
4WAYDRIVER1_DRD
  6
BYLAYER
370
   211
 62
   256
100
AcDbPolyline
 90
     2
 70
     0
 43
0.01
 10
4.2774
 20
-1.0936
 10
4.3025
 20
-1.0936
  0
LWPOLYLINE
  5
152
330
12
100
AcDbEntity
  8
4WAYDRIVER1_DRD
  6
BYLAYER
370
   211
 62
   256
100
AcDbPolyline
 90
     2
 70
     0
 43
0.01
 10
4.2491
 20
-1.127
 10
4.2325
 20
-1.127
  0
LWPOLYLINE
  5
153
330
12
100
AcDbEntity
  8
4WAYDRIVER1_DRD
  6
BYLAYER
370
   211
 62
   256
100
AcDbPolyline
 90
     3
 70
     0
 43
0.01
 10
4.2408
 20
-1.127
 10
4.2408
 20
-1.077
 10
4.2325
 20
-1.077
  0
LWPOLYLINE
  5
154
330
12
100
AcDbEntity
  8
4WAYDRIVER1_DRD
  6
BYLAYER
370
   211
 62
   256
100
AcDbPolyline
 90
     4
 70
     0
 43
0.01
 10
4.1749
 20
-1.127
 10
4.1708
 20
-1.1186
 10
4.1708
 20
-1.102
 10
4.175
 20
-1.0936
  0
LWPOLYLINE
  5
155
330
12
100
AcDbEntity
  8
4WAYDRIVER1_DRD
  6
BYLAYER
370
   211
 62
   256
100
AcDbPolyline
 90
     2
 70
     0
 43
0.01
 10
4.1749
 20
-1.0936
 10
4.2
 20
-1.0936
  0
LWPOLYLINE
  5
156
330
12
100
AcDbEntity
  8
4WAYDRIVER1_DRD
  6
BYLAYER
370
   211
 62
   256
100
AcDbPolyline
 90
     4
 70
     0
 43
0.01
 10
4.1999
 20
-1.0936
 10
4.2041
 20
-1.102
 10
4.2041
 20
-1.1186
 10
4.2
 20
-1.127
  0
LWPOLYLINE
  5
157
330
12
100
AcDbEntity
  8
4WAYDRIVER1_DRD
  6
BYLAYER
370
   211
 62
   256
100
AcDbPolyline
 90
     2
 70
     0
 43
0.01
 10
4.1999
 20
-1.127
 10
4.175
 20
-1.127
  0
LWPOLYLINE
  5
158
330
12
100
AcDbEntity
  8
4WAYDRIVER1_DRD
  6
BYLAYER
370
   211
 62
   256
100
AcDbPolyline
 90
     2
 70
     0
 43
0.01
 10
4.1466
 20
-1.0853
 10
4.1425
 20
-1.077
  0
LWPOLYLINE
  5
159
330
12
100
AcDbEntity
  8
4WAYDRIVER1_DRD
  6
BYLAYER
370
   211
 62
   256
100
AcDbPolyline
 90
     2
 70
     0
 43
0.01
 10
4.1424
 20
-1.077
 10
4.1175
 20
-1.077
  0
LWPOLYLINE
  5
15A
330
12
100
AcDbEntity
  8
4WAYDRIVER1_DRD
  6
BYLAYER
370
   211
 62
   256
100
AcDbPolyline
 90
     4
 70
     0
 43
0.01
 10
4.1174
 20
-1.077
 10
4.1133
 20
-1.0853
 10
4.1133
 20
-1.0936
 10
4.1175
 20
-1.102
  0
LWPOLYLINE
  5
15B
330
12
100
AcDbEntity
  8
4WAYDRIVER1_DRD
  6
BYLAYER
370
   211
 62
   256
100
AcDbPolyline
 90
     2
 70
     0
 43
0.01
 10
4.1174
 20
-1.102
 10
4.1425
 20
-1.102
  0
LWPOLYLINE
  5
15C
330
12
100
AcDbEntity
  8
4WAYDRIVER1_DRD
  6
BYLAYER
370
   211
 62
   256
100
AcDbPolyline
 90
     4
 70
     0
 43
0.01
 10
4.1424
 20
-1.102
 10
4.1466
 20
-1.1103
 10
4.1466
 20
-1.1186
 10
4.1425
 20
-1.127
  0
LWPOLYLINE
  5
15D
330
12
100
AcDbEntity
  8
4WAYDRIVER1_DRD
  6
BYLAYER
370
   211
 62
   256
100
AcDbPolyline
 90
     2
 70
     0
 43
0.01
 10
4.1424
 20
-1.127
 10
4.1175
 20
-1.127
  0
LWPOLYLINE
  5
15E
330
12
100
AcDbEntity
  8
4WAYDRIVER1_DRD
  6
BYLAYER
370
   211
 62
   256
100
AcDbPolyline
 90
     2
 70
     0
 43
0.01
 10
4.1174
 20
-1.127
 10
4.1133
 20
-1.1186
  0
LWPOLYLINE
  5
15F
330
12
100
AcDbEntity
  8
4WAYDRIVER1_DRD
  6
BYLAYER
370
   211
 62
   256
100
AcDbPolyline
 90
     5
 70
     0
 43
0.01
 10
3.9283
 20
-1.127
 10
3.9366
 20
-1.127
 10
3.9366
 20
-1.1186
 10
3.9283
 20
-1.1186
 10
3.9283
 20
-1.127
  0
LWPOLYLINE
  5
160
330
12
100
AcDbEntity
  8
4WAYDRIVER1_DRD
  6
BYLAYER
370
   211
 62
   256
100
AcDbPolyline
 90
     2
 70
     0
 43
0.01
 10
3.8791
 20
-1.1103
 10
3.8708
 20
-1.1103
  0
LWPOLYLINE
  5
161
330
12
100
AcDbEntity
  8
4WAYDRIVER1_DRD
  6
BYLAYER
370
   211
 62
   256
100
AcDbPolyline
 90
     3
 70
     0
 43
0.01
 10
3.8958
 20
-1.127
 10
3.8791
 20
-1.1103
 10
3.8958
 20
-1.0936
  0
LWPOLYLINE
  5
162
330
12
100
AcDbEntity
  8
4WAYDRIVER1_DRD
  6
BYLAYER
370
   211
 62
   256
100
AcDbPolyline
 90
     2
 70
     0
 43
0.01
 10
3.8708
 20
-1.127
 10
3.8708
 20
-1.077
  0
LWPOLYLINE
  5
163
330
12
100
AcDbEntity
  8
4WAYDRIVER1_DRD
  6
BYLAYER
370
   211
 62
   256
100
AcDbPolyline
 90
     8
 70
     0
 43
0.01
 10
3.8383
 20
-1.0936
 10
3.8133
 20
-1.0936
 10
3.8091
 20
-1.102
 10
3.8133
 20
-1.1103
 10
3.8383
 20
-1.1103
 10
3.8425
 20
-1.1186
 10
3.8383
 20
-1.127
 10
3.8133
 20
-1.127
  0
LWPOLYLINE
  5
164
330
12
100
AcDbEntity
  8
4WAYDRIVER1_DRD
  6
BYLAYER
370
   211
 62
   256
100
AcDbPolyline
 90
     9
 70
     0
 43
0.01
 10
3.76
 20
-1.0936
 10
3.7766
 20
-1.0936
 10
3.7808
 20
-1.102
 10
3.7808
 20
-1.1186
 10
3.785
 20
-1.127
 10
3.7558
 20
-1.127
 10
3.7516
 20
-1.1186
 10
3.7558
 20
-1.1103
 10
3.7808
 20
-1.1103
  0
LWPOLYLINE
  5
165
330
12
100
AcDbEntity
  8
4WAYDRIVER1_DRD
  6
BYLAYER
370
   211
 62
   256
100
AcDbPolyline
 90
     2
 70
     0
 43
0.01
 10
3.7108
 20
-1.127
 10
3.7108
 20
-1.102
  0
LWPOLYLINE
  5
166
330
12
100
AcDbEntity
  8
4WAYDRIVER1_DRD
  6
BYLAYER
370
   211
 62
   256
100
AcDbPolyline
 90
     9
 70
     0
 43
0.01
 10
3.7275
 20
-1.127
 10
3.7275
 20
-1.102
 10
3.7233
 20
-1.0936
 10
3.715
 20
-1.0936
 10
3.7108
 20
-1.102
 10
3.7066
 20
-1.0936
 10
3.6983
 20
-1.0936
 10
3.6941
 20
-1.102
 10
3.6941
 20
-1.127
  0
LWPOLYLINE
  5
167
330
12
100
AcDbEntity
  8
4WAYDRIVER1_DRD
  6
BYLAYER
370
   211
 62
   256
100
AcDbPolyline
 90
     2
 70
     0
 43
0.01
 10
3.577
 20
-1.127
 10
3.577
 20
-1.102
  0
LWPOLYLINE
  5
168
330
12
100
AcDbEntity
  8
4WAYDRIVER1_DRD
  6
BYLAYER
370
   211
 62
   256
100
AcDbPolyline
 90
     9
 70
     0
 43
0.01
 10
3.5937
 20
-1.127
 10
3.5937
 20
-1.102
 10
3.5895
 20
-1.0936
 10
3.5812
 20
-1.0936
 10
3.577
 20
-1.102
 10
3.5729
 20
-1.0936
 10
3.5645
 20
-1.0936
 10
3.5604
 20
-1.102
 10
3.5604
 20
-1.127
  0
LWPOLYLINE
  5
169
330
12
100
AcDbEntity
  8
4WAYDRIVER1_DRD
  6
BYLAYER
370
   211
 62
   256
100
AcDbPolyline
 90
     9
 70
     0
 43
0.01
 10
3.507
 20
-1.127
 10
3.5029
 20
-1.1186
 10
3.5029
 20
-1.102
 10
3.507
 20
-1.0936
 10
3.532
 20
-1.0936
 10
3.5362
 20
-1.102
 10
3.5362
 20
-1.1186
 10
3.532
 20
-1.127
 10
3.507
 20
-1.127
  0
LWPOLYLINE
  5
16A
330
12
100
AcDbEntity
  8
4WAYDRIVER1_DRD
  6
BYLAYER
370
   211
 62
   256
100
AcDbPolyline
 90
     2
 70
     0
 43
0.01
 10
3.4745
 20
-1.0936
 10
3.4496
 20
-1.0936
  0
LWPOLYLINE
  5
16B
330
12
100
AcDbEntity
  8
4WAYDRIVER1_DRD
  6
BYLAYER
370
   211
 62
   256
100
AcDbPolyline
 90
     2
 70
     0
 43
0.01
 10
3.4787
 20
-1.127
 10
3.4621
 20
-1.127
  0
LWPOLYLINE
  5
16C
330
12
100
AcDbEntity
  8
4WAYDRIVER1_DRD
  6
BYLAYER
370
   211
 62
   256
100
AcDbPolyline
 90
     3
 70
     0
 43
0.01
 10
3.462
 20
-1.127
 10
3.4579
 20
-1.1186
 10
3.4579
 20
-1.077
  0
LWPOLYLINE
  5
16D
330
12
100
AcDbEntity
  8
4WAYDRIVER1_DRD
  6
BYLAYER
370
   211
 62
   256
100
AcDbPolyline
 90
     2
 70
     0
 43
0.01
 10
3.4212
 20
-1.0936
 10
3.3962
 20
-1.0936
  0
LWPOLYLINE
  5
16E
330
12
100
AcDbEntity
  8
4WAYDRIVER1_DRD
  6
BYLAYER
370
   211
 62
   256
100
AcDbPolyline
 90
     4
 70
     0
 43
0.01
 10
3.4254
 20
-1.127
 10
3.4087
 20
-1.127
 10
3.4046
 20
-1.1186
 10
3.4046
 20
-1.077
  0
LWPOLYLINE
  5
16F
330
12
100
AcDbEntity
  8
4WAYDRIVER1_DRD
  6
BYLAYER
370
   211
 62
   256
100
AcDbPolyline
 90
     9
 70
     0
 43
0.01
 10
3.3429
 20
-1.127
 10
3.3387
 20
-1.1186
 10
3.3387
 20
-1.102
 10
3.3429
 20
-1.0936
 10
3.3679
 20
-1.0936
 10
3.3721
 20
-1.102
 10
3.3721
 20
-1.1186
 10
3.3679
 20
-1.127
 10
3.3429
 20
-1.127
  0
LWPOLYLINE
  5
170
330
12
100
AcDbEntity
  8
4WAYDRIVER1_DRD
  6
BYLAYER
370
   211
 62
   256
100
AcDbPolyline
 90
     7
 70
     0
 43
0.01
 10
3.2854
 20
-1.0936
 10
3.3104
 20
-1.0936
 10
3.3146
 20
-1.102
 10
3.3146
 20
-1.1186
 10
3.3104
 20
-1.127
 10
3.2854
 20
-1.127
 10
3.2854
 20
-1.077
  0
LWPOLYLINE
  5
171
330
12
100
AcDbEntity
  8
4WAYDRIVER1_DRD
  6
BYLAYER
370
   211
 62
   256
100
AcDbPolyline
 90
     2
 70
     0
 43
0.01
 10
3.1558
 20
-1.127
 10
3.1517
 20
-1.1186
  0
LWPOLYLINE
  5
172
330
12
100
AcDbEntity
  8
4WAYDRIVER1_DRD
  6
BYLAYER
370
   211
 62
   256
100
AcDbPolyline
 90
     2
 70
     0
 43
0.01
 10
3.1516
 20
-1.1186
 10
3.1517
 20
-1.102
  0
LWPOLYLINE
  5
173
330
12
100
AcDbEntity
  8
4WAYDRIVER1_DRD
  6
BYLAYER
370
   211
 62
   256
100
AcDbPolyline
 90
     7
 70
     0
 43
0.01
 10
3.1516
 20
-1.102
 10
3.1558
 20
-1.0936
 10
3.1808
 20
-1.0936
 10
3.185
 20
-1.102
 10
3.185
 20
-1.1186
 10
3.1808
 20
-1.127
 10
3.1558
 20
-1.127
  0
LWPOLYLINE
  5
174
330
12
100
AcDbEntity
  8
4WAYDRIVER1_DRD
  6
BYLAYER
370
   211
 62
   256
100
AcDbPolyline
 90
     5
 70
     0
 43
0.01
 10
3.1275
 20
-1.077
 10
3.1275
 20
-1.127
 10
3.1191
 20
-1.1186
 10
3.1025
 20
-1.0853
 10
3.0942
 20
-1.077
  0
LWPOLYLINE
  5
175
330
12
100
AcDbEntity
  8
4WAYDRIVER1_DRD
  6
BYLAYER
370
   211
 62
   256
100
AcDbPolyline
 90
     2
 70
     0
 43
0.01
 10
3.0941
 20
-1.077
 10
3.0942
 20
-1.127
  0
LWPOLYLINE
  5
176
330
12
100
AcDbEntity
  8
4WAYDRIVER1_DRD
  6
BYLAYER
370
   211
 62
   256
100
AcDbPolyline
 90
    13
 70
     0
 43
0.01
 10
3.3092
 20
1.4612
 10
3.3008
 20
1.4529
 10
3.2925
 20
1.4487
 10
3.2758
 20
1.4487
 10
3.2675
 20
1.4529
 10
3.2592
 20
1.4612
 10
3.2592
 20
1.4696
 10
3.2675
 20
1.4779
 10
3.2758
 20
1.4821
 10
3.2925
 20
1.4821
 10
3.3008
 20
1.4779
 10
3.3092
 20
1.4696
 10
3.3092
 20
1.4612
  0
LWPOLYLINE
  5
177
330
12
100
AcDbEntity
  8
4WAYDRIVER1_DRD
  6
BYLAYER
370
   211
 62
   256
100
AcDbPolyline
 90
     9
 70
     0
 43
0.01
 10
3.3008
 20
1.3912
 10
3.3092
 20
1.3954
 10
3.3092
 20
1.4204
 10
3.3008
 20
1.4246
 10
3.2842
 20
1.4246
 10
3.2758
 20
1.4162
 10
3.2758
 20
1.3912
 10
3.2592
 20
1.3912
 10
3.2592
 20
1.4246
  0
LWPOLYLINE
  5
178
330
12
100
AcDbEntity
  8
4WAYDRIVER1_DRD
  6
BYLAYER
370
   211
 62
   256
100
AcDbPolyline
 90
     3
 70
     0
 43
0.01
 10
3.3092
 20
1.3421
 10
3.2592
 20
1.3671
 10
3.2592
 20
1.3337
  0
LWPOLYLINE
  5
179
330
12
100
AcDbEntity
  8
4WAYDRIVER1_DRD
  6
BYLAYER
370
   211
 62
   256
100
AcDbPolyline
 90
     7
 70
     0
 43
0.01
 10
3.3092
 20
1.3096
 10
3.3092
 20
1.2762
 10
3.2758
 20
1.3096
 10
3.2675
 20
1.3096
 10
3.2592
 20
1.3054
 10
3.2592
 20
1.2804
 10
3.2675
 20
1.2762
  0
LWPOLYLINE
  5
17A
330
12
100
AcDbEntity
  8
4WAYDRIVER1_DRD
  6
BYLAYER
370
   211
 62
   256
100
AcDbPolyline
 90
     3
 70
     0
 43
0.01
 10
1.647
 20
3.0068
 10
1.6387
 20
3.0151
 10
1.6346
 20
3.0235
  0
LWPOLYLINE
  5
17B
330
12
100
AcDbEntity
  8
4WAYDRIVER1_DRD
  6
BYLAYER
370
   211
 62
   256
100
AcDbPolyline
 90
     2
 70
     0
 43
0.01
 10
1.6345
 20
3.0235
 10
1.6346
 20
3.0402
  0
LWPOLYLINE
  5
17C
330
12
100
AcDbEntity
  8
4WAYDRIVER1_DRD
  6
BYLAYER
370
   211
 62
   256
100
AcDbPolyline
 90
     3
 70
     0
 43
0.01
 10
1.6345
 20
3.0402
 10
1.6387
 20
3.0485
 10
1.6471
 20
3.0568
  0
LWPOLYLINE
  5
17D
330
12
100
AcDbEntity
  8
4WAYDRIVER1_DRD
  6
BYLAYER
370
   211
 62
   256
100
AcDbPolyline
 90
     8
 70
     0
 43
0.01
 10
1.647
 20
3.0568
 10
1.6554
 20
3.0568
 10
1.6637
 20
3.0485
 10
1.6679
 20
3.0402
 10
1.6679
 20
3.0235
 10
1.6637
 20
3.0151
 10
1.6554
 20
3.0068
 10
1.6471
 20
3.0068
  0
LWPOLYLINE
  5
17E
330
12
100
AcDbEntity
  8
4WAYDRIVER1_DRD
  6
BYLAYER
370
   211
 62
   256
100
AcDbPolyline
 90
     8
 70
     0
 43
0.01
 10
1.577
 20
3.0151
 10
1.5854
 20
3.0068
 10
1.602
 20
3.0068
 10
1.6104
 20
3.0151
 10
1.6104
 20
3.0235
 10
1.5937
 20
3.0402
 10
1.6104
 20
3.0568
 10
1.5771
 20
3.0568
  0
LWPOLYLINE
  5
17F
330
12
100
AcDbEntity
  8
4WAYDRIVER1_DRD
  6
BYLAYER
370
   211
 62
   256
100
AcDbPolyline
 90
     2
 70
     0
 43
0.01
 10
1.5529
 20
3.0068
 10
1.5362
 20
3.0068
  0
LWPOLYLINE
  5
180
330
12
100
AcDbEntity
  8
4WAYDRIVER1_DRD
  6
BYLAYER
370
   211
 62
   256
100
AcDbPolyline
 90
     3
 70
     0
 43
0.01
 10
1.5446
 20
3.0068
 10
1.5446
 20
3.0568
 10
1.5362
 20
3.0485
  0
LWPOLYLINE
  5
181
330
12
100
AcDbEntity
  8
4WAYDRIVER1_DRD
  6
BYLAYER
370
   211
 62
   256
100
AcDbPolyline
 90
     8
 70
     0
 43
0.01
 10
1.4704
 20
3.0151
 10
1.4787
 20
3.0068
 10
1.4954
 20
3.0068
 10
1.5037
 20
3.0151
 10
1.5037
 20
3.0235
 10
1.4871
 20
3.0402
 10
1.5037
 20
3.0568
 10
1.4704
 20
3.0568
  0
LWPOLYLINE
  5
182
330
12
100
AcDbEntity
  8
4WAYDRIVER1_DRD
  6
BYLAYER
370
   211
 62
   256
100
AcDbPolyline
 90
     2
 70
     0
 43
0.01
 10
-0.5895
 20
-1.0502
 10
-0.6395
 20
-1.0502
  0
LWPOLYLINE
  5
183
330
12
100
AcDbEntity
  8
4WAYDRIVER1_DRD
  6
BYLAYER
370
   211
 62
   256
100
AcDbPolyline
 90
     2
 70
     0
 43
0.01
 10
-0.6145
 20
-1.0252
 10
-0.6145
 20
-1.0752
  0
LWPOLYLINE
  5
184
330
12
100
AcDbEntity
  8
4WAYDRIVER1_DRD
  6
BYLAYER
370
   211
 62
   256
100
AcDbPolyline
 90
     2
 70
     0
 43
0.01
 10
-0.6145
 20
-0.8752
 10
-0.6395
 20
-0.9002
  0
LWPOLYLINE
  5
185
330
12
100
AcDbEntity
  8
4WAYDRIVER1_DRD
  6
BYLAYER
370
   211
 62
   256
100
AcDbPolyline
 90
     2
 70
     0
 43
0.01
 10
-0.5895
 20
-0.9002
 10
-0.6145
 20
-0.8752
  0
LWPOLYLINE
  5
186
330
12
100
AcDbEntity
  8
4WAYDRIVER1_DRD
  6
BYLAYER
370
   211
 62
   256
100
AcDbPolyline
 90
     2
 70
     0
 43
0.01
 10
-0.6145
 20
-0.9252
 10
-0.5895
 20
-0.9002
  0
LWPOLYLINE
  5
187
330
12
100
AcDbEntity
  8
4WAYDRIVER1_DRD
  6
BYLAYER
370
   211
 62
   256
100
AcDbPolyline
 90
     2
 70
     0
 43
0.01
 10
-0.6395
 20
-0.9002
 10
-0.6145
 20
-0.9252
  0
LWPOLYLINE
  5
188
330
12
100
AcDbEntity
  8
4WAYDRIVER1_DRD
  6
BYLAYER
370
   211
 62
   256
100
AcDbPolyline
 90
     2
 70
     0
 43
0.01
 10
-0.5895
 20
-0.7252
 10
-0.6395
 20
-0.7752
  0
LWPOLYLINE
  5
189
330
12
100
AcDbEntity
  8
4WAYDRIVER1_DRD
  6
BYLAYER
370
   211
 62
   256
100
AcDbPolyline
 90
     2
 70
     0
 43
0.01
 10
-0.5895
 20
-0.7752
 10
-0.6395
 20
-0.7252
  0
LWPOLYLINE
  5
18A
330
12
100
AcDbEntity
  8
4WAYDRIVER1_DRD
  6
BYLAYER
370
   211
 62
   256
100
AcDbPolyline
 90
     2
 70
     0
 43
0.01
 10
2.933
 20
-1.3302
 10
-0.802
 20
-1.3302
  0
LWPOLYLINE
  5
18B
330
12
100
AcDbEntity
  8
4WAYDRIVER1_DRD
  6
BYLAYER
370
   211
 62
   256
100
AcDbPolyline
 90
     2
 70
     0
 43
0.01
 10
2.928
 20
-1.3252
 10
-0.797
 20
-1.3252
  0
LWPOLYLINE
  5
18C
330
12
100
AcDbEntity
  8
4WAYDRIVER1_DRD
  6
BYLAYER
370
   211
 62
   256
100
AcDbPolyline
 90
     2
 70
     0
 43
0.01
 10
2.928
 20
-1.1252
 10
-0.797
 20
-1.1252
  0
LWPOLYLINE
  5
18D
330
12
100
AcDbEntity
  8
4WAYDRIVER1_DRD
  6
BYLAYER
370
   211
 62
   256
100
AcDbPolyline
 90
     2
 70
     0
 43
0.01
 10
2.928
 20
-0.9752
 10
-0.797
 20
-0.9752
  0
LWPOLYLINE
  5
18E
330
12
100
AcDbEntity
  8
4WAYDRIVER1_DRD
  6
BYLAYER
370
   211
 62
   256
100
AcDbPolyline
 90
     2
 70
     0
 43
0.01
 10
2.928
 20
-0.8252
 10
-0.797
 20
-0.8252
  0
LWPOLYLINE
  5
18F
330
12
100
AcDbEntity
  8
4WAYDRIVER1_DRD
  6
BYLAYER
370
   211
 62
   256
100
AcDbPolyline
 90
     2
 70
     0
 43
0.01
 10
2.928
 20
-0.6752
 10
-0.797
 20
-0.6752
  0
LWPOLYLINE
  5
190
330
12
100
AcDbEntity
  8
4WAYDRIVER1_DRD
  6
BYLAYER
370
   211
 62
   256
100
AcDbPolyline
 90
     2
 70
     0
 43
0.01
 10
2.928
 20
-0.6702
 10
-0.797
 20
-0.6702
  0
LWPOLYLINE
  5
191
330
12
100
AcDbEntity
  8
4WAYDRIVER1_DRD
  6
BYLAYER
370
   211
 62
   256
100
AcDbPolyline
 90
     2
 70
     0
 43
0.01
 10
2.928
 20
-0.4752
 10
-0.797
 20
-0.4752
  0
LWPOLYLINE
  5
192
330
12
100
AcDbEntity
  8
4WAYDRIVER1_DRD
  6
BYLAYER
370
   211
 62
   256
100
AcDbPolyline
 90
     2
 70
     0
 43
0.01
 10
2.928
 20
-0.4702
 10
-0.797
 20
-0.4702
  0
LWPOLYLINE
  5
193
330
12
100
AcDbEntity
  8
4WAYDRIVER1_DRD
  6
BYLAYER
370
   211
 62
   256
100
AcDbPolyline
 90
     2
 70
     0
 43
0.01
 10
2.928
 20
-0.2752
 10
-0.797
 20
-0.2752
  0
LWPOLYLINE
  5
194
330
12
100
AcDbEntity
  8
4WAYDRIVER1_DRD
  6
BYLAYER
370
   211
 62
   256
100
AcDbPolyline
 90
     2
 70
     0
 43
0.01
 10
2.933
 20
-0.2702
 10
-0.802
 20
-0.2702
  0
LWPOLYLINE
  5
195
330
12
100
AcDbEntity
  8
4WAYDRIVER1_DRD
  6
BYLAYER
370
   211
 62
   256
100
AcDbPolyline
 90
     2
 70
     0
 43
0.01
 10
2.933
 20
-1.3252
 10
2.933
 20
-0.2752
  0
LWPOLYLINE
  5
196
330
12
100
AcDbEntity
  8
4WAYDRIVER1_DRD
  6
BYLAYER
370
   211
 62
   256
100
AcDbPolyline
 90
     2
 70
     0
 43
0.01
 10
2.928
 20
-1.3252
 10
2.928
 20
-0.2752
  0
LWPOLYLINE
  5
197
330
12
100
AcDbEntity
  8
4WAYDRIVER1_DRD
  6
BYLAYER
370
   211
 62
   256
100
AcDbPolyline
 90
     2
 70
     0
 43
0.01
 10
1.7738
 20
-1.3252
 10
1.7738
 20
-0.4752
  0
LWPOLYLINE
  5
198
330
12
100
AcDbEntity
  8
4WAYDRIVER1_DRD
  6
BYLAYER
370
   211
 62
   256
100
AcDbPolyline
 90
     2
 70
     0
 43
0.01
 10
1.2188
 20
-1.3252
 10
1.2188
 20
-0.4752
  0
LWPOLYLINE
  5
199
330
12
100
AcDbEntity
  8
4WAYDRIVER1_DRD
  6
BYLAYER
370
   211
 62
   256
100
AcDbPolyline
 90
     2
 70
     0
 43
0.01
 10
0.4122
 20
-1.1252
 10
0.4122
 20
-0.4752
  0
LWPOLYLINE
  5
19A
330
12
100
AcDbEntity
  8
4WAYDRIVER1_DRD
  6
BYLAYER
370
   211
 62
   256
100
AcDbPolyline
 90
     2
 70
     0
 43
0.01
 10
-0.427
 20
-1.1252
 10
-0.427
 20
-0.4752
  0
LWPOLYLINE
  5
19B
330
12
100
AcDbEntity
  8
4WAYDRIVER1_DRD
  6
BYLAYER
370
   211
 62
   256
100
AcDbPolyline
 90
     2
 70
     0
 43
0.01
 10
-0.432
 20
-1.1252
 10
-0.432
 20
-0.4752
  0
LWPOLYLINE
  5
19C
330
12
100
AcDbEntity
  8
4WAYDRIVER1_DRD
  6
BYLAYER
370
   211
 62
   256
100
AcDbPolyline
 90
     2
 70
     0
 43
0.01
 10
-0.802
 20
-1.3252
 10
-0.802
 20
-0.2752
  0
LWPOLYLINE
  5
19D
330
12
100
AcDbEntity
  8
4WAYDRIVER1_DRD
  6
BYLAYER
370
   211
 62
   256
100
AcDbPolyline
 90
     2
 70
     0
 43
0.01
 10
-0.797
 20
-1.3252
 10
-0.797
 20
-0.2752
  0
LWPOLYLINE
  5
19E
330
12
100
AcDbEntity
  8
4WAYDRIVER1_DRD
  6
BYLAYER
370
   211
 62
   256
100
AcDbPolyline
 90
     5
 70
     0
 43
0.01
 10
1.645
 20
2.05
 10
1.945
 20
2.05
 10
1.945
 20
1.485
 10
1.645
 20
1.485
 10
1.645
 20
2.05
  0
LWPOLYLINE
  5
19F
330
12
100
AcDbEntity
  8
4WAYDRIVER1_DRD
  6
BYLAYER
370
   211
 62
   256
100
AcDbPolyline
 90
     2
 70
     0
 43
0.01
 10
3.28
 20
1.2158
 10
3.28
 20
0.0
  0
LWPOLYLINE
  5
1A0
330
12
100
AcDbEntity
  8
4WAYDRIVER1_DRD
  6
BYLAYER
370
   211
 62
   256
100
AcDbPolyline
 90
     3
 70
     0
 43
0.01
 10
3.2987
 20
0.0562
 10
3.28
 20
0.0
 10
3.2612
 20
0.0562
  0
LWPOLYLINE
  5
1A1
330
12
100
AcDbEntity
  8
4WAYDRIVER1_DRD
  6
BYLAYER
370
   211
 62
   256
100
AcDbPolyline
 90
     2
 70
     0
 43
0.01
 10
3.13
 20
2.9235
 10
3.13
 20
3.1485
  0
LWPOLYLINE
  5
1A2
330
12
100
AcDbEntity
  8
4WAYDRIVER1_DRD
  6
BYLAYER
370
   211
 62
   256
100
AcDbPolyline
 90
     2
 70
     0
 43
0.01
 10
1.72
 20
3.036
 10
3.13
 20
3.036
  0
LWPOLYLINE
  5
1A3
330
12
100
AcDbEntity
  8
4WAYDRIVER1_DRD
  6
BYLAYER
370
   211
 62
   256
100
AcDbPolyline
 90
     3
 70
     0
 43
0.01
 10
3.0737
 20
3.0547
 10
3.13
 20
3.036
 10
3.0737
 20
3.0172
  0
LWPOLYLINE
  5
1A4
330
12
100
AcDbEntity
  8
4WAYDRIVER1_DRD
  6
BYLAYER
370
   211
 62
   256
100
AcDbPolyline
 90
     2
 70
     0
 43
0.01
 10
-1.11022302463E-016
 20
2.9235
 10
-1.11022302463E-016
 20
3.1485
  0
LWPOLYLINE
  5
1A5
330
12
100
AcDbEntity
  8
4WAYDRIVER1_DRD
  6
BYLAYER
370
   211
 62
   256
100
AcDbPolyline
 90
     2
 70
     0
 43
0.01
 10
1.41
 20
3.036
 10
-1.11022302463E-016
 20
3.036
  0
LWPOLYLINE
  5
1A6
330
12
100
AcDbEntity
  8
4WAYDRIVER1_DRD
  6
BYLAYER
370
   211
 62
   256
100
AcDbPolyline
 90
     3
 70
     0
 43
0.01
 10
0.0562
 20
3.0172
 10
-1.11022302463E-016
 20
3.036
 10
0.0562
 20
3.0547
  0
LWPOLYLINE
  5
1A7
330
12
100
AcDbEntity
  8
4WAYDRIVER1_DRD
  6
BYLAYER
370
   211
 62
   256
100
AcDbPolyline
 90
     2
 70
     0
 43
0.01
 10
3.3925
 20
2.75
 10
3.1675
 20
2.75
  0
LWPOLYLINE
  5
1A8
330
12
100
AcDbEntity
  8
4WAYDRIVER1_DRD
  6
BYLAYER
370
   211
 62
   256
100
AcDbPolyline
 90
     2
 70
     0
 43
0.01
 10
3.28
 20
1.5342
 10
3.28
 20
2.75
  0
LWPOLYLINE
  5
1A9
330
12
100
AcDbEntity
  8
4WAYDRIVER1_DRD
  6
BYLAYER
370
   211
 62
   256
100
AcDbPolyline
 90
     3
 70
     0
 43
0.01
 10
3.2612
 20
2.6937
 10
3.28
 20
2.75
 10
3.2987
 20
2.6937
  0
LWPOLYLINE
  5
1AA
330
12
100
AcDbEntity
  8
4WAYDRIVER1_DRD
  6
BYLAYER
370
   211
 62
   256
100
AcDbPolyline
 90
     2
 70
     0
 43
0.01
 10
3.3925
 20
0.0
 10
3.1675
 20
0.0
  0
LWPOLYLINE
  5
1AB
330
12
100
AcDbEntity
  8
4WAYDRIVER1_DRD
  6
BYLAYER
370
   211
 62
   256
100
AcDbPolyline
 90
     5
 70
     0
 43
0.01
 10
2.245
 20
0.75
 10
2.545
 20
0.75
 10
2.545
 20
0.185
 10
2.245
 20
0.185
 10
2.245
 20
0.75
  0
LWPOLYLINE
  5
1AC
330
12
100
AcDbEntity
  8
4WAYDRIVER1_DRD
  6
BYLAYER
370
   211
 62
   256
100
AcDbPolyline
 90
     5
 70
     0
 43
0.01
 10
1.055
 20
0.75
 10
1.055
 20
0.185
 10
1.355
 20
0.185
 10
1.355
 20
0.75
 10
1.055
 20
0.75
  0
LWPOLYLINE
  5
1AD
330
12
100
AcDbEntity
  8
4WAYDRIVER1_DRD
  6
BYLAYER
370
   211
 62
   256
100
AcDbPolyline
 90
     5
 70
     0
 43
0.01
 10
-1.11022302463E-016
 20
2.75
 10
3.13
 20
2.75
 10
3.13
 20
0.0
 10
-1.11022302463E-016
 20
0.0
 10
-1.11022302463E-016
 20
2.75
  0
LWPOLYLINE
  5
1AE
330
12
100
AcDbEntity
  8
4WAYDRIVER1_DRD
  6
BYLAYER
370
   211
 62
   256
100
AcDbPolyline
 90
     2
 70
     0
 43
0.01
 10
2.99
 20
0.74
 10
2.94
 20
0.74
  0
LWPOLYLINE
  5
1AF
330
12
100
AcDbEntity
  8
4WAYDRIVER1_DRD
  6
BYLAYER
370
   211
 62
   256
100
AcDbPolyline
 90
     2
 70
     0
 43
0.01
 10
2.965
 20
0.765
 10
2.965
 20
0.715
  0
LWPOLYLINE
  5
1B0
330
12
100
AcDbEntity
  8
4WAYDRIVER1_DRD
  6
BYLAYER
370
   211
 62
   256
100
AcDbPolyline
 90
     2
 70
     0
 43
0.01
 10
0.395
 20
0.74
 10
0.345
 20
0.74
  0
LWPOLYLINE
  5
1B1
330
12
100
AcDbEntity
  8
4WAYDRIVER1_DRD
  6
BYLAYER
370
   211
 62
   256
100
AcDbPolyline
 90
     2
 70
     0
 43
0.01
 10
0.37
 20
0.765
 10
0.37
 20
0.715
  0
LWPOLYLINE
  5
1B2
330
12
100
AcDbEntity
  8
4WAYDRIVER1_DRD
  6
BYLAYER
370
   211
 62
   256
100
AcDbPolyline
 90
     2
 70
     0
 43
0.01
 10
2.565
 20
2.2
 10
2.515
 20
2.2
  0
LWPOLYLINE
  5
1B3
330
12
100
AcDbEntity
  8
4WAYDRIVER1_DRD
  6
BYLAYER
370
   211
 62
   256
100
AcDbPolyline
 90
     2
 70
     0
 43
0.01
 10
2.54
 20
2.225
 10
2.54
 20
2.175
  0
LWPOLYLINE
  5
1B4
330
12
100
AcDbEntity
  8
4WAYDRIVER1_DRD
  6
BYLAYER
370
   211
 62
   256
100
AcDbPolyline
 90
     2
 70
     0
 43
0.01
 10
1.795
 20
1.66
 10
1.77
 20
1.635
  0
LWPOLYLINE
  5
1B5
330
12
100
AcDbEntity
  8
4WAYDRIVER1_DRD
  6
BYLAYER
370
   211
 62
   256
100
AcDbPolyline
 90
     2
 70
     0
 43
0.01
 10
1.82
 20
1.635
 10
1.795
 20
1.66
  0
LWPOLYLINE
  5
1B6
330
12
100
AcDbEntity
  8
4WAYDRIVER1_DRD
  6
BYLAYER
370
   211
 62
   256
100
AcDbPolyline
 90
     2
 70
     0
 43
0.01
 10
1.795
 20
1.61
 10
1.82
 20
1.635
  0
LWPOLYLINE
  5
1B7
330
12
100
AcDbEntity
  8
4WAYDRIVER1_DRD
  6
BYLAYER
370
   211
 62
   256
100
AcDbPolyline
 90
     2
 70
     0
 43
0.01
 10
1.77
 20
1.635
 10
1.795
 20
1.61
  0
LWPOLYLINE
  5
1B8
330
12
100
AcDbEntity
  8
4WAYDRIVER1_DRD
  6
BYLAYER
370
   211
 62
   256
100
AcDbPolyline
 90
     2
 70
     0
 43
0.01
 10
0.385
 20
1.405
 10
0.335
 20
1.355
  0
LWPOLYLINE
  5
1B9
330
12
100
AcDbEntity
  8
4WAYDRIVER1_DRD
  6
BYLAYER
370
   211
 62
   256
100
AcDbPolyline
 90
     2
 70
     0
 43
0.01
 10
0.385
 20
1.355
 10
0.335
 20
1.405
  0
LWPOLYLINE
  5
1BA
330
12
100
AcDbEntity
  8
4WAYDRIVER1_DRD
  6
BYLAYER
370
   211
 62
   256
100
AcDbPolyline
 90
     2
 70
     0
 43
0.01
 10
1.62
 20
2.655
 10
1.595
 20
2.63
  0
LWPOLYLINE
  5
1BB
330
12
100
AcDbEntity
  8
4WAYDRIVER1_DRD
  6
BYLAYER
370
   211
 62
   256
100
AcDbPolyline
 90
     2
 70
     0
 43
0.01
 10
1.645
 20
2.63
 10
1.62
 20
2.655
  0
LWPOLYLINE
  5
1BC
330
12
100
AcDbEntity
  8
4WAYDRIVER1_DRD
  6
BYLAYER
370
   211
 62
   256
100
AcDbPolyline
 90
     2
 70
     0
 43
0.01
 10
1.62
 20
2.605
 10
1.645
 20
2.63
  0
LWPOLYLINE
  5
1BD
330
12
100
AcDbEntity
  8
4WAYDRIVER1_DRD
  6
BYLAYER
370
   211
 62
   256
100
AcDbPolyline
 90
     2
 70
     0
 43
0.01
 10
1.595
 20
2.63
 10
1.62
 20
2.605
  0
LWPOLYLINE
  5
1BE
330
12
100
AcDbEntity
  8
4WAYDRIVER1_DRD
  6
BYLAYER
370
   211
 62
   256
100
AcDbPolyline
 90
     2
 70
     0
 43
0.01
 10
3.01
 20
1.4
 10
2.985
 20
1.375
  0
LWPOLYLINE
  5
1BF
330
12
100
AcDbEntity
  8
4WAYDRIVER1_DRD
  6
BYLAYER
370
   211
 62
   256
100
AcDbPolyline
 90
     2
 70
     0
 43
0.01
 10
3.035
 20
1.375
 10
3.01
 20
1.4
  0
LWPOLYLINE
  5
1C0
330
12
100
AcDbEntity
  8
4WAYDRIVER1_DRD
  6
BYLAYER
370
   211
 62
   256
100
AcDbPolyline
 90
     2
 70
     0
 43
0.01
 10
3.01
 20
1.35
 10
3.035
 20
1.375
  0
LWPOLYLINE
  5
1C1
330
12
100
AcDbEntity
  8
4WAYDRIVER1_DRD
  6
BYLAYER
370
   211
 62
   256
100
AcDbPolyline
 90
     2
 70
     0
 43
0.01
 10
2.985
 20
1.375
 10
3.01
 20
1.35
  0
LWPOLYLINE
  5
1C2
330
12
100
AcDbEntity
  8
4WAYDRIVER1_DRD
  6
BYLAYER
370
   211
 62
   256
100
AcDbPolyline
 90
     2
 70
     0
 43
0.01
 10
0.12
 20
1.4
 10
0.095
 20
1.375
  0
LWPOLYLINE
  5
1C3
330
12
100
AcDbEntity
  8
4WAYDRIVER1_DRD
  6
BYLAYER
370
   211
 62
   256
100
AcDbPolyline
 90
     2
 70
     0
 43
0.01
 10
0.145
 20
1.375
 10
0.12
 20
1.4
  0
LWPOLYLINE
  5
1C4
330
12
100
AcDbEntity
  8
4WAYDRIVER1_DRD
  6
BYLAYER
370
   211
 62
   256
100
AcDbPolyline
 90
     2
 70
     0
 43
0.01
 10
0.12
 20
1.35
 10
0.145
 20
1.375
  0
LWPOLYLINE
  5
1C5
330
12
100
AcDbEntity
  8
4WAYDRIVER1_DRD
  6
BYLAYER
370
   211
 62
   256
100
AcDbPolyline
 90
     2
 70
     0
 43
0.01
 10
0.095
 20
1.375
 10
0.12
 20
1.35
  0
LWPOLYLINE
  5
1C6
330
12
100
AcDbEntity
  8
4WAYDRIVER1_DRD
  6
BYLAYER
370
   211
 62
   256
100
AcDbPolyline
 90
     2
 70
     0
 43
0.01
 10
1.795
 20
0.98
 10
1.77
 20
0.955
  0
LWPOLYLINE
  5
1C7
330
12
100
AcDbEntity
  8
4WAYDRIVER1_DRD
  6
BYLAYER
370
   211
 62
   256
100
AcDbPolyline
 90
     2
 70
     0
 43
0.01
 10
1.82
 20
0.955
 10
1.795
 20
0.98
  0
LWPOLYLINE
  5
1C8
330
12
100
AcDbEntity
  8
4WAYDRIVER1_DRD
  6
BYLAYER
370
   211
 62
   256
100
AcDbPolyline
 90
     2
 70
     0
 43
0.01
 10
1.795
 20
0.93
 10
1.82
 20
0.955
  0
LWPOLYLINE
  5
1C9
330
12
100
AcDbEntity
  8
4WAYDRIVER1_DRD
  6
BYLAYER
370
   211
 62
   256
100
AcDbPolyline
 90
     2
 70
     0
 43
0.01
 10
1.77
 20
0.955
 10
1.795
 20
0.93
  0
LWPOLYLINE
  5
1CA
330
12
100
AcDbEntity
  8
4WAYDRIVER1_DRD
  6
BYLAYER
370
   211
 62
   256
100
AcDbPolyline
 90
     2
 70
     0
 43
0.01
 10
3.01
 20
0.145
 10
2.985
 20
0.12
  0
LWPOLYLINE
  5
1CB
330
12
100
AcDbEntity
  8
4WAYDRIVER1_DRD
  6
BYLAYER
370
   211
 62
   256
100
AcDbPolyline
 90
     2
 70
     0
 43
0.01
 10
3.035
 20
0.12
 10
3.01
 20
0.145
  0
LWPOLYLINE
  5
1CC
330
12
100
AcDbEntity
  8
4WAYDRIVER1_DRD
  6
BYLAYER
370
   211
 62
   256
100
AcDbPolyline
 90
     2
 70
     0
 43
0.01
 10
3.01
 20
0.095
 10
3.035
 20
0.12
  0
LWPOLYLINE
  5
1CD
330
12
100
AcDbEntity
  8
4WAYDRIVER1_DRD
  6
BYLAYER
370
   211
 62
   256
100
AcDbPolyline
 90
     2
 70
     0
 43
0.01
 10
2.985
 20
0.12
 10
3.01
 20
0.095
  0
LWPOLYLINE
  5
1CE
330
12
100
AcDbEntity
  8
4WAYDRIVER1_DRD
  6
BYLAYER
370
   211
 62
   256
100
AcDbPolyline
 90
     2
 70
     0
 43
0.01
 10
0.12
 20
0.145
 10
0.095
 20
0.12
  0
LWPOLYLINE
  5
1CF
330
12
100
AcDbEntity
  8
4WAYDRIVER1_DRD
  6
BYLAYER
370
   211
 62
   256
100
AcDbPolyline
 90
     2
 70
     0
 43
0.01
 10
0.145
 20
0.12
 10
0.12
 20
0.145
  0
LWPOLYLINE
  5
1D0
330
12
100
AcDbEntity
  8
4WAYDRIVER1_DRD
  6
BYLAYER
370
   211
 62
   256
100
AcDbPolyline
 90
     2
 70
     0
 43
0.01
 10
0.12
 20
0.095
 10
0.145
 20
0.12
  0
LWPOLYLINE
  5
1D1
330
12
100
AcDbEntity
  8
4WAYDRIVER1_DRD
  6
BYLAYER
370
   211
 62
   256
100
AcDbPolyline
 90
     2
 70
     0
 43
0.01
 10
0.095
 20
0.12
 10
0.12
 20
0.095
  0
LWPOLYLINE
  5
1D2
330
12
100
AcDbEntity
  8
4WAYDRIVER1_DRD
  6
BYLAYER
370
   211
 62
   256
100
AcDbPolyline
 90
     2
 70
     0
 43
0.01
 10
0.12
 20
2.655
 10
0.095
 20
2.63
  0
LWPOLYLINE
  5
1D3
330
12
100
AcDbEntity
  8
4WAYDRIVER1_DRD
  6
BYLAYER
370
   211
 62
   256
100
AcDbPolyline
 90
     2
 70
     0
 43
0.01
 10
0.145
 20
2.63
 10
0.12
 20
2.655
  0
LWPOLYLINE
  5
1D4
330
12
100
AcDbEntity
  8
4WAYDRIVER1_DRD
  6
BYLAYER
370
   211
 62
   256
100
AcDbPolyline
 90
     2
 70
     0
 43
0.01
 10
0.12
 20
2.605
 10
0.145
 20
2.63
  0
LWPOLYLINE
  5
1D5
330
12
100
AcDbEntity
  8
4WAYDRIVER1_DRD
  6
BYLAYER
370
   211
 62
   256
100
AcDbPolyline
 90
     2
 70
     0
 43
0.01
 10
0.095
 20
2.63
 10
0.12
 20
2.605
  0
LWPOLYLINE
  5
1D6
330
12
100
AcDbEntity
  8
4WAYDRIVER1_DRD
  6
BYLAYER
370
   211
 62
   256
100
AcDbPolyline
 90
     2
 70
     0
 43
0.01
 10
2.395
 20
0.625
 10
2.37
 20
0.6
  0
LWPOLYLINE
  5
1D7
330
12
100
AcDbEntity
  8
4WAYDRIVER1_DRD
  6
BYLAYER
370
   211
 62
   256
100
AcDbPolyline
 90
     2
 70
     0
 43
0.01
 10
2.42
 20
0.6
 10
2.395
 20
0.625
  0
LWPOLYLINE
  5
1D8
330
12
100
AcDbEntity
  8
4WAYDRIVER1_DRD
  6
BYLAYER
370
   211
 62
   256
100
AcDbPolyline
 90
     2
 70
     0
 43
0.01
 10
2.395
 20
0.575
 10
2.42
 20
0.6
  0
LWPOLYLINE
  5
1D9
330
12
100
AcDbEntity
  8
4WAYDRIVER1_DRD
  6
BYLAYER
370
   211
 62
   256
100
AcDbPolyline
 90
     2
 70
     0
 43
0.01
 10
2.37
 20
0.6
 10
2.395
 20
0.575
  0
LWPOLYLINE
  5
1DA
330
12
100
AcDbEntity
  8
4WAYDRIVER1_DRD
  6
BYLAYER
370
   211
 62
   256
100
AcDbPolyline
 90
     2
 70
     0
 43
0.01
 10
1.205
 20
0.625
 10
1.18
 20
0.6
  0
LWPOLYLINE
  5
1DB
330
12
100
AcDbEntity
  8
4WAYDRIVER1_DRD
  6
BYLAYER
370
   211
 62
   256
100
AcDbPolyline
 90
     2
 70
     0
 43
0.01
 10
1.23
 20
0.6
 10
1.205
 20
0.625
  0
LWPOLYLINE
  5
1DC
330
12
100
AcDbEntity
  8
4WAYDRIVER1_DRD
  6
BYLAYER
370
   211
 62
   256
100
AcDbPolyline
 90
     2
 70
     0
 43
0.01
 10
1.205
 20
0.575
 10
1.23
 20
0.6
  0
LWPOLYLINE
  5
1DD
330
12
100
AcDbEntity
  8
4WAYDRIVER1_DRD
  6
BYLAYER
370
   211
 62
   256
100
AcDbPolyline
 90
     2
 70
     0
 43
0.01
 10
1.18
 20
0.6
 10
1.205
 20
0.575
  0
LWPOLYLINE
  5
1DE
330
12
100
AcDbEntity
  8
4WAYDRIVER1_DRD
  6
BYLAYER
370
   211
 62
   256
100
AcDbPolyline
 90
     2
 70
     0
 43
0.01
 10
3.01
 20
2.655
 10
2.985
 20
2.63
  0
LWPOLYLINE
  5
1DF
330
12
100
AcDbEntity
  8
4WAYDRIVER1_DRD
  6
BYLAYER
370
   211
 62
   256
100
AcDbPolyline
 90
     2
 70
     0
 43
0.01
 10
3.035
 20
2.63
 10
3.01
 20
2.655
  0
LWPOLYLINE
  5
1E0
330
12
100
AcDbEntity
  8
4WAYDRIVER1_DRD
  6
BYLAYER
370
   211
 62
   256
100
AcDbPolyline
 90
     2
 70
     0
 43
0.01
 10
3.01
 20
2.605
 10
3.035
 20
2.63
  0
LWPOLYLINE
  5
1E1
330
12
100
AcDbEntity
  8
4WAYDRIVER1_DRD
  6
BYLAYER
370
   211
 62
   256
100
AcDbPolyline
 90
     2
 70
     0
 43
0.01
 10
2.985
 20
2.63
 10
3.01
 20
2.605
  0
LWPOLYLINE
  5
1E2
330
12
100
AcDbEntity
  8
4WAYDRIVER1_DRD
  6
BYLAYER
370
   211
 62
   256
100
AcDbPolyline
 90
     2
 70
     0
 43
0.006
 10
1.8699
 20
1.9391
 10
1.8699
 20
1.9225
  0
LWPOLYLINE
  5
1E3
330
12
100
AcDbEntity
  8
4WAYDRIVER1_DRD
  6
BYLAYER
370
   211
 62
   256
100
AcDbPolyline
 90
     4
 70
     0
 43
0.006
 10
1.8921
 20
1.9419
 10
1.8921
 20
1.9308
 10
1.8865
 20
1.928
 10
1.8588
 20
1.928
  0
LWPOLYLINE
  5
1E4
330
12
100
AcDbEntity
  8
4WAYDRIVER1_DRD
  6
BYLAYER
370
   211
 62
   256
100
AcDbPolyline
 90
     9
 70
     0
 43
0.006
 10
1.8921
 20
1.8882
 10
1.8865
 20
1.8855
 10
1.8754
 20
1.8855
 10
1.8699
 20
1.8882
 10
1.8699
 20
1.9049
 10
1.8754
 20
1.9077
 10
1.8865
 20
1.9077
 10
1.8921
 20
1.9049
 10
1.8921
 20
1.8882
  0
LWPOLYLINE
  5
1E5
330
12
100
AcDbEntity
  8
4WAYDRIVER1_DRD
  6
BYLAYER
370
   211
 62
   256
100
AcDbPolyline
 90
     2
 70
     0
 43
0.006
 10
1.8921
 20
1.8707
 10
1.8921
 20
1.8596
  0
LWPOLYLINE
  5
1E6
330
12
100
AcDbEntity
  8
4WAYDRIVER1_DRD
  6
BYLAYER
370
   211
 62
   256
100
AcDbPolyline
 90
     3
 70
     0
 43
0.006
 10
1.8921
 20
1.8651
 10
1.8588
 20
1.8651
 10
1.8588
 20
1.8596
  0
LWPOLYLINE
  5
1E7
330
12
100
AcDbEntity
  8
4WAYDRIVER1_DRD
  6
BYLAYER
370
   211
 62
   256
100
AcDbPolyline
 90
    12
 70
     0
 43
0.006
 10
1.8643
 20
1.842
 10
1.8588
 20
1.8393
 10
1.8588
 20
1.8226
 10
1.8643
 20
1.8198
 10
1.8699
 20
1.8198
 10
1.8754
 20
1.8226
 10
1.8754
 20
1.8393
 10
1.881
 20
1.842
 10
1.8865
 20
1.842
 10
1.8921
 20
1.8393
 10
1.8921
 20
1.8226
 10
1.8865
 20
1.8198
  0
LWPOLYLINE
  5
1E8
330
12
100
AcDbEntity
  8
4WAYDRIVER1_DRD
  6
BYLAYER
370
   211
 62
   256
100
AcDbPolyline
 90
     7
 70
     0
 43
0.006
 10
1.8588
 20
1.7555
 10
1.8921
 20
1.7555
 10
1.8921
 20
1.7389
 10
1.8865
 20
1.7361
 10
1.8754
 20
1.7361
 10
1.8699
 20
1.7389
 10
1.8699
 20
1.7555
  0
LWPOLYLINE
  5
1E9
330
12
100
AcDbEntity
  8
4WAYDRIVER1_DRD
  6
BYLAYER
370
   211
 62
   256
100
AcDbPolyline
 90
     9
 70
     0
 43
0.006
 10
1.8921
 20
1.7185
 10
1.8921
 20
1.7019
 10
1.8865
 20
1.6991
 10
1.8754
 20
1.6991
 10
1.8699
 20
1.7019
 10
1.8699
 20
1.7185
 10
1.8754
 20
1.7213
 10
1.881
 20
1.7213
 10
1.881
 20
1.6991
  0
LWPOLYLINE
  5
1EA
330
12
100
AcDbEntity
  8
4WAYDRIVER1_DRD
  6
BYLAYER
370
   211
 62
   256
100
AcDbPolyline
 90
     2
 70
     0
 43
0.006
 10
1.8699
 20
1.6815
 10
1.8699
 20
1.6649
  0
LWPOLYLINE
  5
1EB
330
12
100
AcDbEntity
  8
4WAYDRIVER1_DRD
  6
BYLAYER
370
   211
 62
   256
100
AcDbPolyline
 90
     4
 70
     0
 43
0.006
 10
1.8921
 20
1.6843
 10
1.8921
 20
1.6732
 10
1.8865
 20
1.6704
 10
1.8588
 20
1.6704
  0
LWPOLYLINE
  5
1EC
330
12
100
AcDbEntity
  8
4WAYDRIVER1_DRD
  6
BYLAYER
370
   211
 62
   256
100
AcDbPolyline
 90
     2
 70
     0
 43
0.006
 10
1.8699
 20
1.6473
 10
1.8921
 20
1.6473
  0
LWPOLYLINE
  5
1ED
330
12
100
AcDbEntity
  8
4WAYDRIVER1_DRD
  6
BYLAYER
370
   211
 62
   256
100
AcDbPolyline
 90
     4
 70
     0
 43
0.006
 10
1.8921
 20
1.6501
 10
1.8921
 20
1.6307
 10
1.8865
 20
1.6279
 10
1.8699
 20
1.6279
  0
LWPOLYLINE
  5
1EE
330
12
100
AcDbEntity
  8
4WAYDRIVER1_DRD
  6
BYLAYER
370
   211
 62
   256
100
AcDbPolyline
 90
     9
 70
     0
 43
0.006
 10
1.8921
 20
1.5937
 10
1.8865
 20
1.5909
 10
1.8754
 20
1.5909
 10
1.8699
 20
1.5937
 10
1.8699
 20
1.6103
 10
1.8754
 20
1.6131
 10
1.8865
 20
1.6131
 10
1.8921
 20
1.6103
 10
1.8921
 20
1.5937
  0
LWPOLYLINE
  5
1EF
330
12
100
AcDbEntity
  8
4WAYDRIVER1_DRD
  6
BYLAYER
370
   211
 62
   256
100
AcDbPolyline
 90
     2
 70
     0
 43
0.006
 10
1.8754
 20
1.5678
 10
1.8921
 20
1.5761
  0
LWPOLYLINE
  5
1F0
330
12
100
AcDbEntity
  8
4WAYDRIVER1_DRD
  6
BYLAYER
370
   211
 62
   256
100
AcDbPolyline
 90
     7
 70
     0
 43
0.006
 10
1.8754
 20
1.5539
 10
1.8754
 20
1.5705
 10
1.8699
 20
1.5761
 10
1.8643
 20
1.5761
 10
1.8588
 20
1.5705
 10
1.8588
 20
1.5539
 10
1.8921
 20
1.5539
  0
LWPOLYLINE
  5
1F1
330
12
100
AcDbEntity
  8
4WAYDRIVER1_DRD
  6
BYLAYER
370
   211
 62
   256
100
AcDbPolyline
 90
     2
 70
     0
 43
0.006
 10
2.3029
 20
0.6641
 10
2.3029
 20
0.6475
  0
LWPOLYLINE
  5
1F2
330
12
100
AcDbEntity
  8
4WAYDRIVER1_DRD
  6
BYLAYER
370
   211
 62
   256
100
AcDbPolyline
 90
     4
 70
     0
 43
0.006
 10
2.3251
 20
0.6669
 10
2.3251
 20
0.6558
 10
2.3195
 20
0.653
 10
2.2918
 20
0.653
  0
LWPOLYLINE
  5
1F3
330
12
100
AcDbEntity
  8
4WAYDRIVER1_DRD
  6
BYLAYER
370
   211
 62
   256
100
AcDbPolyline
 90
     9
 70
     0
 43
0.006
 10
2.3251
 20
0.6132
 10
2.3195
 20
0.6105
 10
2.3084
 20
0.6105
 10
2.3029
 20
0.6132
 10
2.3029
 20
0.6299
 10
2.3084
 20
0.6327
 10
2.3195
 20
0.6327
 10
2.3251
 20
0.6299
 10
2.3251
 20
0.6132
  0
LWPOLYLINE
  5
1F4
330
12
100
AcDbEntity
  8
4WAYDRIVER1_DRD
  6
BYLAYER
370
   211
 62
   256
100
AcDbPolyline
 90
     2
 70
     0
 43
0.006
 10
2.3251
 20
0.5957
 10
2.3251
 20
0.5846
  0
LWPOLYLINE
  5
1F5
330
12
100
AcDbEntity
  8
4WAYDRIVER1_DRD
  6
BYLAYER
370
   211
 62
   256
100
AcDbPolyline
 90
     3
 70
     0
 43
0.006
 10
2.3251
 20
0.5901
 10
2.2918
 20
0.5901
 10
2.2918
 20
0.5846
  0
LWPOLYLINE
  5
1F6
330
12
100
AcDbEntity
  8
4WAYDRIVER1_DRD
  6
BYLAYER
370
   211
 62
   256
100
AcDbPolyline
 90
    12
 70
     0
 43
0.006
 10
2.2973
 20
0.567
 10
2.2918
 20
0.5643
 10
2.2918
 20
0.5476
 10
2.2973
 20
0.5448
 10
2.3029
 20
0.5448
 10
2.3084
 20
0.5476
 10
2.3084
 20
0.5643
 10
2.314
 20
0.567
 10
2.3195
 20
0.567
 10
2.3251
 20
0.5643
 10
2.3251
 20
0.5476
 10
2.3195
 20
0.5448
  0
LWPOLYLINE
  5
1F7
330
12
100
AcDbEntity
  8
4WAYDRIVER1_DRD
  6
BYLAYER
370
   211
 62
   256
100
AcDbPolyline
 90
     7
 70
     0
 43
0.006
 10
2.2918
 20
0.4805
 10
2.3251
 20
0.4805
 10
2.3251
 20
0.4639
 10
2.3195
 20
0.4611
 10
2.3084
 20
0.4611
 10
2.3029
 20
0.4639
 10
2.3029
 20
0.4805
  0
LWPOLYLINE
  5
1F8
330
12
100
AcDbEntity
  8
4WAYDRIVER1_DRD
  6
BYLAYER
370
   211
 62
   256
100
AcDbPolyline
 90
     9
 70
     0
 43
0.006
 10
2.3251
 20
0.4435
 10
2.3251
 20
0.4269
 10
2.3195
 20
0.4241
 10
2.3084
 20
0.4241
 10
2.3029
 20
0.4269
 10
2.3029
 20
0.4435
 10
2.3084
 20
0.4463
 10
2.314
 20
0.4463
 10
2.314
 20
0.4241
  0
LWPOLYLINE
  5
1F9
330
12
100
AcDbEntity
  8
4WAYDRIVER1_DRD
  6
BYLAYER
370
   211
 62
   256
100
AcDbPolyline
 90
     2
 70
     0
 43
0.006
 10
2.3029
 20
0.4065
 10
2.3029
 20
0.3899
  0
LWPOLYLINE
  5
1FA
330
12
100
AcDbEntity
  8
4WAYDRIVER1_DRD
  6
BYLAYER
370
   211
 62
   256
100
AcDbPolyline
 90
     4
 70
     0
 43
0.006
 10
2.3251
 20
0.4093
 10
2.3251
 20
0.3982
 10
2.3195
 20
0.3954
 10
2.2918
 20
0.3954
  0
LWPOLYLINE
  5
1FB
330
12
100
AcDbEntity
  8
4WAYDRIVER1_DRD
  6
BYLAYER
370
   211
 62
   256
100
AcDbPolyline
 90
     2
 70
     0
 43
0.006
 10
2.3029
 20
0.3723
 10
2.3251
 20
0.3723
  0
LWPOLYLINE
  5
1FC
330
12
100
AcDbEntity
  8
4WAYDRIVER1_DRD
  6
BYLAYER
370
   211
 62
   256
100
AcDbPolyline
 90
     4
 70
     0
 43
0.006
 10
2.3251
 20
0.3751
 10
2.3251
 20
0.3557
 10
2.3195
 20
0.3529
 10
2.3029
 20
0.3529
  0
LWPOLYLINE
  5
1FD
330
12
100
AcDbEntity
  8
4WAYDRIVER1_DRD
  6
BYLAYER
370
   211
 62
   256
100
AcDbPolyline
 90
     9
 70
     0
 43
0.006
 10
2.3251
 20
0.3187
 10
2.3195
 20
0.3159
 10
2.3084
 20
0.3159
 10
2.3029
 20
0.3187
 10
2.3029
 20
0.3353
 10
2.3084
 20
0.3381
 10
2.3195
 20
0.3381
 10
2.3251
 20
0.3353
 10
2.3251
 20
0.3187
  0
LWPOLYLINE
  5
1FE
330
12
100
AcDbEntity
  8
4WAYDRIVER1_DRD
  6
BYLAYER
370
   211
 62
   256
100
AcDbPolyline
 90
     2
 70
     0
 43
0.006
 10
2.3084
 20
0.2928
 10
2.3251
 20
0.3011
  0
LWPOLYLINE
  5
1FF
330
12
100
AcDbEntity
  8
4WAYDRIVER1_DRD
  6
BYLAYER
370
   211
 62
   256
100
AcDbPolyline
 90
     7
 70
     0
 43
0.006
 10
2.3084
 20
0.2789
 10
2.3084
 20
0.2955
 10
2.3029
 20
0.3011
 10
2.2973
 20
0.3011
 10
2.2918
 20
0.2955
 10
2.2918
 20
0.2789
 10
2.3251
 20
0.2789
  0
LWPOLYLINE
  5
200
330
12
100
AcDbEntity
  8
4WAYDRIVER1_DRD
  6
BYLAYER
370
   211
 62
   256
100
AcDbPolyline
 90
     2
 70
     0
 43
0.006
 10
1.1049
 20
0.6641
 10
1.1049
 20
0.6475
  0
LWPOLYLINE
  5
201
330
12
100
AcDbEntity
  8
4WAYDRIVER1_DRD
  6
BYLAYER
370
   211
 62
   256
100
AcDbPolyline
 90
     4
 70
     0
 43
0.006
 10
1.1271
 20
0.6669
 10
1.1271
 20
0.6558
 10
1.1215
 20
0.653
 10
1.0938
 20
0.653
  0
LWPOLYLINE
  5
202
330
12
100
AcDbEntity
  8
4WAYDRIVER1_DRD
  6
BYLAYER
370
   211
 62
   256
100
AcDbPolyline
 90
     9
 70
     0
 43
0.006
 10
1.1271
 20
0.6132
 10
1.1215
 20
0.6105
 10
1.1104
 20
0.6105
 10
1.1049
 20
0.6132
 10
1.1049
 20
0.6299
 10
1.1104
 20
0.6327
 10
1.1215
 20
0.6327
 10
1.1271
 20
0.6299
 10
1.1271
 20
0.6132
  0
LWPOLYLINE
  5
203
330
12
100
AcDbEntity
  8
4WAYDRIVER1_DRD
  6
BYLAYER
370
   211
 62
   256
100
AcDbPolyline
 90
     2
 70
     0
 43
0.006
 10
1.1271
 20
0.5957
 10
1.1271
 20
0.5846
  0
LWPOLYLINE
  5
204
330
12
100
AcDbEntity
  8
4WAYDRIVER1_DRD
  6
BYLAYER
370
   211
 62
   256
100
AcDbPolyline
 90
     3
 70
     0
 43
0.006
 10
1.1271
 20
0.5901
 10
1.0938
 20
0.5901
 10
1.0938
 20
0.5846
  0
LWPOLYLINE
  5
205
330
12
100
AcDbEntity
  8
4WAYDRIVER1_DRD
  6
BYLAYER
370
   211
 62
   256
100
AcDbPolyline
 90
    12
 70
     0
 43
0.006
 10
1.0993
 20
0.567
 10
1.0938
 20
0.5643
 10
1.0938
 20
0.5476
 10
1.0993
 20
0.5448
 10
1.1049
 20
0.5448
 10
1.1104
 20
0.5476
 10
1.1104
 20
0.5643
 10
1.116
 20
0.567
 10
1.1215
 20
0.567
 10
1.1271
 20
0.5643
 10
1.1271
 20
0.5476
 10
1.1215
 20
0.5448
  0
LWPOLYLINE
  5
206
330
12
100
AcDbEntity
  8
4WAYDRIVER1_DRD
  6
BYLAYER
370
   211
 62
   256
100
AcDbPolyline
 90
     7
 70
     0
 43
0.006
 10
1.0938
 20
0.4805
 10
1.1271
 20
0.4805
 10
1.1271
 20
0.4639
 10
1.1215
 20
0.4611
 10
1.1104
 20
0.4611
 10
1.1049
 20
0.4639
 10
1.1049
 20
0.4805
  0
LWPOLYLINE
  5
207
330
12
100
AcDbEntity
  8
4WAYDRIVER1_DRD
  6
BYLAYER
370
   211
 62
   256
100
AcDbPolyline
 90
     9
 70
     0
 43
0.006
 10
1.1271
 20
0.4435
 10
1.1271
 20
0.4269
 10
1.1215
 20
0.4241
 10
1.1104
 20
0.4241
 10
1.1049
 20
0.4269
 10
1.1049
 20
0.4435
 10
1.1104
 20
0.4463
 10
1.116
 20
0.4463
 10
1.116
 20
0.4241
  0
LWPOLYLINE
  5
208
330
12
100
AcDbEntity
  8
4WAYDRIVER1_DRD
  6
BYLAYER
370
   211
 62
   256
100
AcDbPolyline
 90
     2
 70
     0
 43
0.006
 10
1.1049
 20
0.4065
 10
1.1049
 20
0.3899
  0
LWPOLYLINE
  5
209
330
12
100
AcDbEntity
  8
4WAYDRIVER1_DRD
  6
BYLAYER
370
   211
 62
   256
100
AcDbPolyline
 90
     4
 70
     0
 43
0.006
 10
1.1271
 20
0.4093
 10
1.1271
 20
0.3982
 10
1.1215
 20
0.3954
 10
1.0938
 20
0.3954
  0
LWPOLYLINE
  5
20A
330
12
100
AcDbEntity
  8
4WAYDRIVER1_DRD
  6
BYLAYER
370
   211
 62
   256
100
AcDbPolyline
 90
     2
 70
     0
 43
0.006
 10
1.1049
 20
0.3723
 10
1.1271
 20
0.3723
  0
LWPOLYLINE
  5
20B
330
12
100
AcDbEntity
  8
4WAYDRIVER1_DRD
  6
BYLAYER
370
   211
 62
   256
100
AcDbPolyline
 90
     4
 70
     0
 43
0.006
 10
1.1271
 20
0.3751
 10
1.1271
 20
0.3557
 10
1.1215
 20
0.3529
 10
1.1049
 20
0.3529
  0
LWPOLYLINE
  5
20C
330
12
100
AcDbEntity
  8
4WAYDRIVER1_DRD
  6
BYLAYER
370
   211
 62
   256
100
AcDbPolyline
 90
     9
 70
     0
 43
0.006
 10
1.1271
 20
0.3187
 10
1.1215
 20
0.3159
 10
1.1104
 20
0.3159
 10
1.1049
 20
0.3187
 10
1.1049
 20
0.3353
 10
1.1104
 20
0.3381
 10
1.1215
 20
0.3381
 10
1.1271
 20
0.3353
 10
1.1271
 20
0.3187
  0
LWPOLYLINE
  5
20D
330
12
100
AcDbEntity
  8
4WAYDRIVER1_DRD
  6
BYLAYER
370
   211
 62
   256
100
AcDbPolyline
 90
     2
 70
     0
 43
0.006
 10
1.1104
 20
0.2928
 10
1.1271
 20
0.3011
  0
LWPOLYLINE
  5
20E
330
12
100
AcDbEntity
  8
4WAYDRIVER1_DRD
  6
BYLAYER
370
   211
 62
   256
100
AcDbPolyline
 90
     7
 70
     0
 43
0.006
 10
1.1104
 20
0.2789
 10
1.1104
 20
0.2955
 10
1.1049
 20
0.3011
 10
1.0993
 20
0.3011
 10
1.0938
 20
0.2955
 10
1.0938
 20
0.2789
 10
1.1271
 20
0.2789
  0
LWPOLYLINE
  5
20F
330
12
100
AcDbEntity
  8
4WAYDRIVER1_DRD
  6
BYLAYER
370
   211
 62
   256
100
AcDbPolyline
 90
     8
 70
     0
 43
0.01
 10
1.5276
 20
-1.0612
 10
1.5387
 20
-1.0723
 10
1.5609
 20
-1.0723
 10
1.572
 20
-1.0612
 10
1.572
 20
-1.0501
 10
1.5498
 20
-1.0279
 10
1.572
 20
-1.0057
 10
1.5276
 20
-1.0057
  0
INSERT
  5
210
330
12
100
AcDbEntity
  8
4WAYDRIVER1_SMT
100
AcDbBlockReference
  2
RECTANGLE_1
 10
0.895
 20
0.145
 30
0.0
  0
INSERT
  5
211
330
12
100
AcDbEntity
  8
4WAYDRIVER1_SMT
100
AcDbBlockReference
  2
RECTANGLE_1
 10
2.095
 20
0.145
 30
0.0
  0
INSERT
  5
212
330
12
100
AcDbEntity
  8
4WAYDRIVER1_SMT
100
AcDbBlockReference
  2
RECTANGLE_1
 10
1.495
 20
0.145
 30
0.0
  0
INSERT
  5
213
330
12
100
AcDbEntity
  8
4WAYDRIVER1_SMT
100
AcDbBlockReference
  2
RECTANGLE_1
 10
2.695
 20
0.145
 30
0.0
  0
INSERT
  5
214
330
12
100
AcDbEntity
  8
4WAYDRIVER1_SMT
100
AcDbBlockReference
  2
ROUND_6
 10
0.41
 20
2.37
 30
0.0
  0
INSERT
  5
215
330
12
100
AcDbEntity
  8
4WAYDRIVER1_SMT
100
AcDbBlockReference
  2
ROUND_6
 10
0.47
 20
2.42
 30
0.0
  0
INSERT
  5
216
330
12
100
AcDbEntity
  8
4WAYDRIVER1_SMT
100
AcDbBlockReference
  2
ROUND_6
 10
2.105
 20
2.075
 30
0.0
  0
INSERT
  5
217
330
12
100
AcDbEntity
  8
4WAYDRIVER1_SMT
100
AcDbBlockReference
  2
ROUND_6
 10
2.22
 20
2.01
 30
0.0
  0
INSERT
  5
218
330
12
100
AcDbEntity
  8
4WAYDRIVER1_SMT
100
AcDbBlockReference
  2
ROUND_6
 10
2.22
 20
2.135
 30
0.0
  0
INSERT
  5
219
330
12
100
AcDbEntity
  8
4WAYDRIVER1_SMT
100
AcDbBlockReference
  2
ROUND_6
 10
1.6
 20
1.655
 30
0.0
  0
INSERT
  5
21A
330
12
100
AcDbEntity
  8
4WAYDRIVER1_SMT
100
AcDbBlockReference
  2
ROUND_6
 10
1.375
 20
1.655
 30
0.0
  0
INSERT
  5
21B
330
12
100
AcDbEntity
  8
4WAYDRIVER1_SMT
100
AcDbBlockReference
  2
ROUND_6
 10
1.49
 20
2.075
 30
0.0
  0
INSERT
  5
21C
330
12
100
AcDbEntity
  8
4WAYDRIVER1_SMT
100
AcDbBlockReference
  2
ROUND_6
 10
0.465
 20
1.805
 30
0.0
  0
INSERT
  5
21D
330
12
100
AcDbEntity
  8
4WAYDRIVER1_SMT
100
AcDbBlockReference
  2
ROUND_6
 10
0.41
 20
1.87
 30
0.0
  0
INSERT
  5
21E
330
12
100
AcDbEntity
  8
4WAYDRIVER1_SMT
100
AcDbBlockReference
  2
ROUND_6
 10
0.36
 20
1.81
 30
0.0
  0
INSERT
  5
21F
330
12
100
AcDbEntity
  8
4WAYDRIVER1_SMT
100
AcDbBlockReference
  2
ROUND_6
 10
0.465
 20
1.925
 30
0.0
  0
INSERT
  5
220
330
12
100
AcDbEntity
  8
4WAYDRIVER1_SMT
100
AcDbBlockReference
  2
ROUND_6
 10
0.12
 20
1.91
 30
0.0
  0
INSERT
  5
221
330
12
100
AcDbEntity
  8
4WAYDRIVER1_SMT
100
AcDbBlockReference
  2
ROUND_6
 10
0.185
 20
1.875
 30
0.0
  0
INSERT
  5
222
330
12
100
AcDbEntity
  8
4WAYDRIVER1_SMT
100
AcDbBlockReference
  2
ROUND_6
 10
0.045
 20
1.875
 30
0.0
  0
INSERT
  5
223
330
12
100
AcDbEntity
  8
4WAYDRIVER1_SMT
100
AcDbBlockReference
  2
ROUND_6
 10
0.185
 20
1.935
 30
0.0
  0
INSERT
  5
224
330
12
100
AcDbEntity
  8
4WAYDRIVER1_SMT
100
AcDbBlockReference
  2
ROUND_6
 10
0.045
 20
1.935
 30
0.0
  0
INSERT
  5
225
330
12
100
AcDbEntity
  8
4WAYDRIVER1_SMT
100
AcDbBlockReference
  2
ROUND_6
 10
0.115
 20
2.325
 30
0.0
  0
INSERT
  5
226
330
12
100
AcDbEntity
  8
4WAYDRIVER1_SMT
100
AcDbBlockReference
  2
ROUND_6
 10
0.185
 20
2.295
 30
0.0
  0
INSERT
  5
227
330
12
100
AcDbEntity
  8
4WAYDRIVER1_SMT
100
AcDbBlockReference
  2
ROUND_6
 10
0.05
 20
2.295
 30
0.0
  0
INSERT
  5
228
330
12
100
AcDbEntity
  8
4WAYDRIVER1_SMT
100
AcDbBlockReference
  2
ROUND_6
 10
0.05
 20
2.355
 30
0.0
  0
INSERT
  5
229
330
12
100
AcDbEntity
  8
4WAYDRIVER1_SMT
100
AcDbBlockReference
  2
ROUND_6
 10
0.185
 20
2.355
 30
0.0
  0
INSERT
  5
22A
330
12
100
AcDbEntity
  8
4WAYDRIVER1_SMT
100
AcDbBlockReference
  2
ROUND_6
 10
0.47
 20
2.3
 30
0.0
  0
INSERT
  5
22B
330
12
100
AcDbEntity
  8
4WAYDRIVER1_SMT
100
AcDbBlockReference
  2
ROUND_6
 10
0.345
 20
2.425
 30
0.0
  0
INSERT
  5
22C
330
12
100
AcDbEntity
  8
4WAYDRIVER1_SMT
100
AcDbBlockReference
  2
ROUND_6
 10
0.345
 20
2.3
 30
0.0
  0
INSERT
  5
22D
330
12
100
AcDbEntity
  8
4WAYDRIVER1_SMT
100
AcDbBlockReference
  2
ROUND_6
 10
1.99
 20
2.01
 30
0.0
  0
INSERT
  5
22E
330
12
100
AcDbEntity
  8
4WAYDRIVER1_SMT
100
AcDbBlockReference
  2
ROUND_6
 10
1.99
 20
2.135
 30
0.0
  0
INSERT
  5
22F
330
12
100
AcDbEntity
  8
4WAYDRIVER1_SMT
100
AcDbBlockReference
  2
ROUND_6
 10
1.6
 20
2.135
 30
0.0
  0
INSERT
  5
230
330
12
100
AcDbEntity
  8
4WAYDRIVER1_SMT
100
AcDbBlockReference
  2
ROUND_6
 10
1.99
 20
1.65
 30
0.0
  0
INSERT
  5
231
330
12
100
AcDbEntity
  8
4WAYDRIVER1_SMT
100
AcDbBlockReference
  2
ROUND_6
 10
2.22
 20
1.655
 30
0.0
  0
INSERT
  5
232
330
12
100
AcDbEntity
  8
4WAYDRIVER1_SMT
100
AcDbBlockReference
  2
ROUND_6
 10
2.22
 20
1.765
 30
0.0
  0
INSERT
  5
233
330
12
100
AcDbEntity
  8
4WAYDRIVER1_SMT
100
AcDbBlockReference
  2
ROUND_6
 10
2.1
 20
1.705
 30
0.0
  0
INSERT
  5
234
330
12
100
AcDbEntity
  8
4WAYDRIVER1_SMT
100
AcDbBlockReference
  2
ROUND_6
 10
1.99
 20
1.76
 30
0.0
  0
INSERT
  5
235
330
12
100
AcDbEntity
  8
4WAYDRIVER1_SMT
100
AcDbBlockReference
  2
ROUND_6
 10
1.38
 20
2.135
 30
0.0
  0
INSERT
  5
236
330
12
100
AcDbEntity
  8
4WAYDRIVER1_SMT
100
AcDbBlockReference
  2
ROUND_6
 10
1.38
 20
2.01
 30
0.0
  0
INSERT
  5
237
330
12
100
AcDbEntity
  8
4WAYDRIVER1_SMT
100
AcDbBlockReference
  2
ROUND_6
 10
1.595
 20
2.01
 30
0.0
  0
INSERT
  5
238
330
12
100
AcDbEntity
  8
4WAYDRIVER1_SMT
100
AcDbBlockReference
  2
ROUND_6
 10
1.6
 20
1.76
 30
0.0
  0
INSERT
  5
239
330
12
100
AcDbEntity
  8
4WAYDRIVER1_SMT
100
AcDbBlockReference
  2
ROUND_6
 10
1.375
 20
1.76
 30
0.0
  0
INSERT
  5
23A
330
12
100
AcDbEntity
  8
4WAYDRIVER1_SMT
100
AcDbBlockReference
  2
ROUND_6
 10
1.485
 20
1.715
 30
0.0
  0
INSERT
  5
23B
330
12
100
AcDbEntity
  8
4WAYDRIVER1_SMT
100
AcDbBlockReference
  2
ROUND_6
 10
2.675
 20
0.53
 30
0.0
  0
INSERT
  5
23C
330
12
100
AcDbEntity
  8
4WAYDRIVER1_SMT
100
AcDbBlockReference
  2
ROUND_6
 10
2.76
 20
0.46
 30
0.0
  0
INSERT
  5
23D
330
12
100
AcDbEntity
  8
4WAYDRIVER1_SMT
100
AcDbBlockReference
  2
ROUND_6
 10
2.59
 20
0.46
 30
0.0
  0
INSERT
  5
23E
330
12
100
AcDbEntity
  8
4WAYDRIVER1_SMT
100
AcDbBlockReference
  2
ROUND_6
 10
2.76
 20
0.595
 30
0.0
  0
INSERT
  5
23F
330
12
100
AcDbEntity
  8
4WAYDRIVER1_SMT
100
AcDbBlockReference
  2
ROUND_6
 10
2.59
 20
0.595
 30
0.0
  0
INSERT
  5
240
330
12
100
AcDbEntity
  8
4WAYDRIVER1_SMT
100
AcDbBlockReference
  2
ROUND_6
 10
2.105
 20
0.53
 30
0.0
  0
INSERT
  5
241
330
12
100
AcDbEntity
  8
4WAYDRIVER1_SMT
100
AcDbBlockReference
  2
ROUND_6
 10
2.2
 20
0.46
 30
0.0
  0
INSERT
  5
242
330
12
100
AcDbEntity
  8
4WAYDRIVER1_SMT
100
AcDbBlockReference
  2
ROUND_6
 10
2.03
 20
0.46
 30
0.0
  0
INSERT
  5
243
330
12
100
AcDbEntity
  8
4WAYDRIVER1_SMT
100
AcDbBlockReference
  2
ROUND_6
 10
2.2
 20
0.595
 30
0.0
  0
INSERT
  5
244
330
12
100
AcDbEntity
  8
4WAYDRIVER1_SMT
100
AcDbBlockReference
  2
ROUND_6
 10
2.03
 20
0.595
 30
0.0
  0
INSERT
  5
245
330
12
100
AcDbEntity
  8
4WAYDRIVER1_SMT
100
AcDbBlockReference
  2
ROUND_6
 10
0.925
 20
0.525
 30
0.0
  0
INSERT
  5
246
330
12
100
AcDbEntity
  8
4WAYDRIVER1_SMT
100
AcDbBlockReference
  2
ROUND_6
 10
1.48
 20
0.53
 30
0.0
  0
INSERT
  5
247
330
12
100
AcDbEntity
  8
4WAYDRIVER1_SMT
100
AcDbBlockReference
  2
ROUND_6
 10
1.57
 20
0.595
 30
0.0
  0
INSERT
  5
248
330
12
100
AcDbEntity
  8
4WAYDRIVER1_SMT
100
AcDbBlockReference
  2
ROUND_6
 10
1.57
 20
0.46
 30
0.0
  0
INSERT
  5
249
330
12
100
AcDbEntity
  8
4WAYDRIVER1_SMT
100
AcDbBlockReference
  2
ROUND_6
 10
1.4
 20
0.46
 30
0.0
  0
INSERT
  5
24A
330
12
100
AcDbEntity
  8
4WAYDRIVER1_SMT
100
AcDbBlockReference
  2
ROUND_6
 10
1.4
 20
0.595
 30
0.0
  0
INSERT
  5
24B
330
12
100
AcDbEntity
  8
4WAYDRIVER1_SMT
100
AcDbBlockReference
  2
ROUND_6
 10
0.84
 20
0.46
 30
0.0
  0
INSERT
  5
24C
330
12
100
AcDbEntity
  8
4WAYDRIVER1_SMT
100
AcDbBlockReference
  2
ROUND_6
 10
1.01
 20
0.46
 30
0.0
  0
INSERT
  5
24D
330
12
100
AcDbEntity
  8
4WAYDRIVER1_SMT
100
AcDbBlockReference
  2
ROUND_6
 10
1.01
 20
0.595
 30
0.0
  0
INSERT
  5
24E
330
12
100
AcDbEntity
  8
4WAYDRIVER1_SMT
100
AcDbBlockReference
  2
ROUND_6
 10
0.84
 20
0.595
 30
0.0
  0
INSERT
  5
24F
330
12
100
AcDbEntity
  8
4WAYDRIVER1_SMT
100
AcDbBlockReference
  2
ROUND_6
 10
0.36
 20
1.925
 30
0.0
  0
LWPOLYLINE
  5
250
330
12
100
AcDbEntity
  8
4WAYDRIVER1_SMT
  6
BYLAYER
370
   211
 62
   256
100
AcDbPolyline
 90
     2
 70
     0
 43
0.01
 10
0.49
 20
2.159
 10
0.312
 20
2.159
  0
LWPOLYLINE
  5
251
330
12
100
AcDbEntity
  8
4WAYDRIVER1_SMT
  6
BYLAYER
370
   211
 62
   256
100
AcDbPolyline
 90
     2
 70
     0
 43
0.01
 10
0.49
 20
2.15
 10
0.312
 20
2.15
  0
LWPOLYLINE
  5
252
330
12
100
AcDbEntity
  8
4WAYDRIVER1_SMT
  6
BYLAYER
370
   211
 62
   256
100
AcDbPolyline
 90
     2
 70
     0
 43
0.01
 10
0.49
 20
2.141
 10
0.312
 20
2.141
  0
LWPOLYLINE
  5
253
330
12
100
AcDbEntity
  8
4WAYDRIVER1_SMT
  6
BYLAYER
370
   211
 62
   256
100
AcDbPolyline
 90
     2
 70
     0
 43
0.01
 10
0.49
 20
2.132
 10
0.312
 20
2.132
  0
LWPOLYLINE
  5
254
330
12
100
AcDbEntity
  8
4WAYDRIVER1_SMT
  6
BYLAYER
370
   211
 62
   256
100
AcDbPolyline
 90
     2
 70
     0
 43
0.01
 10
0.49
 20
2.123
 10
0.312
 20
2.123
  0
LWPOLYLINE
  5
255
330
12
100
AcDbEntity
  8
4WAYDRIVER1_SMT
  6
BYLAYER
370
   211
 62
   256
100
AcDbPolyline
 90
     2
 70
     0
 43
0.01
 10
0.49
 20
2.114
 10
0.312
 20
2.114
  0
LWPOLYLINE
  5
256
330
12
100
AcDbEntity
  8
4WAYDRIVER1_SMT
  6
BYLAYER
370
   211
 62
   256
100
AcDbPolyline
 90
     2
 70
     0
 43
0.01
 10
0.49
 20
2.105
 10
0.312
 20
2.105
  0
LWPOLYLINE
  5
257
330
12
100
AcDbEntity
  8
4WAYDRIVER1_SMT
  6
BYLAYER
370
   211
 62
   256
100
AcDbPolyline
 90
     2
 70
     0
 43
0.01
 10
0.49
 20
2.096
 10
0.312
 20
2.096
  0
LWPOLYLINE
  5
258
330
12
100
AcDbEntity
  8
4WAYDRIVER1_SMT
  6
BYLAYER
370
   211
 62
   256
100
AcDbPolyline
 90
     2
 70
     0
 43
0.01
 10
0.49
 20
2.087
 10
0.312
 20
2.087
  0
LWPOLYLINE
  5
259
330
12
100
AcDbEntity
  8
4WAYDRIVER1_SMT
  6
BYLAYER
370
   211
 62
   256
100
AcDbPolyline
 90
     2
 70
     0
 43
0.01
 10
0.49
 20
2.078
 10
0.312
 20
2.078
  0
LWPOLYLINE
  5
25A
330
12
100
AcDbEntity
  8
4WAYDRIVER1_SMT
  6
BYLAYER
370
   211
 62
   256
100
AcDbPolyline
 90
     2
 70
     0
 43
0.01
 10
0.406
 20
2.165
 10
0.406
 20
2.065
  0
LWPOLYLINE
  5
25B
330
12
100
AcDbEntity
  8
4WAYDRIVER1_SMT
  6
BYLAYER
370
   211
 62
   256
100
AcDbPolyline
 90
     2
 70
     0
 43
0.01
 10
0.397
 20
2.165
 10
0.397
 20
2.065
  0
LWPOLYLINE
  5
25C
330
12
100
AcDbEntity
  8
4WAYDRIVER1_SMT
  6
BYLAYER
370
   211
 62
   256
100
AcDbPolyline
 90
     2
 70
     0
 43
0.01
 10
0.388
 20
2.165
 10
0.388
 20
2.065
  0
LWPOLYLINE
  5
25D
330
12
100
AcDbEntity
  8
4WAYDRIVER1_SMT
  6
BYLAYER
370
   211
 62
   256
100
AcDbPolyline
 90
     2
 70
     0
 43
0.01
 10
0.379
 20
2.165
 10
0.379
 20
2.065
  0
LWPOLYLINE
  5
25E
330
12
100
AcDbEntity
  8
4WAYDRIVER1_SMT
  6
BYLAYER
370
   211
 62
   256
100
AcDbPolyline
 90
     2
 70
     0
 43
0.01
 10
0.37
 20
2.165
 10
0.37
 20
2.065
  0
LWPOLYLINE
  5
25F
330
12
100
AcDbEntity
  8
4WAYDRIVER1_SMT
  6
BYLAYER
370
   211
 62
   256
100
AcDbPolyline
 90
     2
 70
     0
 43
0.01
 10
0.361
 20
2.165
 10
0.361
 20
2.065
  0
LWPOLYLINE
  5
260
330
12
100
AcDbEntity
  8
4WAYDRIVER1_SMT
  6
BYLAYER
370
   211
 62
   256
100
AcDbPolyline
 90
     2
 70
     0
 43
0.01
 10
0.352
 20
2.165
 10
0.352
 20
2.065
  0
LWPOLYLINE
  5
261
330
12
100
AcDbEntity
  8
4WAYDRIVER1_SMT
  6
BYLAYER
370
   211
 62
   256
100
AcDbPolyline
 90
     2
 70
     0
 43
0.01
 10
0.343
 20
2.165
 10
0.343
 20
2.065
  0
LWPOLYLINE
  5
262
330
12
100
AcDbEntity
  8
4WAYDRIVER1_SMT
  6
BYLAYER
370
   211
 62
   256
100
AcDbPolyline
 90
     2
 70
     0
 43
0.01
 10
0.334
 20
2.165
 10
0.334
 20
2.065
  0
LWPOLYLINE
  5
263
330
12
100
AcDbEntity
  8
4WAYDRIVER1_SMT
  6
BYLAYER
370
   211
 62
   256
100
AcDbPolyline
 90
     2
 70
     0
 43
0.01
 10
0.325
 20
2.165
 10
0.325
 20
2.065
  0
LWPOLYLINE
  5
264
330
12
100
AcDbEntity
  8
4WAYDRIVER1_SMT
  6
BYLAYER
370
   211
 62
   256
100
AcDbPolyline
 90
     2
 70
     0
 43
0.01
 10
0.316
 20
2.165
 10
0.316
 20
2.065
  0
LWPOLYLINE
  5
265
330
12
100
AcDbEntity
  8
4WAYDRIVER1_SMT
  6
BYLAYER
370
   211
 62
   256
100
AcDbPolyline
 90
     2
 70
     0
 43
0.01
 10
0.49
 20
2.065
 10
0.312
 20
2.065
  0
LWPOLYLINE
  5
266
330
12
100
AcDbEntity
  8
4WAYDRIVER1_SMT
  6
BYLAYER
370
   211
 62
   256
100
AcDbPolyline
 90
     2
 70
     0
 43
0.01
 10
0.487
 20
2.165
 10
0.487
 20
2.065
  0
LWPOLYLINE
  5
267
330
12
100
AcDbEntity
  8
4WAYDRIVER1_SMT
  6
BYLAYER
370
   211
 62
   256
100
AcDbPolyline
 90
     2
 70
     0
 43
0.01
 10
0.478
 20
2.165
 10
0.478
 20
2.065
  0
LWPOLYLINE
  5
268
330
12
100
AcDbEntity
  8
4WAYDRIVER1_SMT
  6
BYLAYER
370
   211
 62
   256
100
AcDbPolyline
 90
     2
 70
     0
 43
0.01
 10
0.469
 20
2.165
 10
0.469
 20
2.065
  0
LWPOLYLINE
  5
269
330
12
100
AcDbEntity
  8
4WAYDRIVER1_SMT
  6
BYLAYER
370
   211
 62
   256
100
AcDbPolyline
 90
     2
 70
     0
 43
0.01
 10
0.46
 20
2.165
 10
0.46
 20
2.065
  0
LWPOLYLINE
  5
26A
330
12
100
AcDbEntity
  8
4WAYDRIVER1_SMT
  6
BYLAYER
370
   211
 62
   256
100
AcDbPolyline
 90
     2
 70
     0
 43
0.01
 10
0.451
 20
2.165
 10
0.451
 20
2.065
  0
LWPOLYLINE
  5
26B
330
12
100
AcDbEntity
  8
4WAYDRIVER1_SMT
  6
BYLAYER
370
   211
 62
   256
100
AcDbPolyline
 90
     2
 70
     0
 43
0.01
 10
0.442
 20
2.165
 10
0.442
 20
2.065
  0
LWPOLYLINE
  5
26C
330
12
100
AcDbEntity
  8
4WAYDRIVER1_SMT
  6
BYLAYER
370
   211
 62
   256
100
AcDbPolyline
 90
     2
 70
     0
 43
0.01
 10
0.433
 20
2.165
 10
0.433
 20
2.065
  0
LWPOLYLINE
  5
26D
330
12
100
AcDbEntity
  8
4WAYDRIVER1_SMT
  6
BYLAYER
370
   211
 62
   256
100
AcDbPolyline
 90
     2
 70
     0
 43
0.01
 10
0.424
 20
2.165
 10
0.424
 20
2.065
  0
LWPOLYLINE
  5
26E
330
12
100
AcDbEntity
  8
4WAYDRIVER1_SMT
  6
BYLAYER
370
   211
 62
   256
100
AcDbPolyline
 90
     2
 70
     0
 43
0.01
 10
0.415
 20
2.165
 10
0.415
 20
2.065
  0
LWPOLYLINE
  5
26F
330
12
100
AcDbEntity
  8
4WAYDRIVER1_SMT
  6
BYLAYER
370
   211
 62
   256
100
AcDbPolyline
 90
     2
 70
     0
 43
0.01
 10
0.49
 20
2.069
 10
0.312
 20
2.069
  0
LWPOLYLINE
  5
270
330
12
100
AcDbEntity
  8
4WAYDRIVER1_SMT
  6
BYLAYER
370
   211
 62
   256
100
AcDbPolyline
 90
     2
 70
     0
 43
0.01
 10
0.49
 20
2.165
 10
0.49
 20
2.065
  0
LWPOLYLINE
  5
271
330
12
100
AcDbEntity
  8
4WAYDRIVER1_SMT
  6
BYLAYER
370
   211
 62
   256
100
AcDbPolyline
 90
     3
 70
     0
 43
0.01
 10
0.49
 20
2.165
 10
0.312
 20
2.165
 10
0.312
 20
2.065
  0
LWPOLYLINE
  5
272
330
12
100
AcDbEntity
  8
4WAYDRIVER1_SMT
  6
BYLAYER
370
   211
 62
   256
100
AcDbPolyline
 90
     2
 70
     0
 43
0.01
 10
0.205
 20
2.369
 10
0.025
 20
2.369
  0
LWPOLYLINE
  5
273
330
12
100
AcDbEntity
  8
4WAYDRIVER1_SMT
  6
BYLAYER
370
   211
 62
   256
100
AcDbPolyline
 90
     2
 70
     0
 43
0.01
 10
0.205
 20
2.36
 10
0.025
 20
2.36
  0
LWPOLYLINE
  5
274
330
12
100
AcDbEntity
  8
4WAYDRIVER1_SMT
  6
BYLAYER
370
   211
 62
   256
100
AcDbPolyline
 90
     2
 70
     0
 43
0.01
 10
0.205
 20
2.351
 10
0.025
 20
2.351
  0
LWPOLYLINE
  5
275
330
12
100
AcDbEntity
  8
4WAYDRIVER1_SMT
  6
BYLAYER
370
   211
 62
   256
100
AcDbPolyline
 90
     2
 70
     0
 43
0.01
 10
0.205
 20
2.342
 10
0.025
 20
2.342
  0
LWPOLYLINE
  5
276
330
12
100
AcDbEntity
  8
4WAYDRIVER1_SMT
  6
BYLAYER
370
   211
 62
   256
100
AcDbPolyline
 90
     2
 70
     0
 43
0.01
 10
0.205
 20
2.333
 10
0.025
 20
2.333
  0
LWPOLYLINE
  5
277
330
12
100
AcDbEntity
  8
4WAYDRIVER1_SMT
  6
BYLAYER
370
   211
 62
   256
100
AcDbPolyline
 90
     2
 70
     0
 43
0.01
 10
0.205
 20
2.324
 10
0.025
 20
2.324
  0
LWPOLYLINE
  5
278
330
12
100
AcDbEntity
  8
4WAYDRIVER1_SMT
  6
BYLAYER
370
   211
 62
   256
100
AcDbPolyline
 90
     2
 70
     0
 43
0.01
 10
0.205
 20
2.315
 10
0.025
 20
2.315
  0
LWPOLYLINE
  5
279
330
12
100
AcDbEntity
  8
4WAYDRIVER1_SMT
  6
BYLAYER
370
   211
 62
   256
100
AcDbPolyline
 90
     2
 70
     0
 43
0.01
 10
0.205
 20
2.306
 10
0.025
 20
2.306
  0
LWPOLYLINE
  5
27A
330
12
100
AcDbEntity
  8
4WAYDRIVER1_SMT
  6
BYLAYER
370
   211
 62
   256
100
AcDbPolyline
 90
     2
 70
     0
 43
0.01
 10
0.205
 20
2.297
 10
0.025
 20
2.297
  0
LWPOLYLINE
  5
27B
330
12
100
AcDbEntity
  8
4WAYDRIVER1_SMT
  6
BYLAYER
370
   211
 62
   256
100
AcDbPolyline
 90
     2
 70
     0
 43
0.01
 10
0.205
 20
2.288
 10
0.025
 20
2.288
  0
LWPOLYLINE
  5
27C
330
12
100
AcDbEntity
  8
4WAYDRIVER1_SMT
  6
BYLAYER
370
   211
 62
   256
100
AcDbPolyline
 90
     2
 70
     0
 43
0.01
 10
0.119
 20
2.375
 10
0.119
 20
2.275
  0
LWPOLYLINE
  5
27D
330
12
100
AcDbEntity
  8
4WAYDRIVER1_SMT
  6
BYLAYER
370
   211
 62
   256
100
AcDbPolyline
 90
     2
 70
     0
 43
0.01
 10
0.11
 20
2.375
 10
0.11
 20
2.275
  0
LWPOLYLINE
  5
27E
330
12
100
AcDbEntity
  8
4WAYDRIVER1_SMT
  6
BYLAYER
370
   211
 62
   256
100
AcDbPolyline
 90
     2
 70
     0
 43
0.01
 10
0.101
 20
2.375
 10
0.101
 20
2.275
  0
LWPOLYLINE
  5
27F
330
12
100
AcDbEntity
  8
4WAYDRIVER1_SMT
  6
BYLAYER
370
   211
 62
   256
100
AcDbPolyline
 90
     2
 70
     0
 43
0.01
 10
0.092
 20
2.375
 10
0.092
 20
2.275
  0
LWPOLYLINE
  5
280
330
12
100
AcDbEntity
  8
4WAYDRIVER1_SMT
  6
BYLAYER
370
   211
 62
   256
100
AcDbPolyline
 90
     2
 70
     0
 43
0.01
 10
0.083
 20
2.375
 10
0.083
 20
2.275
  0
LWPOLYLINE
  5
281
330
12
100
AcDbEntity
  8
4WAYDRIVER1_SMT
  6
BYLAYER
370
   211
 62
   256
100
AcDbPolyline
 90
     2
 70
     0
 43
0.01
 10
0.074
 20
2.375
 10
0.074
 20
2.275
  0
LWPOLYLINE
  5
282
330
12
100
AcDbEntity
  8
4WAYDRIVER1_SMT
  6
BYLAYER
370
   211
 62
   256
100
AcDbPolyline
 90
     2
 70
     0
 43
0.01
 10
0.065
 20
2.375
 10
0.065
 20
2.275
  0
LWPOLYLINE
  5
283
330
12
100
AcDbEntity
  8
4WAYDRIVER1_SMT
  6
BYLAYER
370
   211
 62
   256
100
AcDbPolyline
 90
     2
 70
     0
 43
0.01
 10
0.056
 20
2.375
 10
0.056
 20
2.275
  0
LWPOLYLINE
  5
284
330
12
100
AcDbEntity
  8
4WAYDRIVER1_SMT
  6
BYLAYER
370
   211
 62
   256
100
AcDbPolyline
 90
     2
 70
     0
 43
0.01
 10
0.047
 20
2.375
 10
0.047
 20
2.275
  0
LWPOLYLINE
  5
285
330
12
100
AcDbEntity
  8
4WAYDRIVER1_SMT
  6
BYLAYER
370
   211
 62
   256
100
AcDbPolyline
 90
     2
 70
     0
 43
0.01
 10
0.038
 20
2.375
 10
0.038
 20
2.275
  0
LWPOLYLINE
  5
286
330
12
100
AcDbEntity
  8
4WAYDRIVER1_SMT
  6
BYLAYER
370
   211
 62
   256
100
AcDbPolyline
 90
     2
 70
     0
 43
0.01
 10
0.029
 20
2.375
 10
0.029
 20
2.275
  0
LWPOLYLINE
  5
287
330
12
100
AcDbEntity
  8
4WAYDRIVER1_SMT
  6
BYLAYER
370
   211
 62
   256
100
AcDbPolyline
 90
     2
 70
     0
 43
0.01
 10
0.205
 20
2.275
 10
0.025
 20
2.275
  0
LWPOLYLINE
  5
288
330
12
100
AcDbEntity
  8
4WAYDRIVER1_SMT
  6
BYLAYER
370
   211
 62
   256
100
AcDbPolyline
 90
     2
 70
     0
 43
0.01
 10
0.2
 20
2.375
 10
0.2
 20
2.275
  0
LWPOLYLINE
  5
289
330
12
100
AcDbEntity
  8
4WAYDRIVER1_SMT
  6
BYLAYER
370
   211
 62
   256
100
AcDbPolyline
 90
     2
 70
     0
 43
0.01
 10
0.191
 20
2.375
 10
0.191
 20
2.275
  0
LWPOLYLINE
  5
28A
330
12
100
AcDbEntity
  8
4WAYDRIVER1_SMT
  6
BYLAYER
370
   211
 62
   256
100
AcDbPolyline
 90
     2
 70
     0
 43
0.01
 10
0.182
 20
2.375
 10
0.182
 20
2.275
  0
LWPOLYLINE
  5
28B
330
12
100
AcDbEntity
  8
4WAYDRIVER1_SMT
  6
BYLAYER
370
   211
 62
   256
100
AcDbPolyline
 90
     2
 70
     0
 43
0.01
 10
0.173
 20
2.375
 10
0.173
 20
2.275
  0
LWPOLYLINE
  5
28C
330
12
100
AcDbEntity
  8
4WAYDRIVER1_SMT
  6
BYLAYER
370
   211
 62
   256
100
AcDbPolyline
 90
     2
 70
     0
 43
0.01
 10
0.164
 20
2.375
 10
0.164
 20
2.275
  0
LWPOLYLINE
  5
28D
330
12
100
AcDbEntity
  8
4WAYDRIVER1_SMT
  6
BYLAYER
370
   211
 62
   256
100
AcDbPolyline
 90
     2
 70
     0
 43
0.01
 10
0.155
 20
2.375
 10
0.155
 20
2.275
  0
LWPOLYLINE
  5
28E
330
12
100
AcDbEntity
  8
4WAYDRIVER1_SMT
  6
BYLAYER
370
   211
 62
   256
100
AcDbPolyline
 90
     2
 70
     0
 43
0.01
 10
0.146
 20
2.375
 10
0.146
 20
2.275
  0
LWPOLYLINE
  5
28F
330
12
100
AcDbEntity
  8
4WAYDRIVER1_SMT
  6
BYLAYER
370
   211
 62
   256
100
AcDbPolyline
 90
     2
 70
     0
 43
0.01
 10
0.137
 20
2.375
 10
0.137
 20
2.275
  0
LWPOLYLINE
  5
290
330
12
100
AcDbEntity
  8
4WAYDRIVER1_SMT
  6
BYLAYER
370
   211
 62
   256
100
AcDbPolyline
 90
     2
 70
     0
 43
0.01
 10
0.128
 20
2.375
 10
0.128
 20
2.275
  0
LWPOLYLINE
  5
291
330
12
100
AcDbEntity
  8
4WAYDRIVER1_SMT
  6
BYLAYER
370
   211
 62
   256
100
AcDbPolyline
 90
     2
 70
     0
 43
0.01
 10
0.205
 20
2.279
 10
0.025
 20
2.279
  0
LWPOLYLINE
  5
292
330
12
100
AcDbEntity
  8
4WAYDRIVER1_SMT
  6
BYLAYER
370
   211
 62
   256
100
AcDbPolyline
 90
     2
 70
     0
 43
0.01
 10
0.205
 20
2.375
 10
0.205
 20
2.275
  0
LWPOLYLINE
  5
293
330
12
100
AcDbEntity
  8
4WAYDRIVER1_SMT
  6
BYLAYER
370
   211
 62
   256
100
AcDbPolyline
 90
     3
 70
     0
 43
0.01
 10
0.205
 20
2.375
 10
0.025
 20
2.375
 10
0.025
 20
2.275
  0
LWPOLYLINE
  5
294
330
12
100
AcDbEntity
  8
4WAYDRIVER1_SMT
  6
BYLAYER
370
   211
 62
   256
100
AcDbPolyline
 90
     2
 70
     0
 43
0.01
 10
0.206
 20
1.949
 10
0.026
 20
1.949
  0
LWPOLYLINE
  5
295
330
12
100
AcDbEntity
  8
4WAYDRIVER1_SMT
  6
BYLAYER
370
   211
 62
   256
100
AcDbPolyline
 90
     2
 70
     0
 43
0.01
 10
0.206
 20
1.94
 10
0.026
 20
1.94
  0
LWPOLYLINE
  5
296
330
12
100
AcDbEntity
  8
4WAYDRIVER1_SMT
  6
BYLAYER
370
   211
 62
   256
100
AcDbPolyline
 90
     2
 70
     0
 43
0.01
 10
0.206
 20
1.931
 10
0.026
 20
1.931
  0
LWPOLYLINE
  5
297
330
12
100
AcDbEntity
  8
4WAYDRIVER1_SMT
  6
BYLAYER
370
   211
 62
   256
100
AcDbPolyline
 90
     2
 70
     0
 43
0.01
 10
0.206
 20
1.922
 10
0.026
 20
1.922
  0
LWPOLYLINE
  5
298
330
12
100
AcDbEntity
  8
4WAYDRIVER1_SMT
  6
BYLAYER
370
   211
 62
   256
100
AcDbPolyline
 90
     2
 70
     0
 43
0.01
 10
0.206
 20
1.913
 10
0.026
 20
1.913
  0
LWPOLYLINE
  5
299
330
12
100
AcDbEntity
  8
4WAYDRIVER1_SMT
  6
BYLAYER
370
   211
 62
   256
100
AcDbPolyline
 90
     2
 70
     0
 43
0.01
 10
0.206
 20
1.904
 10
0.026
 20
1.904
  0
LWPOLYLINE
  5
29A
330
12
100
AcDbEntity
  8
4WAYDRIVER1_SMT
  6
BYLAYER
370
   211
 62
   256
100
AcDbPolyline
 90
     2
 70
     0
 43
0.01
 10
0.206
 20
1.895
 10
0.026
 20
1.895
  0
LWPOLYLINE
  5
29B
330
12
100
AcDbEntity
  8
4WAYDRIVER1_SMT
  6
BYLAYER
370
   211
 62
   256
100
AcDbPolyline
 90
     2
 70
     0
 43
0.01
 10
0.206
 20
1.886
 10
0.026
 20
1.886
  0
LWPOLYLINE
  5
29C
330
12
100
AcDbEntity
  8
4WAYDRIVER1_SMT
  6
BYLAYER
370
   211
 62
   256
100
AcDbPolyline
 90
     2
 70
     0
 43
0.01
 10
0.206
 20
1.877
 10
0.026
 20
1.877
  0
LWPOLYLINE
  5
29D
330
12
100
AcDbEntity
  8
4WAYDRIVER1_SMT
  6
BYLAYER
370
   211
 62
   256
100
AcDbPolyline
 90
     2
 70
     0
 43
0.01
 10
0.206
 20
1.868
 10
0.026
 20
1.868
  0
LWPOLYLINE
  5
29E
330
12
100
AcDbEntity
  8
4WAYDRIVER1_SMT
  6
BYLAYER
370
   211
 62
   256
100
AcDbPolyline
 90
     2
 70
     0
 43
0.01
 10
0.12
 20
1.955
 10
0.12
 20
1.855
  0
LWPOLYLINE
  5
29F
330
12
100
AcDbEntity
  8
4WAYDRIVER1_SMT
  6
BYLAYER
370
   211
 62
   256
100
AcDbPolyline
 90
     2
 70
     0
 43
0.01
 10
0.111
 20
1.955
 10
0.111
 20
1.855
  0
LWPOLYLINE
  5
2A0
330
12
100
AcDbEntity
  8
4WAYDRIVER1_SMT
  6
BYLAYER
370
   211
 62
   256
100
AcDbPolyline
 90
     2
 70
     0
 43
0.01
 10
0.102
 20
1.955
 10
0.102
 20
1.855
  0
LWPOLYLINE
  5
2A1
330
12
100
AcDbEntity
  8
4WAYDRIVER1_SMT
  6
BYLAYER
370
   211
 62
   256
100
AcDbPolyline
 90
     2
 70
     0
 43
0.01
 10
0.093
 20
1.955
 10
0.093
 20
1.855
  0
LWPOLYLINE
  5
2A2
330
12
100
AcDbEntity
  8
4WAYDRIVER1_SMT
  6
BYLAYER
370
   211
 62
   256
100
AcDbPolyline
 90
     2
 70
     0
 43
0.01
 10
0.084
 20
1.955
 10
0.084
 20
1.855
  0
LWPOLYLINE
  5
2A3
330
12
100
AcDbEntity
  8
4WAYDRIVER1_SMT
  6
BYLAYER
370
   211
 62
   256
100
AcDbPolyline
 90
     2
 70
     0
 43
0.01
 10
0.075
 20
1.955
 10
0.075
 20
1.855
  0
LWPOLYLINE
  5
2A4
330
12
100
AcDbEntity
  8
4WAYDRIVER1_SMT
  6
BYLAYER
370
   211
 62
   256
100
AcDbPolyline
 90
     2
 70
     0
 43
0.01
 10
0.066
 20
1.955
 10
0.066
 20
1.855
  0
LWPOLYLINE
  5
2A5
330
12
100
AcDbEntity
  8
4WAYDRIVER1_SMT
  6
BYLAYER
370
   211
 62
   256
100
AcDbPolyline
 90
     2
 70
     0
 43
0.01
 10
0.057
 20
1.955
 10
0.057
 20
1.855
  0
LWPOLYLINE
  5
2A6
330
12
100
AcDbEntity
  8
4WAYDRIVER1_SMT
  6
BYLAYER
370
   211
 62
   256
100
AcDbPolyline
 90
     2
 70
     0
 43
0.01
 10
0.048
 20
1.955
 10
0.048
 20
1.855
  0
LWPOLYLINE
  5
2A7
330
12
100
AcDbEntity
  8
4WAYDRIVER1_SMT
  6
BYLAYER
370
   211
 62
   256
100
AcDbPolyline
 90
     2
 70
     0
 43
0.01
 10
0.039
 20
1.955
 10
0.039
 20
1.855
  0
LWPOLYLINE
  5
2A8
330
12
100
AcDbEntity
  8
4WAYDRIVER1_SMT
  6
BYLAYER
370
   211
 62
   256
100
AcDbPolyline
 90
     2
 70
     0
 43
0.01
 10
0.03
 20
1.955
 10
0.03
 20
1.855
  0
LWPOLYLINE
  5
2A9
330
12
100
AcDbEntity
  8
4WAYDRIVER1_SMT
  6
BYLAYER
370
   211
 62
   256
100
AcDbPolyline
 90
     2
 70
     0
 43
0.01
 10
0.206
 20
1.855
 10
0.026
 20
1.855
  0
LWPOLYLINE
  5
2AA
330
12
100
AcDbEntity
  8
4WAYDRIVER1_SMT
  6
BYLAYER
370
   211
 62
   256
100
AcDbPolyline
 90
     2
 70
     0
 43
0.01
 10
0.201
 20
1.955
 10
0.201
 20
1.855
  0
LWPOLYLINE
  5
2AB
330
12
100
AcDbEntity
  8
4WAYDRIVER1_SMT
  6
BYLAYER
370
   211
 62
   256
100
AcDbPolyline
 90
     2
 70
     0
 43
0.01
 10
0.192
 20
1.955
 10
0.192
 20
1.855
  0
LWPOLYLINE
  5
2AC
330
12
100
AcDbEntity
  8
4WAYDRIVER1_SMT
  6
BYLAYER
370
   211
 62
   256
100
AcDbPolyline
 90
     2
 70
     0
 43
0.01
 10
0.183
 20
1.955
 10
0.183
 20
1.855
  0
LWPOLYLINE
  5
2AD
330
12
100
AcDbEntity
  8
4WAYDRIVER1_SMT
  6
BYLAYER
370
   211
 62
   256
100
AcDbPolyline
 90
     2
 70
     0
 43
0.01
 10
0.174
 20
1.955
 10
0.174
 20
1.855
  0
LWPOLYLINE
  5
2AE
330
12
100
AcDbEntity
  8
4WAYDRIVER1_SMT
  6
BYLAYER
370
   211
 62
   256
100
AcDbPolyline
 90
     2
 70
     0
 43
0.01
 10
0.165
 20
1.955
 10
0.165
 20
1.855
  0
LWPOLYLINE
  5
2AF
330
12
100
AcDbEntity
  8
4WAYDRIVER1_SMT
  6
BYLAYER
370
   211
 62
   256
100
AcDbPolyline
 90
     2
 70
     0
 43
0.01
 10
0.156
 20
1.955
 10
0.156
 20
1.855
  0
LWPOLYLINE
  5
2B0
330
12
100
AcDbEntity
  8
4WAYDRIVER1_SMT
  6
BYLAYER
370
   211
 62
   256
100
AcDbPolyline
 90
     2
 70
     0
 43
0.01
 10
0.147
 20
1.955
 10
0.147
 20
1.855
  0
LWPOLYLINE
  5
2B1
330
12
100
AcDbEntity
  8
4WAYDRIVER1_SMT
  6
BYLAYER
370
   211
 62
   256
100
AcDbPolyline
 90
     2
 70
     0
 43
0.01
 10
0.138
 20
1.955
 10
0.138
 20
1.855
  0
LWPOLYLINE
  5
2B2
330
12
100
AcDbEntity
  8
4WAYDRIVER1_SMT
  6
BYLAYER
370
   211
 62
   256
100
AcDbPolyline
 90
     2
 70
     0
 43
0.01
 10
0.129
 20
1.955
 10
0.129
 20
1.855
  0
LWPOLYLINE
  5
2B3
330
12
100
AcDbEntity
  8
4WAYDRIVER1_SMT
  6
BYLAYER
370
   211
 62
   256
100
AcDbPolyline
 90
     2
 70
     0
 43
0.01
 10
0.206
 20
1.859
 10
0.026
 20
1.859
  0
LWPOLYLINE
  5
2B4
330
12
100
AcDbEntity
  8
4WAYDRIVER1_SMT
  6
BYLAYER
370
   211
 62
   256
100
AcDbPolyline
 90
     2
 70
     0
 43
0.01
 10
0.206
 20
1.955
 10
0.206
 20
1.855
  0
LWPOLYLINE
  5
2B5
330
12
100
AcDbEntity
  8
4WAYDRIVER1_SMT
  6
BYLAYER
370
   211
 62
   256
100
AcDbPolyline
 90
     3
 70
     0
 43
0.01
 10
0.206
 20
1.955
 10
0.026
 20
1.955
 10
0.026
 20
1.855
  0
LWPOLYLINE
  5
2B6
330
12
100
AcDbEntity
  8
4WAYDRIVER1_SMT
  6
BYLAYER
370
   211
 62
   256
100
AcDbPolyline
 90
     2
 70
     0
 43
0.01
 10
0.206
 20
2.159
 10
0.026
 20
2.159
  0
LWPOLYLINE
  5
2B7
330
12
100
AcDbEntity
  8
4WAYDRIVER1_SMT
  6
BYLAYER
370
   211
 62
   256
100
AcDbPolyline
 90
     2
 70
     0
 43
0.01
 10
0.206
 20
2.15
 10
0.026
 20
2.15
  0
LWPOLYLINE
  5
2B8
330
12
100
AcDbEntity
  8
4WAYDRIVER1_SMT
  6
BYLAYER
370
   211
 62
   256
100
AcDbPolyline
 90
     2
 70
     0
 43
0.01
 10
0.206
 20
2.141
 10
0.026
 20
2.141
  0
LWPOLYLINE
  5
2B9
330
12
100
AcDbEntity
  8
4WAYDRIVER1_SMT
  6
BYLAYER
370
   211
 62
   256
100
AcDbPolyline
 90
     2
 70
     0
 43
0.01
 10
0.206
 20
2.132
 10
0.026
 20
2.132
  0
LWPOLYLINE
  5
2BA
330
12
100
AcDbEntity
  8
4WAYDRIVER1_SMT
  6
BYLAYER
370
   211
 62
   256
100
AcDbPolyline
 90
     2
 70
     0
 43
0.01
 10
0.206
 20
2.123
 10
0.026
 20
2.123
  0
LWPOLYLINE
  5
2BB
330
12
100
AcDbEntity
  8
4WAYDRIVER1_SMT
  6
BYLAYER
370
   211
 62
   256
100
AcDbPolyline
 90
     2
 70
     0
 43
0.01
 10
0.206
 20
2.114
 10
0.026
 20
2.114
  0
LWPOLYLINE
  5
2BC
330
12
100
AcDbEntity
  8
4WAYDRIVER1_SMT
  6
BYLAYER
370
   211
 62
   256
100
AcDbPolyline
 90
     2
 70
     0
 43
0.01
 10
0.206
 20
2.105
 10
0.026
 20
2.105
  0
LWPOLYLINE
  5
2BD
330
12
100
AcDbEntity
  8
4WAYDRIVER1_SMT
  6
BYLAYER
370
   211
 62
   256
100
AcDbPolyline
 90
     2
 70
     0
 43
0.01
 10
0.206
 20
2.096
 10
0.026
 20
2.096
  0
LWPOLYLINE
  5
2BE
330
12
100
AcDbEntity
  8
4WAYDRIVER1_SMT
  6
BYLAYER
370
   211
 62
   256
100
AcDbPolyline
 90
     2
 70
     0
 43
0.01
 10
0.206
 20
2.087
 10
0.026
 20
2.087
  0
LWPOLYLINE
  5
2BF
330
12
100
AcDbEntity
  8
4WAYDRIVER1_SMT
  6
BYLAYER
370
   211
 62
   256
100
AcDbPolyline
 90
     2
 70
     0
 43
0.01
 10
0.206
 20
2.078
 10
0.026
 20
2.078
  0
LWPOLYLINE
  5
2C0
330
12
100
AcDbEntity
  8
4WAYDRIVER1_SMT
  6
BYLAYER
370
   211
 62
   256
100
AcDbPolyline
 90
     2
 70
     0
 43
0.01
 10
0.12
 20
2.165
 10
0.12
 20
2.065
  0
LWPOLYLINE
  5
2C1
330
12
100
AcDbEntity
  8
4WAYDRIVER1_SMT
  6
BYLAYER
370
   211
 62
   256
100
AcDbPolyline
 90
     2
 70
     0
 43
0.01
 10
0.111
 20
2.165
 10
0.111
 20
2.065
  0
LWPOLYLINE
  5
2C2
330
12
100
AcDbEntity
  8
4WAYDRIVER1_SMT
  6
BYLAYER
370
   211
 62
   256
100
AcDbPolyline
 90
     2
 70
     0
 43
0.01
 10
0.102
 20
2.165
 10
0.102
 20
2.065
  0
LWPOLYLINE
  5
2C3
330
12
100
AcDbEntity
  8
4WAYDRIVER1_SMT
  6
BYLAYER
370
   211
 62
   256
100
AcDbPolyline
 90
     2
 70
     0
 43
0.01
 10
0.093
 20
2.165
 10
0.093
 20
2.065
  0
LWPOLYLINE
  5
2C4
330
12
100
AcDbEntity
  8
4WAYDRIVER1_SMT
  6
BYLAYER
370
   211
 62
   256
100
AcDbPolyline
 90
     2
 70
     0
 43
0.01
 10
0.084
 20
2.165
 10
0.084
 20
2.065
  0
LWPOLYLINE
  5
2C5
330
12
100
AcDbEntity
  8
4WAYDRIVER1_SMT
  6
BYLAYER
370
   211
 62
   256
100
AcDbPolyline
 90
     2
 70
     0
 43
0.01
 10
0.075
 20
2.165
 10
0.075
 20
2.065
  0
LWPOLYLINE
  5
2C6
330
12
100
AcDbEntity
  8
4WAYDRIVER1_SMT
  6
BYLAYER
370
   211
 62
   256
100
AcDbPolyline
 90
     2
 70
     0
 43
0.01
 10
0.066
 20
2.165
 10
0.066
 20
2.065
  0
LWPOLYLINE
  5
2C7
330
12
100
AcDbEntity
  8
4WAYDRIVER1_SMT
  6
BYLAYER
370
   211
 62
   256
100
AcDbPolyline
 90
     2
 70
     0
 43
0.01
 10
0.057
 20
2.165
 10
0.057
 20
2.065
  0
LWPOLYLINE
  5
2C8
330
12
100
AcDbEntity
  8
4WAYDRIVER1_SMT
  6
BYLAYER
370
   211
 62
   256
100
AcDbPolyline
 90
     2
 70
     0
 43
0.01
 10
0.048
 20
2.165
 10
0.048
 20
2.065
  0
LWPOLYLINE
  5
2C9
330
12
100
AcDbEntity
  8
4WAYDRIVER1_SMT
  6
BYLAYER
370
   211
 62
   256
100
AcDbPolyline
 90
     2
 70
     0
 43
0.01
 10
0.039
 20
2.165
 10
0.039
 20
2.065
  0
LWPOLYLINE
  5
2CA
330
12
100
AcDbEntity
  8
4WAYDRIVER1_SMT
  6
BYLAYER
370
   211
 62
   256
100
AcDbPolyline
 90
     2
 70
     0
 43
0.01
 10
0.03
 20
2.165
 10
0.03
 20
2.065
  0
LWPOLYLINE
  5
2CB
330
12
100
AcDbEntity
  8
4WAYDRIVER1_SMT
  6
BYLAYER
370
   211
 62
   256
100
AcDbPolyline
 90
     2
 70
     0
 43
0.01
 10
0.206
 20
2.065
 10
0.026
 20
2.065
  0
LWPOLYLINE
  5
2CC
330
12
100
AcDbEntity
  8
4WAYDRIVER1_SMT
  6
BYLAYER
370
   211
 62
   256
100
AcDbPolyline
 90
     2
 70
     0
 43
0.01
 10
0.201
 20
2.165
 10
0.201
 20
2.065
  0
LWPOLYLINE
  5
2CD
330
12
100
AcDbEntity
  8
4WAYDRIVER1_SMT
  6
BYLAYER
370
   211
 62
   256
100
AcDbPolyline
 90
     2
 70
     0
 43
0.01
 10
0.192
 20
2.165
 10
0.192
 20
2.065
  0
LWPOLYLINE
  5
2CE
330
12
100
AcDbEntity
  8
4WAYDRIVER1_SMT
  6
BYLAYER
370
   211
 62
   256
100
AcDbPolyline
 90
     2
 70
     0
 43
0.01
 10
0.183
 20
2.165
 10
0.183
 20
2.065
  0
LWPOLYLINE
  5
2CF
330
12
100
AcDbEntity
  8
4WAYDRIVER1_SMT
  6
BYLAYER
370
   211
 62
   256
100
AcDbPolyline
 90
     2
 70
     0
 43
0.01
 10
0.174
 20
2.165
 10
0.174
 20
2.065
  0
LWPOLYLINE
  5
2D0
330
12
100
AcDbEntity
  8
4WAYDRIVER1_SMT
  6
BYLAYER
370
   211
 62
   256
100
AcDbPolyline
 90
     2
 70
     0
 43
0.01
 10
0.165
 20
2.165
 10
0.165
 20
2.065
  0
LWPOLYLINE
  5
2D1
330
12
100
AcDbEntity
  8
4WAYDRIVER1_SMT
  6
BYLAYER
370
   211
 62
   256
100
AcDbPolyline
 90
     2
 70
     0
 43
0.01
 10
0.156
 20
2.165
 10
0.156
 20
2.065
  0
LWPOLYLINE
  5
2D2
330
12
100
AcDbEntity
  8
4WAYDRIVER1_SMT
  6
BYLAYER
370
   211
 62
   256
100
AcDbPolyline
 90
     2
 70
     0
 43
0.01
 10
0.147
 20
2.165
 10
0.147
 20
2.065
  0
LWPOLYLINE
  5
2D3
330
12
100
AcDbEntity
  8
4WAYDRIVER1_SMT
  6
BYLAYER
370
   211
 62
   256
100
AcDbPolyline
 90
     2
 70
     0
 43
0.01
 10
0.138
 20
2.165
 10
0.138
 20
2.065
  0
LWPOLYLINE
  5
2D4
330
12
100
AcDbEntity
  8
4WAYDRIVER1_SMT
  6
BYLAYER
370
   211
 62
   256
100
AcDbPolyline
 90
     2
 70
     0
 43
0.01
 10
0.129
 20
2.165
 10
0.129
 20
2.065
  0
LWPOLYLINE
  5
2D5
330
12
100
AcDbEntity
  8
4WAYDRIVER1_SMT
  6
BYLAYER
370
   211
 62
   256
100
AcDbPolyline
 90
     2
 70
     0
 43
0.01
 10
0.206
 20
2.069
 10
0.026
 20
2.069
  0
LWPOLYLINE
  5
2D6
330
12
100
AcDbEntity
  8
4WAYDRIVER1_SMT
  6
BYLAYER
370
   211
 62
   256
100
AcDbPolyline
 90
     2
 70
     0
 43
0.01
 10
0.206
 20
2.165
 10
0.206
 20
2.065
  0
LWPOLYLINE
  5
2D7
330
12
100
AcDbEntity
  8
4WAYDRIVER1_SMT
  6
BYLAYER
370
   211
 62
   256
100
AcDbPolyline
 90
     3
 70
     0
 43
0.01
 10
0.206
 20
2.165
 10
0.026
 20
2.165
 10
0.026
 20
2.065
  0
LWPOLYLINE
  5
2D8
330
12
100
AcDbEntity
  8
4WAYDRIVER1_SMT
  6
BYLAYER
370
   211
 62
   256
100
AcDbPolyline
 90
     2
 70
     0
 43
0.01
 10
2.605
 20
0.376
 10
2.605
 20
0.314
  0
LWPOLYLINE
  5
2D9
330
12
100
AcDbEntity
  8
4WAYDRIVER1_SMT
  6
BYLAYER
370
   211
 62
   256
100
AcDbPolyline
 90
     2
 70
     0
 43
0.01
 10
2.596
 20
0.376
 10
2.596
 20
0.314
  0
LWPOLYLINE
  5
2DA
330
12
100
AcDbEntity
  8
4WAYDRIVER1_SMT
  6
BYLAYER
370
   211
 62
   256
100
AcDbPolyline
 90
     2
 70
     0
 43
0.01
 10
2.587
 20
0.376
 10
2.587
 20
0.314
  0
LWPOLYLINE
  5
2DB
330
12
100
AcDbEntity
  8
4WAYDRIVER1_SMT
  6
BYLAYER
370
   211
 62
   256
100
AcDbPolyline
 90
     2
 70
     0
 43
0.01
 10
2.578
 20
0.376
 10
2.578
 20
0.314
  0
LWPOLYLINE
  5
2DC
330
12
100
AcDbEntity
  8
4WAYDRIVER1_SMT
  6
BYLAYER
370
   211
 62
   256
100
AcDbPolyline
 90
     2
 70
     0
 43
0.01
 10
2.569
 20
0.376
 10
2.569
 20
0.314
  0
LWPOLYLINE
  5
2DD
330
12
100
AcDbEntity
  8
4WAYDRIVER1_SMT
  6
BYLAYER
370
   211
 62
   256
100
AcDbPolyline
 90
     2
 70
     0
 43
0.01
 10
2.739
 20
0.372
 10
2.565
 20
0.372
  0
LWPOLYLINE
  5
2DE
330
12
100
AcDbEntity
  8
4WAYDRIVER1_SMT
  6
BYLAYER
370
   211
 62
   256
100
AcDbPolyline
 90
     2
 70
     0
 43
0.01
 10
2.739
 20
0.363
 10
2.565
 20
0.363
  0
LWPOLYLINE
  5
2DF
330
12
100
AcDbEntity
  8
4WAYDRIVER1_SMT
  6
BYLAYER
370
   211
 62
   256
100
AcDbPolyline
 90
     2
 70
     0
 43
0.01
 10
2.739
 20
0.354
 10
2.565
 20
0.354
  0
LWPOLYLINE
  5
2E0
330
12
100
AcDbEntity
  8
4WAYDRIVER1_SMT
  6
BYLAYER
370
   211
 62
   256
100
AcDbPolyline
 90
     2
 70
     0
 43
0.01
 10
2.739
 20
0.345
 10
2.565
 20
0.345
  0
LWPOLYLINE
  5
2E1
330
12
100
AcDbEntity
  8
4WAYDRIVER1_SMT
  6
BYLAYER
370
   211
 62
   256
100
AcDbPolyline
 90
     2
 70
     0
 43
0.01
 10
2.739
 20
0.336
 10
2.565
 20
0.336
  0
LWPOLYLINE
  5
2E2
330
12
100
AcDbEntity
  8
4WAYDRIVER1_SMT
  6
BYLAYER
370
   211
 62
   256
100
AcDbPolyline
 90
     2
 70
     0
 43
0.01
 10
2.739
 20
0.327
 10
2.565
 20
0.327
  0
LWPOLYLINE
  5
2E3
330
12
100
AcDbEntity
  8
4WAYDRIVER1_SMT
  6
BYLAYER
370
   211
 62
   256
100
AcDbPolyline
 90
     2
 70
     0
 43
0.01
 10
2.704
 20
0.376
 10
2.704
 20
0.314
  0
LWPOLYLINE
  5
2E4
330
12
100
AcDbEntity
  8
4WAYDRIVER1_SMT
  6
BYLAYER
370
   211
 62
   256
100
AcDbPolyline
 90
     2
 70
     0
 43
0.01
 10
2.695
 20
0.376
 10
2.695
 20
0.314
  0
LWPOLYLINE
  5
2E5
330
12
100
AcDbEntity
  8
4WAYDRIVER1_SMT
  6
BYLAYER
370
   211
 62
   256
100
AcDbPolyline
 90
     2
 70
     0
 43
0.01
 10
2.686
 20
0.376
 10
2.686
 20
0.314
  0
LWPOLYLINE
  5
2E6
330
12
100
AcDbEntity
  8
4WAYDRIVER1_SMT
  6
BYLAYER
370
   211
 62
   256
100
AcDbPolyline
 90
     2
 70
     0
 43
0.01
 10
2.677
 20
0.376
 10
2.677
 20
0.314
  0
LWPOLYLINE
  5
2E7
330
12
100
AcDbEntity
  8
4WAYDRIVER1_SMT
  6
BYLAYER
370
   211
 62
   256
100
AcDbPolyline
 90
     2
 70
     0
 43
0.01
 10
2.668
 20
0.376
 10
2.668
 20
0.314
  0
LWPOLYLINE
  5
2E8
330
12
100
AcDbEntity
  8
4WAYDRIVER1_SMT
  6
BYLAYER
370
   211
 62
   256
100
AcDbPolyline
 90
     2
 70
     0
 43
0.01
 10
2.659
 20
0.376
 10
2.659
 20
0.314
  0
LWPOLYLINE
  5
2E9
330
12
100
AcDbEntity
  8
4WAYDRIVER1_SMT
  6
BYLAYER
370
   211
 62
   256
100
AcDbPolyline
 90
     2
 70
     0
 43
0.01
 10
2.65
 20
0.376
 10
2.65
 20
0.314
  0
LWPOLYLINE
  5
2EA
330
12
100
AcDbEntity
  8
4WAYDRIVER1_SMT
  6
BYLAYER
370
   211
 62
   256
100
AcDbPolyline
 90
     2
 70
     0
 43
0.01
 10
2.641
 20
0.376
 10
2.641
 20
0.314
  0
LWPOLYLINE
  5
2EB
330
12
100
AcDbEntity
  8
4WAYDRIVER1_SMT
  6
BYLAYER
370
   211
 62
   256
100
AcDbPolyline
 90
     2
 70
     0
 43
0.01
 10
2.632
 20
0.376
 10
2.632
 20
0.314
  0
LWPOLYLINE
  5
2EC
330
12
100
AcDbEntity
  8
4WAYDRIVER1_SMT
  6
BYLAYER
370
   211
 62
   256
100
AcDbPolyline
 90
     2
 70
     0
 43
0.01
 10
2.623
 20
0.376
 10
2.623
 20
0.314
  0
LWPOLYLINE
  5
2ED
330
12
100
AcDbEntity
  8
4WAYDRIVER1_SMT
  6
BYLAYER
370
   211
 62
   256
100
AcDbPolyline
 90
     2
 70
     0
 43
0.01
 10
2.614
 20
0.376
 10
2.614
 20
0.314
  0
LWPOLYLINE
  5
2EE
330
12
100
AcDbEntity
  8
4WAYDRIVER1_SMT
  6
BYLAYER
370
   211
 62
   256
100
AcDbPolyline
 90
     2
 70
     0
 43
0.01
 10
2.739
 20
0.318
 10
2.565
 20
0.318
  0
LWPOLYLINE
  5
2EF
330
12
100
AcDbEntity
  8
4WAYDRIVER1_SMT
  6
BYLAYER
370
   211
 62
   256
100
AcDbPolyline
 90
     2
 70
     0
 43
0.01
 10
2.739
 20
0.314
 10
2.565
 20
0.314
  0
LWPOLYLINE
  5
2F0
330
12
100
AcDbEntity
  8
4WAYDRIVER1_SMT
  6
BYLAYER
370
   211
 62
   256
100
AcDbPolyline
 90
     2
 70
     0
 43
0.01
 10
2.565
 20
0.376
 10
2.565
 20
0.314
  0
LWPOLYLINE
  5
2F1
330
12
100
AcDbEntity
  8
4WAYDRIVER1_SMT
  6
BYLAYER
370
   211
 62
   256
100
AcDbPolyline
 90
     2
 70
     0
 43
0.01
 10
2.739
 20
0.376
 10
2.565
 20
0.376
  0
LWPOLYLINE
  5
2F2
330
12
100
AcDbEntity
  8
4WAYDRIVER1_SMT
  6
BYLAYER
370
   211
 62
   256
100
AcDbPolyline
 90
     2
 70
     0
 43
0.01
 10
2.739
 20
0.376
 10
2.739
 20
0.314
  0
LWPOLYLINE
  5
2F3
330
12
100
AcDbEntity
  8
4WAYDRIVER1_SMT
  6
BYLAYER
370
   211
 62
   256
100
AcDbPolyline
 90
     2
 70
     0
 43
0.01
 10
2.731
 20
0.376
 10
2.731
 20
0.314
  0
LWPOLYLINE
  5
2F4
330
12
100
AcDbEntity
  8
4WAYDRIVER1_SMT
  6
BYLAYER
370
   211
 62
   256
100
AcDbPolyline
 90
     2
 70
     0
 43
0.01
 10
2.722
 20
0.376
 10
2.722
 20
0.314
  0
LWPOLYLINE
  5
2F5
330
12
100
AcDbEntity
  8
4WAYDRIVER1_SMT
  6
BYLAYER
370
   211
 62
   256
100
AcDbPolyline
 90
     2
 70
     0
 43
0.01
 10
2.713
 20
0.376
 10
2.713
 20
0.314
  0
LWPOLYLINE
  5
2F6
330
12
100
AcDbEntity
  8
4WAYDRIVER1_SMT
  6
BYLAYER
370
   211
 62
   256
100
AcDbPolyline
 90
     2
 70
     0
 43
0.01
 10
2.092
 20
0.376
 10
2.092
 20
0.314
  0
LWPOLYLINE
  5
2F7
330
12
100
AcDbEntity
  8
4WAYDRIVER1_SMT
  6
BYLAYER
370
   211
 62
   256
100
AcDbPolyline
 90
     2
 70
     0
 43
0.01
 10
2.083
 20
0.376
 10
2.083
 20
0.314
  0
LWPOLYLINE
  5
2F8
330
12
100
AcDbEntity
  8
4WAYDRIVER1_SMT
  6
BYLAYER
370
   211
 62
   256
100
AcDbPolyline
 90
     2
 70
     0
 43
0.01
 10
2.074
 20
0.376
 10
2.074
 20
0.314
  0
LWPOLYLINE
  5
2F9
330
12
100
AcDbEntity
  8
4WAYDRIVER1_SMT
  6
BYLAYER
370
   211
 62
   256
100
AcDbPolyline
 90
     2
 70
     0
 43
0.01
 10
2.065
 20
0.376
 10
2.065
 20
0.314
  0
LWPOLYLINE
  5
2FA
330
12
100
AcDbEntity
  8
4WAYDRIVER1_SMT
  6
BYLAYER
370
   211
 62
   256
100
AcDbPolyline
 90
     2
 70
     0
 43
0.01
 10
2.056
 20
0.376
 10
2.056
 20
0.314
  0
LWPOLYLINE
  5
2FB
330
12
100
AcDbEntity
  8
4WAYDRIVER1_SMT
  6
BYLAYER
370
   211
 62
   256
100
AcDbPolyline
 90
     2
 70
     0
 43
0.01
 10
2.225
 20
0.372
 10
2.052
 20
0.372
  0
LWPOLYLINE
  5
2FC
330
12
100
AcDbEntity
  8
4WAYDRIVER1_SMT
  6
BYLAYER
370
   211
 62
   256
100
AcDbPolyline
 90
     2
 70
     0
 43
0.01
 10
2.225
 20
0.363
 10
2.052
 20
0.363
  0
LWPOLYLINE
  5
2FD
330
12
100
AcDbEntity
  8
4WAYDRIVER1_SMT
  6
BYLAYER
370
   211
 62
   256
100
AcDbPolyline
 90
     2
 70
     0
 43
0.01
 10
2.225
 20
0.354
 10
2.052
 20
0.354
  0
LWPOLYLINE
  5
2FE
330
12
100
AcDbEntity
  8
4WAYDRIVER1_SMT
  6
BYLAYER
370
   211
 62
   256
100
AcDbPolyline
 90
     2
 70
     0
 43
0.01
 10
2.225
 20
0.345
 10
2.052
 20
0.345
  0
LWPOLYLINE
  5
2FF
330
12
100
AcDbEntity
  8
4WAYDRIVER1_SMT
  6
BYLAYER
370
   211
 62
   256
100
AcDbPolyline
 90
     2
 70
     0
 43
0.01
 10
2.225
 20
0.336
 10
2.052
 20
0.336
  0
LWPOLYLINE
  5
300
330
12
100
AcDbEntity
  8
4WAYDRIVER1_SMT
  6
BYLAYER
370
   211
 62
   256
100
AcDbPolyline
 90
     2
 70
     0
 43
0.01
 10
2.225
 20
0.327
 10
2.052
 20
0.327
  0
LWPOLYLINE
  5
301
330
12
100
AcDbEntity
  8
4WAYDRIVER1_SMT
  6
BYLAYER
370
   211
 62
   256
100
AcDbPolyline
 90
     2
 70
     0
 43
0.01
 10
2.191
 20
0.376
 10
2.191
 20
0.314
  0
LWPOLYLINE
  5
302
330
12
100
AcDbEntity
  8
4WAYDRIVER1_SMT
  6
BYLAYER
370
   211
 62
   256
100
AcDbPolyline
 90
     2
 70
     0
 43
0.01
 10
2.182
 20
0.376
 10
2.182
 20
0.314
  0
LWPOLYLINE
  5
303
330
12
100
AcDbEntity
  8
4WAYDRIVER1_SMT
  6
BYLAYER
370
   211
 62
   256
100
AcDbPolyline
 90
     2
 70
     0
 43
0.01
 10
2.173
 20
0.376
 10
2.173
 20
0.314
  0
LWPOLYLINE
  5
304
330
12
100
AcDbEntity
  8
4WAYDRIVER1_SMT
  6
BYLAYER
370
   211
 62
   256
100
AcDbPolyline
 90
     2
 70
     0
 43
0.01
 10
2.164
 20
0.376
 10
2.164
 20
0.314
  0
LWPOLYLINE
  5
305
330
12
100
AcDbEntity
  8
4WAYDRIVER1_SMT
  6
BYLAYER
370
   211
 62
   256
100
AcDbPolyline
 90
     2
 70
     0
 43
0.01
 10
2.155
 20
0.376
 10
2.155
 20
0.314
  0
LWPOLYLINE
  5
306
330
12
100
AcDbEntity
  8
4WAYDRIVER1_SMT
  6
BYLAYER
370
   211
 62
   256
100
AcDbPolyline
 90
     2
 70
     0
 43
0.01
 10
2.146
 20
0.376
 10
2.146
 20
0.314
  0
LWPOLYLINE
  5
307
330
12
100
AcDbEntity
  8
4WAYDRIVER1_SMT
  6
BYLAYER
370
   211
 62
   256
100
AcDbPolyline
 90
     2
 70
     0
 43
0.01
 10
2.137
 20
0.376
 10
2.137
 20
0.314
  0
LWPOLYLINE
  5
308
330
12
100
AcDbEntity
  8
4WAYDRIVER1_SMT
  6
BYLAYER
370
   211
 62
   256
100
AcDbPolyline
 90
     2
 70
     0
 43
0.01
 10
2.128
 20
0.376
 10
2.128
 20
0.314
  0
LWPOLYLINE
  5
309
330
12
100
AcDbEntity
  8
4WAYDRIVER1_SMT
  6
BYLAYER
370
   211
 62
   256
100
AcDbPolyline
 90
     2
 70
     0
 43
0.01
 10
2.119
 20
0.376
 10
2.119
 20
0.314
  0
LWPOLYLINE
  5
30A
330
12
100
AcDbEntity
  8
4WAYDRIVER1_SMT
  6
BYLAYER
370
   211
 62
   256
100
AcDbPolyline
 90
     2
 70
     0
 43
0.01
 10
2.11
 20
0.376
 10
2.11
 20
0.314
  0
LWPOLYLINE
  5
30B
330
12
100
AcDbEntity
  8
4WAYDRIVER1_SMT
  6
BYLAYER
370
   211
 62
   256
100
AcDbPolyline
 90
     2
 70
     0
 43
0.01
 10
2.101
 20
0.376
 10
2.101
 20
0.314
  0
LWPOLYLINE
  5
30C
330
12
100
AcDbEntity
  8
4WAYDRIVER1_SMT
  6
BYLAYER
370
   211
 62
   256
100
AcDbPolyline
 90
     2
 70
     0
 43
0.01
 10
2.225
 20
0.318
 10
2.052
 20
0.318
  0
LWPOLYLINE
  5
30D
330
12
100
AcDbEntity
  8
4WAYDRIVER1_SMT
  6
BYLAYER
370
   211
 62
   256
100
AcDbPolyline
 90
     2
 70
     0
 43
0.01
 10
2.225
 20
0.376
 10
2.225
 20
0.314
  0
LWPOLYLINE
  5
30E
330
12
100
AcDbEntity
  8
4WAYDRIVER1_SMT
  6
BYLAYER
370
   211
 62
   256
100
AcDbPolyline
 90
     3
 70
     0
 43
0.01
 10
2.225
 20
0.376
 10
2.052
 20
0.376
 10
2.052
 20
0.314
  0
LWPOLYLINE
  5
30F
330
12
100
AcDbEntity
  8
4WAYDRIVER1_SMT
  6
BYLAYER
370
   211
 62
   256
100
AcDbPolyline
 90
     2
 70
     0
 43
0.01
 10
2.225
 20
0.314
 10
2.052
 20
0.314
  0
LWPOLYLINE
  5
310
330
12
100
AcDbEntity
  8
4WAYDRIVER1_SMT
  6
BYLAYER
370
   211
 62
   256
100
AcDbPolyline
 90
     2
 70
     0
 43
0.01
 10
2.218
 20
0.376
 10
2.218
 20
0.314
  0
LWPOLYLINE
  5
311
330
12
100
AcDbEntity
  8
4WAYDRIVER1_SMT
  6
BYLAYER
370
   211
 62
   256
100
AcDbPolyline
 90
     2
 70
     0
 43
0.01
 10
2.209
 20
0.376
 10
2.209
 20
0.314
  0
LWPOLYLINE
  5
312
330
12
100
AcDbEntity
  8
4WAYDRIVER1_SMT
  6
BYLAYER
370
   211
 62
   256
100
AcDbPolyline
 90
     2
 70
     0
 43
0.01
 10
2.2
 20
0.376
 10
2.2
 20
0.314
  0
LWPOLYLINE
  5
313
330
12
100
AcDbEntity
  8
4WAYDRIVER1_SMT
  6
BYLAYER
370
   211
 62
   256
100
AcDbPolyline
 90
     2
 70
     0
 43
0.01
 10
1.415
 20
0.377
 10
1.415
 20
0.315
  0
LWPOLYLINE
  5
314
330
12
100
AcDbEntity
  8
4WAYDRIVER1_SMT
  6
BYLAYER
370
   211
 62
   256
100
AcDbPolyline
 90
     2
 70
     0
 43
0.01
 10
1.406
 20
0.377
 10
1.406
 20
0.315
  0
LWPOLYLINE
  5
315
330
12
100
AcDbEntity
  8
4WAYDRIVER1_SMT
  6
BYLAYER
370
   211
 62
   256
100
AcDbPolyline
 90
     2
 70
     0
 43
0.01
 10
1.397
 20
0.377
 10
1.397
 20
0.315
  0
LWPOLYLINE
  5
316
330
12
100
AcDbEntity
  8
4WAYDRIVER1_SMT
  6
BYLAYER
370
   211
 62
   256
100
AcDbPolyline
 90
     2
 70
     0
 43
0.01
 10
1.388
 20
0.377
 10
1.388
 20
0.315
  0
LWPOLYLINE
  5
317
330
12
100
AcDbEntity
  8
4WAYDRIVER1_SMT
  6
BYLAYER
370
   211
 62
   256
100
AcDbPolyline
 90
     2
 70
     0
 43
0.01
 10
1.379
 20
0.377
 10
1.379
 20
0.315
  0
LWPOLYLINE
  5
318
330
12
100
AcDbEntity
  8
4WAYDRIVER1_SMT
  6
BYLAYER
370
   211
 62
   256
100
AcDbPolyline
 90
     2
 70
     0
 43
0.01
 10
1.54
 20
0.373
 10
1.375
 20
0.373
  0
LWPOLYLINE
  5
319
330
12
100
AcDbEntity
  8
4WAYDRIVER1_SMT
  6
BYLAYER
370
   211
 62
   256
100
AcDbPolyline
 90
     2
 70
     0
 43
0.01
 10
1.54
 20
0.364
 10
1.375
 20
0.364
  0
LWPOLYLINE
  5
31A
330
12
100
AcDbEntity
  8
4WAYDRIVER1_SMT
  6
BYLAYER
370
   211
 62
   256
100
AcDbPolyline
 90
     2
 70
     0
 43
0.01
 10
1.54
 20
0.355
 10
1.375
 20
0.355
  0
LWPOLYLINE
  5
31B
330
12
100
AcDbEntity
  8
4WAYDRIVER1_SMT
  6
BYLAYER
370
   211
 62
   256
100
AcDbPolyline
 90
     2
 70
     0
 43
0.01
 10
1.54
 20
0.346
 10
1.375
 20
0.346
  0
LWPOLYLINE
  5
31C
330
12
100
AcDbEntity
  8
4WAYDRIVER1_SMT
  6
BYLAYER
370
   211
 62
   256
100
AcDbPolyline
 90
     2
 70
     0
 43
0.01
 10
1.54
 20
0.337
 10
1.375
 20
0.337
  0
LWPOLYLINE
  5
31D
330
12
100
AcDbEntity
  8
4WAYDRIVER1_SMT
  6
BYLAYER
370
   211
 62
   256
100
AcDbPolyline
 90
     2
 70
     0
 43
0.01
 10
1.54
 20
0.328
 10
1.375
 20
0.328
  0
LWPOLYLINE
  5
31E
330
12
100
AcDbEntity
  8
4WAYDRIVER1_SMT
  6
BYLAYER
370
   211
 62
   256
100
AcDbPolyline
 90
     2
 70
     0
 43
0.01
 10
1.514
 20
0.377
 10
1.514
 20
0.315
  0
LWPOLYLINE
  5
31F
330
12
100
AcDbEntity
  8
4WAYDRIVER1_SMT
  6
BYLAYER
370
   211
 62
   256
100
AcDbPolyline
 90
     2
 70
     0
 43
0.01
 10
1.505
 20
0.377
 10
1.505
 20
0.315
  0
LWPOLYLINE
  5
320
330
12
100
AcDbEntity
  8
4WAYDRIVER1_SMT
  6
BYLAYER
370
   211
 62
   256
100
AcDbPolyline
 90
     2
 70
     0
 43
0.01
 10
1.496
 20
0.377
 10
1.496
 20
0.315
  0
LWPOLYLINE
  5
321
330
12
100
AcDbEntity
  8
4WAYDRIVER1_SMT
  6
BYLAYER
370
   211
 62
   256
100
AcDbPolyline
 90
     2
 70
     0
 43
0.01
 10
1.487
 20
0.377
 10
1.487
 20
0.315
  0
LWPOLYLINE
  5
322
330
12
100
AcDbEntity
  8
4WAYDRIVER1_SMT
  6
BYLAYER
370
   211
 62
   256
100
AcDbPolyline
 90
     2
 70
     0
 43
0.01
 10
1.478
 20
0.377
 10
1.478
 20
0.315
  0
LWPOLYLINE
  5
323
330
12
100
AcDbEntity
  8
4WAYDRIVER1_SMT
  6
BYLAYER
370
   211
 62
   256
100
AcDbPolyline
 90
     2
 70
     0
 43
0.01
 10
1.469
 20
0.377
 10
1.469
 20
0.315
  0
LWPOLYLINE
  5
324
330
12
100
AcDbEntity
  8
4WAYDRIVER1_SMT
  6
BYLAYER
370
   211
 62
   256
100
AcDbPolyline
 90
     2
 70
     0
 43
0.01
 10
1.46
 20
0.377
 10
1.46
 20
0.315
  0
LWPOLYLINE
  5
325
330
12
100
AcDbEntity
  8
4WAYDRIVER1_SMT
  6
BYLAYER
370
   211
 62
   256
100
AcDbPolyline
 90
     2
 70
     0
 43
0.01
 10
1.451
 20
0.377
 10
1.451
 20
0.315
  0
LWPOLYLINE
  5
326
330
12
100
AcDbEntity
  8
4WAYDRIVER1_SMT
  6
BYLAYER
370
   211
 62
   256
100
AcDbPolyline
 90
     2
 70
     0
 43
0.01
 10
1.442
 20
0.377
 10
1.442
 20
0.315
  0
LWPOLYLINE
  5
327
330
12
100
AcDbEntity
  8
4WAYDRIVER1_SMT
  6
BYLAYER
370
   211
 62
   256
100
AcDbPolyline
 90
     2
 70
     0
 43
0.01
 10
1.433
 20
0.377
 10
1.433
 20
0.315
  0
LWPOLYLINE
  5
328
330
12
100
AcDbEntity
  8
4WAYDRIVER1_SMT
  6
BYLAYER
370
   211
 62
   256
100
AcDbPolyline
 90
     2
 70
     0
 43
0.01
 10
1.424
 20
0.377
 10
1.424
 20
0.315
  0
LWPOLYLINE
  5
329
330
12
100
AcDbEntity
  8
4WAYDRIVER1_SMT
  6
BYLAYER
370
   211
 62
   256
100
AcDbPolyline
 90
     2
 70
     0
 43
0.01
 10
1.54
 20
0.319
 10
1.375
 20
0.319
  0
LWPOLYLINE
  5
32A
330
12
100
AcDbEntity
  8
4WAYDRIVER1_SMT
  6
BYLAYER
370
   211
 62
   256
100
AcDbPolyline
 90
     2
 70
     0
 43
0.01
 10
1.54
 20
0.315
 10
1.375
 20
0.315
  0
LWPOLYLINE
  5
32B
330
12
100
AcDbEntity
  8
4WAYDRIVER1_SMT
  6
BYLAYER
370
   211
 62
   256
100
AcDbPolyline
 90
     2
 70
     0
 43
0.01
 10
1.375
 20
0.377
 10
1.375
 20
0.315
  0
LWPOLYLINE
  5
32C
330
12
100
AcDbEntity
  8
4WAYDRIVER1_SMT
  6
BYLAYER
370
   211
 62
   256
100
AcDbPolyline
 90
     2
 70
     0
 43
0.01
 10
1.54
 20
0.377
 10
1.375
 20
0.377
  0
LWPOLYLINE
  5
32D
330
12
100
AcDbEntity
  8
4WAYDRIVER1_SMT
  6
BYLAYER
370
   211
 62
   256
100
AcDbPolyline
 90
     2
 70
     0
 43
0.01
 10
1.54
 20
0.377
 10
1.54
 20
0.315
  0
LWPOLYLINE
  5
32E
330
12
100
AcDbEntity
  8
4WAYDRIVER1_SMT
  6
BYLAYER
370
   211
 62
   256
100
AcDbPolyline
 90
     2
 70
     0
 43
0.01
 10
1.532
 20
0.377
 10
1.532
 20
0.315
  0
LWPOLYLINE
  5
32F
330
12
100
AcDbEntity
  8
4WAYDRIVER1_SMT
  6
BYLAYER
370
   211
 62
   256
100
AcDbPolyline
 90
     2
 70
     0
 43
0.01
 10
1.523
 20
0.377
 10
1.523
 20
0.315
  0
LWPOLYLINE
  5
330
330
12
100
AcDbEntity
  8
4WAYDRIVER1_SMT
  6
BYLAYER
370
   211
 62
   256
100
AcDbPolyline
 90
     2
 70
     0
 43
0.01
 10
0.882
 20
0.377
 10
0.882
 20
0.313
  0
LWPOLYLINE
  5
331
330
12
100
AcDbEntity
  8
4WAYDRIVER1_SMT
  6
BYLAYER
370
   211
 62
   256
100
AcDbPolyline
 90
     2
 70
     0
 43
0.01
 10
0.873
 20
0.377
 10
0.873
 20
0.313
  0
LWPOLYLINE
  5
332
330
12
100
AcDbEntity
  8
4WAYDRIVER1_SMT
  6
BYLAYER
370
   211
 62
   256
100
AcDbPolyline
 90
     2
 70
     0
 43
0.01
 10
0.864
 20
0.377
 10
0.864
 20
0.313
  0
LWPOLYLINE
  5
333
330
12
100
AcDbEntity
  8
4WAYDRIVER1_SMT
  6
BYLAYER
370
   211
 62
   256
100
AcDbPolyline
 90
     2
 70
     0
 43
0.01
 10
0.855
 20
0.377
 10
0.855
 20
0.313
  0
LWPOLYLINE
  5
334
330
12
100
AcDbEntity
  8
4WAYDRIVER1_SMT
  6
BYLAYER
370
   211
 62
   256
100
AcDbPolyline
 90
     2
 70
     0
 43
0.01
 10
1.035
 20
0.371
 10
0.851
 20
0.371
  0
LWPOLYLINE
  5
335
330
12
100
AcDbEntity
  8
4WAYDRIVER1_SMT
  6
BYLAYER
370
   211
 62
   256
100
AcDbPolyline
 90
     2
 70
     0
 43
0.01
 10
1.035
 20
0.362
 10
0.851
 20
0.362
  0
LWPOLYLINE
  5
336
330
12
100
AcDbEntity
  8
4WAYDRIVER1_SMT
  6
BYLAYER
370
   211
 62
   256
100
AcDbPolyline
 90
     2
 70
     0
 43
0.01
 10
1.035
 20
0.353
 10
0.851
 20
0.353
  0
LWPOLYLINE
  5
337
330
12
100
AcDbEntity
  8
4WAYDRIVER1_SMT
  6
BYLAYER
370
   211
 62
   256
100
AcDbPolyline
 90
     2
 70
     0
 43
0.01
 10
1.035
 20
0.344
 10
0.851
 20
0.344
  0
LWPOLYLINE
  5
338
330
12
100
AcDbEntity
  8
4WAYDRIVER1_SMT
  6
BYLAYER
370
   211
 62
   256
100
AcDbPolyline
 90
     2
 70
     0
 43
0.01
 10
1.035
 20
0.335
 10
0.851
 20
0.335
  0
LWPOLYLINE
  5
339
330
12
100
AcDbEntity
  8
4WAYDRIVER1_SMT
  6
BYLAYER
370
   211
 62
   256
100
AcDbPolyline
 90
     2
 70
     0
 43
0.01
 10
1.035
 20
0.326
 10
0.851
 20
0.326
  0
LWPOLYLINE
  5
33A
330
12
100
AcDbEntity
  8
4WAYDRIVER1_SMT
  6
BYLAYER
370
   211
 62
   256
100
AcDbPolyline
 90
     2
 70
     0
 43
0.01
 10
0.981
 20
0.377
 10
0.981
 20
0.313
  0
LWPOLYLINE
  5
33B
330
12
100
AcDbEntity
  8
4WAYDRIVER1_SMT
  6
BYLAYER
370
   211
 62
   256
100
AcDbPolyline
 90
     2
 70
     0
 43
0.01
 10
0.972
 20
0.377
 10
0.972
 20
0.313
  0
LWPOLYLINE
  5
33C
330
12
100
AcDbEntity
  8
4WAYDRIVER1_SMT
  6
BYLAYER
370
   211
 62
   256
100
AcDbPolyline
 90
     2
 70
     0
 43
0.01
 10
0.963
 20
0.377
 10
0.963
 20
0.313
  0
LWPOLYLINE
  5
33D
330
12
100
AcDbEntity
  8
4WAYDRIVER1_SMT
  6
BYLAYER
370
   211
 62
   256
100
AcDbPolyline
 90
     2
 70
     0
 43
0.01
 10
0.954
 20
0.377
 10
0.954
 20
0.313
  0
LWPOLYLINE
  5
33E
330
12
100
AcDbEntity
  8
4WAYDRIVER1_SMT
  6
BYLAYER
370
   211
 62
   256
100
AcDbPolyline
 90
     2
 70
     0
 43
0.01
 10
0.945
 20
0.377
 10
0.945
 20
0.313
  0
LWPOLYLINE
  5
33F
330
12
100
AcDbEntity
  8
4WAYDRIVER1_SMT
  6
BYLAYER
370
   211
 62
   256
100
AcDbPolyline
 90
     2
 70
     0
 43
0.01
 10
0.936
 20
0.377
 10
0.936
 20
0.313
  0
LWPOLYLINE
  5
340
330
12
100
AcDbEntity
  8
4WAYDRIVER1_SMT
  6
BYLAYER
370
   211
 62
   256
100
AcDbPolyline
 90
     2
 70
     0
 43
0.01
 10
0.927
 20
0.377
 10
0.927
 20
0.313
  0
LWPOLYLINE
  5
341
330
12
100
AcDbEntity
  8
4WAYDRIVER1_SMT
  6
BYLAYER
370
   211
 62
   256
100
AcDbPolyline
 90
     2
 70
     0
 43
0.01
 10
0.918
 20
0.377
 10
0.918
 20
0.313
  0
LWPOLYLINE
  5
342
330
12
100
AcDbEntity
  8
4WAYDRIVER1_SMT
  6
BYLAYER
370
   211
 62
   256
100
AcDbPolyline
 90
     2
 70
     0
 43
0.01
 10
0.909
 20
0.377
 10
0.909
 20
0.313
  0
LWPOLYLINE
  5
343
330
12
100
AcDbEntity
  8
4WAYDRIVER1_SMT
  6
BYLAYER
370
   211
 62
   256
100
AcDbPolyline
 90
     2
 70
     0
 43
0.01
 10
0.9
 20
0.377
 10
0.9
 20
0.313
  0
LWPOLYLINE
  5
344
330
12
100
AcDbEntity
  8
4WAYDRIVER1_SMT
  6
BYLAYER
370
   211
 62
   256
100
AcDbPolyline
 90
     2
 70
     0
 43
0.01
 10
0.891
 20
0.377
 10
0.891
 20
0.313
  0
LWPOLYLINE
  5
345
330
12
100
AcDbEntity
  8
4WAYDRIVER1_SMT
  6
BYLAYER
370
   211
 62
   256
100
AcDbPolyline
 90
     2
 70
     0
 43
0.01
 10
1.035
 20
0.377
 10
1.035
 20
0.313
  0
LWPOLYLINE
  5
346
330
12
100
AcDbEntity
  8
4WAYDRIVER1_SMT
  6
BYLAYER
370
   211
 62
   256
100
AcDbPolyline
 90
     3
 70
     0
 43
0.01
 10
1.035
 20
0.377
 10
0.851
 20
0.377
 10
0.851
 20
0.313
  0
LWPOLYLINE
  5
347
330
12
100
AcDbEntity
  8
4WAYDRIVER1_SMT
  6
BYLAYER
370
   211
 62
   256
100
AcDbPolyline
 90
     2
 70
     0
 43
0.01
 10
1.035
 20
0.313
 10
0.851
 20
0.313
  0
LWPOLYLINE
  5
348
330
12
100
AcDbEntity
  8
4WAYDRIVER1_SMT
  6
BYLAYER
370
   211
 62
   256
100
AcDbPolyline
 90
     2
 70
     0
 43
0.01
 10
1.035
 20
0.317
 10
0.851
 20
0.317
  0
LWPOLYLINE
  5
349
330
12
100
AcDbEntity
  8
4WAYDRIVER1_SMT
  6
BYLAYER
370
   211
 62
   256
100
AcDbPolyline
 90
     2
 70
     0
 43
0.01
 10
1.026
 20
0.377
 10
1.026
 20
0.313
  0
LWPOLYLINE
  5
34A
330
12
100
AcDbEntity
  8
4WAYDRIVER1_SMT
  6
BYLAYER
370
   211
 62
   256
100
AcDbPolyline
 90
     2
 70
     0
 43
0.01
 10
1.017
 20
0.377
 10
1.017
 20
0.313
  0
LWPOLYLINE
  5
34B
330
12
100
AcDbEntity
  8
4WAYDRIVER1_SMT
  6
BYLAYER
370
   211
 62
   256
100
AcDbPolyline
 90
     2
 70
     0
 43
0.01
 10
1.008
 20
0.377
 10
1.008
 20
0.313
  0
LWPOLYLINE
  5
34C
330
12
100
AcDbEntity
  8
4WAYDRIVER1_SMT
  6
BYLAYER
370
   211
 62
   256
100
AcDbPolyline
 90
     2
 70
     0
 43
0.01
 10
0.999
 20
0.377
 10
0.999
 20
0.313
  0
LWPOLYLINE
  5
34D
330
12
100
AcDbEntity
  8
4WAYDRIVER1_SMT
  6
BYLAYER
370
   211
 62
   256
100
AcDbPolyline
 90
     2
 70
     0
 43
0.01
 10
0.99
 20
0.377
 10
0.99
 20
0.313
  0
LWPOLYLINE
  5
34E
330
12
100
AcDbEntity
  8
4WAYDRIVER1_SMT
  6
BYLAYER
370
   211
 62
   256
100
AcDbPolyline
 90
     2
 70
     0
 43
0.01
 10
1.441
 20
1.922
 10
1.441
 20
1.858
  0
LWPOLYLINE
  5
34F
330
12
100
AcDbEntity
  8
4WAYDRIVER1_SMT
  6
BYLAYER
370
   211
 62
   256
100
AcDbPolyline
 90
     2
 70
     0
 43
0.01
 10
1.432
 20
1.922
 10
1.432
 20
1.858
  0
LWPOLYLINE
  5
350
330
12
100
AcDbEntity
  8
4WAYDRIVER1_SMT
  6
BYLAYER
370
   211
 62
   256
100
AcDbPolyline
 90
     2
 70
     0
 43
0.01
 10
1.423
 20
1.922
 10
1.423
 20
1.858
  0
LWPOLYLINE
  5
351
330
12
100
AcDbEntity
  8
4WAYDRIVER1_SMT
  6
BYLAYER
370
   211
 62
   256
100
AcDbPolyline
 90
     2
 70
     0
 43
0.01
 10
1.414
 20
1.922
 10
1.414
 20
1.858
  0
LWPOLYLINE
  5
352
330
12
100
AcDbEntity
  8
4WAYDRIVER1_SMT
  6
BYLAYER
370
   211
 62
   256
100
AcDbPolyline
 90
     2
 70
     0
 43
0.01
 10
1.625
 20
1.916
 10
1.41
 20
1.916
  0
LWPOLYLINE
  5
353
330
12
100
AcDbEntity
  8
4WAYDRIVER1_SMT
  6
BYLAYER
370
   211
 62
   256
100
AcDbPolyline
 90
     2
 70
     0
 43
0.01
 10
1.625
 20
1.907
 10
1.41
 20
1.907
  0
LWPOLYLINE
  5
354
330
12
100
AcDbEntity
  8
4WAYDRIVER1_SMT
  6
BYLAYER
370
   211
 62
   256
100
AcDbPolyline
 90
     2
 70
     0
 43
0.01
 10
1.625
 20
1.898
 10
1.41
 20
1.898
  0
LWPOLYLINE
  5
355
330
12
100
AcDbEntity
  8
4WAYDRIVER1_SMT
  6
BYLAYER
370
   211
 62
   256
100
AcDbPolyline
 90
     2
 70
     0
 43
0.01
 10
1.625
 20
1.889
 10
1.41
 20
1.889
  0
LWPOLYLINE
  5
356
330
12
100
AcDbEntity
  8
4WAYDRIVER1_SMT
  6
BYLAYER
370
   211
 62
   256
100
AcDbPolyline
 90
     2
 70
     0
 43
0.01
 10
1.625
 20
1.88
 10
1.41
 20
1.88
  0
LWPOLYLINE
  5
357
330
12
100
AcDbEntity
  8
4WAYDRIVER1_SMT
  6
BYLAYER
370
   211
 62
   256
100
AcDbPolyline
 90
     2
 70
     0
 43
0.01
 10
1.625
 20
1.871
 10
1.41
 20
1.871
  0
LWPOLYLINE
  5
358
330
12
100
AcDbEntity
  8
4WAYDRIVER1_SMT
  6
BYLAYER
370
   211
 62
   256
100
AcDbPolyline
 90
     2
 70
     0
 43
0.01
 10
1.54
 20
1.922
 10
1.54
 20
1.858
  0
LWPOLYLINE
  5
359
330
12
100
AcDbEntity
  8
4WAYDRIVER1_SMT
  6
BYLAYER
370
   211
 62
   256
100
AcDbPolyline
 90
     2
 70
     0
 43
0.01
 10
1.531
 20
1.922
 10
1.531
 20
1.858
  0
LWPOLYLINE
  5
35A
330
12
100
AcDbEntity
  8
4WAYDRIVER1_SMT
  6
BYLAYER
370
   211
 62
   256
100
AcDbPolyline
 90
     2
 70
     0
 43
0.01
 10
1.522
 20
1.922
 10
1.522
 20
1.858
  0
LWPOLYLINE
  5
35B
330
12
100
AcDbEntity
  8
4WAYDRIVER1_SMT
  6
BYLAYER
370
   211
 62
   256
100
AcDbPolyline
 90
     2
 70
     0
 43
0.01
 10
1.513
 20
1.922
 10
1.513
 20
1.858
  0
LWPOLYLINE
  5
35C
330
12
100
AcDbEntity
  8
4WAYDRIVER1_SMT
  6
BYLAYER
370
   211
 62
   256
100
AcDbPolyline
 90
     2
 70
     0
 43
0.01
 10
1.504
 20
1.922
 10
1.504
 20
1.858
  0
LWPOLYLINE
  5
35D
330
12
100
AcDbEntity
  8
4WAYDRIVER1_SMT
  6
BYLAYER
370
   211
 62
   256
100
AcDbPolyline
 90
     2
 70
     0
 43
0.01
 10
1.495
 20
1.922
 10
1.495
 20
1.858
  0
LWPOLYLINE
  5
35E
330
12
100
AcDbEntity
  8
4WAYDRIVER1_SMT
  6
BYLAYER
370
   211
 62
   256
100
AcDbPolyline
 90
     2
 70
     0
 43
0.01
 10
1.486
 20
1.922
 10
1.486
 20
1.858
  0
LWPOLYLINE
  5
35F
330
12
100
AcDbEntity
  8
4WAYDRIVER1_SMT
  6
BYLAYER
370
   211
 62
   256
100
AcDbPolyline
 90
     2
 70
     0
 43
0.01
 10
1.477
 20
1.922
 10
1.477
 20
1.858
  0
LWPOLYLINE
  5
360
330
12
100
AcDbEntity
  8
4WAYDRIVER1_SMT
  6
BYLAYER
370
   211
 62
   256
100
AcDbPolyline
 90
     2
 70
     0
 43
0.01
 10
1.468
 20
1.922
 10
1.468
 20
1.858
  0
LWPOLYLINE
  5
361
330
12
100
AcDbEntity
  8
4WAYDRIVER1_SMT
  6
BYLAYER
370
   211
 62
   256
100
AcDbPolyline
 90
     2
 70
     0
 43
0.01
 10
1.459
 20
1.922
 10
1.459
 20
1.858
  0
LWPOLYLINE
  5
362
330
12
100
AcDbEntity
  8
4WAYDRIVER1_SMT
  6
BYLAYER
370
   211
 62
   256
100
AcDbPolyline
 90
     2
 70
     0
 43
0.01
 10
1.45
 20
1.922
 10
1.45
 20
1.858
  0
LWPOLYLINE
  5
363
330
12
100
AcDbEntity
  8
4WAYDRIVER1_SMT
  6
BYLAYER
370
   211
 62
   256
100
AcDbPolyline
 90
     2
 70
     0
 43
0.01
 10
1.41
 20
1.922
 10
1.41
 20
1.858
  0
LWPOLYLINE
  5
364
330
12
100
AcDbEntity
  8
4WAYDRIVER1_SMT
  6
BYLAYER
370
   211
 62
   256
100
AcDbPolyline
 90
     2
 70
     0
 43
0.01
 10
1.621
 20
1.922
 10
1.621
 20
1.858
  0
LWPOLYLINE
  5
365
330
12
100
AcDbEntity
  8
4WAYDRIVER1_SMT
  6
BYLAYER
370
   211
 62
   256
100
AcDbPolyline
 90
     2
 70
     0
 43
0.01
 10
1.612
 20
1.922
 10
1.612
 20
1.858
  0
LWPOLYLINE
  5
366
330
12
100
AcDbEntity
  8
4WAYDRIVER1_SMT
  6
BYLAYER
370
   211
 62
   256
100
AcDbPolyline
 90
     2
 70
     0
 43
0.01
 10
1.603
 20
1.922
 10
1.603
 20
1.858
  0
LWPOLYLINE
  5
367
330
12
100
AcDbEntity
  8
4WAYDRIVER1_SMT
  6
BYLAYER
370
   211
 62
   256
100
AcDbPolyline
 90
     2
 70
     0
 43
0.01
 10
1.594
 20
1.922
 10
1.594
 20
1.858
  0
LWPOLYLINE
  5
368
330
12
100
AcDbEntity
  8
4WAYDRIVER1_SMT
  6
BYLAYER
370
   211
 62
   256
100
AcDbPolyline
 90
     2
 70
     0
 43
0.01
 10
1.585
 20
1.922
 10
1.585
 20
1.858
  0
LWPOLYLINE
  5
369
330
12
100
AcDbEntity
  8
4WAYDRIVER1_SMT
  6
BYLAYER
370
   211
 62
   256
100
AcDbPolyline
 90
     2
 70
     0
 43
0.01
 10
1.576
 20
1.922
 10
1.576
 20
1.858
  0
LWPOLYLINE
  5
36A
330
12
100
AcDbEntity
  8
4WAYDRIVER1_SMT
  6
BYLAYER
370
   211
 62
   256
100
AcDbPolyline
 90
     2
 70
     0
 43
0.01
 10
1.567
 20
1.922
 10
1.567
 20
1.858
  0
LWPOLYLINE
  5
36B
330
12
100
AcDbEntity
  8
4WAYDRIVER1_SMT
  6
BYLAYER
370
   211
 62
   256
100
AcDbPolyline
 90
     2
 70
     0
 43
0.01
 10
1.558
 20
1.922
 10
1.558
 20
1.858
  0
LWPOLYLINE
  5
36C
330
12
100
AcDbEntity
  8
4WAYDRIVER1_SMT
  6
BYLAYER
370
   211
 62
   256
100
AcDbPolyline
 90
     2
 70
     0
 43
0.01
 10
1.549
 20
1.922
 10
1.549
 20
1.858
  0
LWPOLYLINE
  5
36D
330
12
100
AcDbEntity
  8
4WAYDRIVER1_SMT
  6
BYLAYER
370
   211
 62
   256
100
AcDbPolyline
 90
     2
 70
     0
 43
0.01
 10
1.625
 20
1.862
 10
1.41
 20
1.862
  0
LWPOLYLINE
  5
36E
330
12
100
AcDbEntity
  8
4WAYDRIVER1_SMT
  6
BYLAYER
370
   211
 62
   256
100
AcDbPolyline
 90
     2
 70
     0
 43
0.01
 10
1.625
 20
1.922
 10
1.41
 20
1.922
  0
LWPOLYLINE
  5
36F
330
12
100
AcDbEntity
  8
4WAYDRIVER1_SMT
  6
BYLAYER
370
   211
 62
   256
100
AcDbPolyline
 90
     3
 70
     0
 43
0.01
 10
1.625
 20
1.922
 10
1.625
 20
1.858
 10
1.41
 20
1.858
  0
LWPOLYLINE
  5
370
330
12
100
AcDbEntity
  8
4WAYDRIVER1_SMT
  6
BYLAYER
370
   211
 62
   256
100
AcDbPolyline
 90
     2
 70
     0
 43
0.01
 10
0.493
 20
2.441
 10
0.318
 20
2.441
  0
LWPOLYLINE
  5
371
330
12
100
AcDbEntity
  8
4WAYDRIVER1_SMT
  6
BYLAYER
370
   211
 62
   256
100
AcDbPolyline
 90
     2
 70
     0
 43
0.01
 10
0.493
 20
2.432
 10
0.318
 20
2.432
  0
LWPOLYLINE
  5
372
330
12
100
AcDbEntity
  8
4WAYDRIVER1_SMT
  6
BYLAYER
370
   211
 62
   256
100
AcDbPolyline
 90
     2
 70
     0
 43
0.01
 10
0.493
 20
2.423
 10
0.318
 20
2.423
  0
LWPOLYLINE
  5
373
330
12
100
AcDbEntity
  8
4WAYDRIVER1_SMT
  6
BYLAYER
370
   211
 62
   256
100
AcDbPolyline
 90
     2
 70
     0
 43
0.01
 10
0.493
 20
2.414
 10
0.318
 20
2.414
  0
LWPOLYLINE
  5
374
330
12
100
AcDbEntity
  8
4WAYDRIVER1_SMT
  6
BYLAYER
370
   211
 62
   256
100
AcDbPolyline
 90
     2
 70
     0
 43
0.01
 10
0.493
 20
2.405
 10
0.318
 20
2.405
  0
LWPOLYLINE
  5
375
330
12
100
AcDbEntity
  8
4WAYDRIVER1_SMT
  6
BYLAYER
370
   211
 62
   256
100
AcDbPolyline
 90
     2
 70
     0
 43
0.01
 10
0.493
 20
2.396
 10
0.318
 20
2.396
  0
LWPOLYLINE
  5
376
330
12
100
AcDbEntity
  8
4WAYDRIVER1_SMT
  6
BYLAYER
370
   211
 62
   256
100
AcDbPolyline
 90
     2
 70
     0
 43
0.01
 10
0.493
 20
2.387
 10
0.318
 20
2.387
  0
LWPOLYLINE
  5
377
330
12
100
AcDbEntity
  8
4WAYDRIVER1_SMT
  6
BYLAYER
370
   211
 62
   256
100
AcDbPolyline
 90
     2
 70
     0
 43
0.01
 10
0.493
 20
2.378
 10
0.318
 20
2.378
  0
LWPOLYLINE
  5
378
330
12
100
AcDbEntity
  8
4WAYDRIVER1_SMT
  6
BYLAYER
370
   211
 62
   256
100
AcDbPolyline
 90
     2
 70
     0
 43
0.01
 10
0.493
 20
2.369
 10
0.318
 20
2.369
  0
LWPOLYLINE
  5
379
330
12
100
AcDbEntity
  8
4WAYDRIVER1_SMT
  6
BYLAYER
370
   211
 62
   256
100
AcDbPolyline
 90
     2
 70
     0
 43
0.01
 10
0.493
 20
2.36
 10
0.318
 20
2.36
  0
LWPOLYLINE
  5
37A
330
12
100
AcDbEntity
  8
4WAYDRIVER1_SMT
  6
BYLAYER
370
   211
 62
   256
100
AcDbPolyline
 90
     2
 70
     0
 43
0.01
 10
0.493
 20
2.351
 10
0.318
 20
2.351
  0
LWPOLYLINE
  5
37B
330
12
100
AcDbEntity
  8
4WAYDRIVER1_SMT
  6
BYLAYER
370
   211
 62
   256
100
AcDbPolyline
 90
     2
 70
     0
 43
0.01
 10
0.493
 20
2.342
 10
0.318
 20
2.342
  0
LWPOLYLINE
  5
37C
330
12
100
AcDbEntity
  8
4WAYDRIVER1_SMT
  6
BYLAYER
370
   211
 62
   256
100
AcDbPolyline
 90
     2
 70
     0
 43
0.01
 10
0.493
 20
2.333
 10
0.318
 20
2.333
  0
LWPOLYLINE
  5
37D
330
12
100
AcDbEntity
  8
4WAYDRIVER1_SMT
  6
BYLAYER
370
   211
 62
   256
100
AcDbPolyline
 90
     2
 70
     0
 43
0.01
 10
0.493
 20
2.324
 10
0.318
 20
2.324
  0
LWPOLYLINE
  5
37E
330
12
100
AcDbEntity
  8
4WAYDRIVER1_SMT
  6
BYLAYER
370
   211
 62
   256
100
AcDbPolyline
 90
     2
 70
     0
 43
0.01
 10
0.493
 20
2.315
 10
0.318
 20
2.315
  0
LWPOLYLINE
  5
37F
330
12
100
AcDbEntity
  8
4WAYDRIVER1_SMT
  6
BYLAYER
370
   211
 62
   256
100
AcDbPolyline
 90
     2
 70
     0
 43
0.01
 10
0.493
 20
2.306
 10
0.318
 20
2.306
  0
LWPOLYLINE
  5
380
330
12
100
AcDbEntity
  8
4WAYDRIVER1_SMT
  6
BYLAYER
370
   211
 62
   256
100
AcDbPolyline
 90
     2
 70
     0
 43
0.01
 10
0.493
 20
2.297
 10
0.318
 20
2.297
  0
LWPOLYLINE
  5
381
330
12
100
AcDbEntity
  8
4WAYDRIVER1_SMT
  6
BYLAYER
370
   211
 62
   256
100
AcDbPolyline
 90
     2
 70
     0
 43
0.01
 10
0.493
 20
2.288
 10
0.318
 20
2.288
  0
LWPOLYLINE
  5
382
330
12
100
AcDbEntity
  8
4WAYDRIVER1_SMT
  6
BYLAYER
370
   211
 62
   256
100
AcDbPolyline
 90
     2
 70
     0
 43
0.01
 10
0.466
 20
2.45
 10
0.466
 20
2.275
  0
LWPOLYLINE
  5
383
330
12
100
AcDbEntity
  8
4WAYDRIVER1_SMT
  6
BYLAYER
370
   211
 62
   256
100
AcDbPolyline
 90
     2
 70
     0
 43
0.01
 10
0.457
 20
2.45
 10
0.457
 20
2.275
  0
LWPOLYLINE
  5
384
330
12
100
AcDbEntity
  8
4WAYDRIVER1_SMT
  6
BYLAYER
370
   211
 62
   256
100
AcDbPolyline
 90
     2
 70
     0
 43
0.01
 10
0.448
 20
2.45
 10
0.448
 20
2.275
  0
LWPOLYLINE
  5
385
330
12
100
AcDbEntity
  8
4WAYDRIVER1_SMT
  6
BYLAYER
370
   211
 62
   256
100
AcDbPolyline
 90
     2
 70
     0
 43
0.01
 10
0.439
 20
2.45
 10
0.439
 20
2.275
  0
LWPOLYLINE
  5
386
330
12
100
AcDbEntity
  8
4WAYDRIVER1_SMT
  6
BYLAYER
370
   211
 62
   256
100
AcDbPolyline
 90
     2
 70
     0
 43
0.01
 10
0.43
 20
2.45
 10
0.43
 20
2.275
  0
LWPOLYLINE
  5
387
330
12
100
AcDbEntity
  8
4WAYDRIVER1_SMT
  6
BYLAYER
370
   211
 62
   256
100
AcDbPolyline
 90
     2
 70
     0
 43
0.01
 10
0.421
 20
2.45
 10
0.421
 20
2.275
  0
LWPOLYLINE
  5
388
330
12
100
AcDbEntity
  8
4WAYDRIVER1_SMT
  6
BYLAYER
370
   211
 62
   256
100
AcDbPolyline
 90
     2
 70
     0
 43
0.01
 10
0.412
 20
2.45
 10
0.412
 20
2.275
  0
LWPOLYLINE
  5
389
330
12
100
AcDbEntity
  8
4WAYDRIVER1_SMT
  6
BYLAYER
370
   211
 62
   256
100
AcDbPolyline
 90
     2
 70
     0
 43
0.01
 10
0.403
 20
2.45
 10
0.403
 20
2.275
  0
LWPOLYLINE
  5
38A
330
12
100
AcDbEntity
  8
4WAYDRIVER1_SMT
  6
BYLAYER
370
   211
 62
   256
100
AcDbPolyline
 90
     2
 70
     0
 43
0.01
 10
0.394
 20
2.45
 10
0.394
 20
2.275
  0
LWPOLYLINE
  5
38B
330
12
100
AcDbEntity
  8
4WAYDRIVER1_SMT
  6
BYLAYER
370
   211
 62
   256
100
AcDbPolyline
 90
     2
 70
     0
 43
0.01
 10
0.385
 20
2.45
 10
0.385
 20
2.275
  0
LWPOLYLINE
  5
38C
330
12
100
AcDbEntity
  8
4WAYDRIVER1_SMT
  6
BYLAYER
370
   211
 62
   256
100
AcDbPolyline
 90
     2
 70
     0
 43
0.01
 10
0.376
 20
2.45
 10
0.376
 20
2.275
  0
LWPOLYLINE
  5
38D
330
12
100
AcDbEntity
  8
4WAYDRIVER1_SMT
  6
BYLAYER
370
   211
 62
   256
100
AcDbPolyline
 90
     2
 70
     0
 43
0.01
 10
0.367
 20
2.45
 10
0.367
 20
2.275
  0
LWPOLYLINE
  5
38E
330
12
100
AcDbEntity
  8
4WAYDRIVER1_SMT
  6
BYLAYER
370
   211
 62
   256
100
AcDbPolyline
 90
     2
 70
     0
 43
0.01
 10
0.358
 20
2.45
 10
0.358
 20
2.275
  0
LWPOLYLINE
  5
38F
330
12
100
AcDbEntity
  8
4WAYDRIVER1_SMT
  6
BYLAYER
370
   211
 62
   256
100
AcDbPolyline
 90
     2
 70
     0
 43
0.01
 10
0.349
 20
2.45
 10
0.349
 20
2.275
  0
LWPOLYLINE
  5
390
330
12
100
AcDbEntity
  8
4WAYDRIVER1_SMT
  6
BYLAYER
370
   211
 62
   256
100
AcDbPolyline
 90
     2
 70
     0
 43
0.01
 10
0.34
 20
2.45
 10
0.34
 20
2.275
  0
LWPOLYLINE
  5
391
330
12
100
AcDbEntity
  8
4WAYDRIVER1_SMT
  6
BYLAYER
370
   211
 62
   256
100
AcDbPolyline
 90
     2
 70
     0
 43
0.01
 10
0.331
 20
2.45
 10
0.331
 20
2.275
  0
LWPOLYLINE
  5
392
330
12
100
AcDbEntity
  8
4WAYDRIVER1_SMT
  6
BYLAYER
370
   211
 62
   256
100
AcDbPolyline
 90
     2
 70
     0
 43
0.01
 10
0.322
 20
2.45
 10
0.322
 20
2.275
  0
LWPOLYLINE
  5
393
330
12
100
AcDbEntity
  8
4WAYDRIVER1_SMT
  6
BYLAYER
370
   211
 62
   256
100
AcDbPolyline
 90
     2
 70
     0
 43
0.01
 10
0.493
 20
2.45
 10
0.318
 20
2.45
  0
LWPOLYLINE
  5
394
330
12
100
AcDbEntity
  8
4WAYDRIVER1_SMT
  6
BYLAYER
370
   211
 62
   256
100
AcDbPolyline
 90
     3
 70
     0
 43
0.01
 10
0.493
 20
2.45
 10
0.493
 20
2.275
 10
0.318
 20
2.275
  0
LWPOLYLINE
  5
395
330
12
100
AcDbEntity
  8
4WAYDRIVER1_SMT
  6
BYLAYER
370
   211
 62
   256
100
AcDbPolyline
 90
     2
 70
     0
 43
0.01
 10
0.318
 20
2.45
 10
0.318
 20
2.275
  0
LWPOLYLINE
  5
396
330
12
100
AcDbEntity
  8
4WAYDRIVER1_SMT
  6
BYLAYER
370
   211
 62
   256
100
AcDbPolyline
 90
     2
 70
     0
 43
0.01
 10
0.493
 20
2.279
 10
0.318
 20
2.279
  0
LWPOLYLINE
  5
397
330
12
100
AcDbEntity
  8
4WAYDRIVER1_SMT
  6
BYLAYER
370
   211
 62
   256
100
AcDbPolyline
 90
     2
 70
     0
 43
0.01
 10
0.484
 20
2.45
 10
0.484
 20
2.275
  0
LWPOLYLINE
  5
398
330
12
100
AcDbEntity
  8
4WAYDRIVER1_SMT
  6
BYLAYER
370
   211
 62
   256
100
AcDbPolyline
 90
     2
 70
     0
 43
0.01
 10
0.475
 20
2.45
 10
0.475
 20
2.275
  0
LWPOLYLINE
  5
399
330
12
100
AcDbEntity
  8
4WAYDRIVER1_SMT
  6
BYLAYER
370
   211
 62
   256
100
AcDbPolyline
 90
     2
 70
     0
 43
0.01
 10
0.493
 20
1.946
 10
0.318
 20
1.946
  0
LWPOLYLINE
  5
39A
330
12
100
AcDbEntity
  8
4WAYDRIVER1_SMT
  6
BYLAYER
370
   211
 62
   256
100
AcDbPolyline
 90
     2
 70
     0
 43
0.01
 10
0.493
 20
1.937
 10
0.318
 20
1.937
  0
LWPOLYLINE
  5
39B
330
12
100
AcDbEntity
  8
4WAYDRIVER1_SMT
  6
BYLAYER
370
   211
 62
   256
100
AcDbPolyline
 90
     2
 70
     0
 43
0.01
 10
0.493
 20
1.928
 10
0.318
 20
1.928
  0
LWPOLYLINE
  5
39C
330
12
100
AcDbEntity
  8
4WAYDRIVER1_SMT
  6
BYLAYER
370
   211
 62
   256
100
AcDbPolyline
 90
     2
 70
     0
 43
0.01
 10
0.493
 20
1.919
 10
0.318
 20
1.919
  0
LWPOLYLINE
  5
39D
330
12
100
AcDbEntity
  8
4WAYDRIVER1_SMT
  6
BYLAYER
370
   211
 62
   256
100
AcDbPolyline
 90
     2
 70
     0
 43
0.01
 10
0.493
 20
1.91
 10
0.318
 20
1.91
  0
LWPOLYLINE
  5
39E
330
12
100
AcDbEntity
  8
4WAYDRIVER1_SMT
  6
BYLAYER
370
   211
 62
   256
100
AcDbPolyline
 90
     2
 70
     0
 43
0.01
 10
0.493
 20
1.901
 10
0.318
 20
1.901
  0
LWPOLYLINE
  5
39F
330
12
100
AcDbEntity
  8
4WAYDRIVER1_SMT
  6
BYLAYER
370
   211
 62
   256
100
AcDbPolyline
 90
     2
 70
     0
 43
0.01
 10
0.493
 20
1.892
 10
0.318
 20
1.892
  0
LWPOLYLINE
  5
3A0
330
12
100
AcDbEntity
  8
4WAYDRIVER1_SMT
  6
BYLAYER
370
   211
 62
   256
100
AcDbPolyline
 90
     2
 70
     0
 43
0.01
 10
0.493
 20
1.883
 10
0.318
 20
1.883
  0
LWPOLYLINE
  5
3A1
330
12
100
AcDbEntity
  8
4WAYDRIVER1_SMT
  6
BYLAYER
370
   211
 62
   256
100
AcDbPolyline
 90
     2
 70
     0
 43
0.01
 10
0.493
 20
1.874
 10
0.318
 20
1.874
  0
LWPOLYLINE
  5
3A2
330
12
100
AcDbEntity
  8
4WAYDRIVER1_SMT
  6
BYLAYER
370
   211
 62
   256
100
AcDbPolyline
 90
     2
 70
     0
 43
0.01
 10
0.493
 20
1.865
 10
0.318
 20
1.865
  0
LWPOLYLINE
  5
3A3
330
12
100
AcDbEntity
  8
4WAYDRIVER1_SMT
  6
BYLAYER
370
   211
 62
   256
100
AcDbPolyline
 90
     2
 70
     0
 43
0.01
 10
0.493
 20
1.856
 10
0.318
 20
1.856
  0
LWPOLYLINE
  5
3A4
330
12
100
AcDbEntity
  8
4WAYDRIVER1_SMT
  6
BYLAYER
370
   211
 62
   256
100
AcDbPolyline
 90
     2
 70
     0
 43
0.01
 10
0.493
 20
1.847
 10
0.318
 20
1.847
  0
LWPOLYLINE
  5
3A5
330
12
100
AcDbEntity
  8
4WAYDRIVER1_SMT
  6
BYLAYER
370
   211
 62
   256
100
AcDbPolyline
 90
     2
 70
     0
 43
0.01
 10
0.493
 20
1.838
 10
0.318
 20
1.838
  0
LWPOLYLINE
  5
3A6
330
12
100
AcDbEntity
  8
4WAYDRIVER1_SMT
  6
BYLAYER
370
   211
 62
   256
100
AcDbPolyline
 90
     2
 70
     0
 43
0.01
 10
0.493
 20
1.829
 10
0.318
 20
1.829
  0
LWPOLYLINE
  5
3A7
330
12
100
AcDbEntity
  8
4WAYDRIVER1_SMT
  6
BYLAYER
370
   211
 62
   256
100
AcDbPolyline
 90
     2
 70
     0
 43
0.01
 10
0.493
 20
1.82
 10
0.318
 20
1.82
  0
LWPOLYLINE
  5
3A8
330
12
100
AcDbEntity
  8
4WAYDRIVER1_SMT
  6
BYLAYER
370
   211
 62
   256
100
AcDbPolyline
 90
     2
 70
     0
 43
0.01
 10
0.493
 20
1.811
 10
0.318
 20
1.811
  0
LWPOLYLINE
  5
3A9
330
12
100
AcDbEntity
  8
4WAYDRIVER1_SMT
  6
BYLAYER
370
   211
 62
   256
100
AcDbPolyline
 90
     2
 70
     0
 43
0.01
 10
0.493
 20
1.802
 10
0.318
 20
1.802
  0
LWPOLYLINE
  5
3AA
330
12
100
AcDbEntity
  8
4WAYDRIVER1_SMT
  6
BYLAYER
370
   211
 62
   256
100
AcDbPolyline
 90
     2
 70
     0
 43
0.01
 10
0.493
 20
1.793
 10
0.318
 20
1.793
  0
LWPOLYLINE
  5
3AB
330
12
100
AcDbEntity
  8
4WAYDRIVER1_SMT
  6
BYLAYER
370
   211
 62
   256
100
AcDbPolyline
 90
     2
 70
     0
 43
0.01
 10
0.466
 20
1.955
 10
0.466
 20
1.78
  0
LWPOLYLINE
  5
3AC
330
12
100
AcDbEntity
  8
4WAYDRIVER1_SMT
  6
BYLAYER
370
   211
 62
   256
100
AcDbPolyline
 90
     2
 70
     0
 43
0.01
 10
0.457
 20
1.955
 10
0.457
 20
1.78
  0
LWPOLYLINE
  5
3AD
330
12
100
AcDbEntity
  8
4WAYDRIVER1_SMT
  6
BYLAYER
370
   211
 62
   256
100
AcDbPolyline
 90
     2
 70
     0
 43
0.01
 10
0.448
 20
1.955
 10
0.448
 20
1.78
  0
LWPOLYLINE
  5
3AE
330
12
100
AcDbEntity
  8
4WAYDRIVER1_SMT
  6
BYLAYER
370
   211
 62
   256
100
AcDbPolyline
 90
     2
 70
     0
 43
0.01
 10
0.439
 20
1.955
 10
0.439
 20
1.78
  0
LWPOLYLINE
  5
3AF
330
12
100
AcDbEntity
  8
4WAYDRIVER1_SMT
  6
BYLAYER
370
   211
 62
   256
100
AcDbPolyline
 90
     2
 70
     0
 43
0.01
 10
0.43
 20
1.955
 10
0.43
 20
1.78
  0
LWPOLYLINE
  5
3B0
330
12
100
AcDbEntity
  8
4WAYDRIVER1_SMT
  6
BYLAYER
370
   211
 62
   256
100
AcDbPolyline
 90
     2
 70
     0
 43
0.01
 10
0.421
 20
1.955
 10
0.421
 20
1.78
  0
LWPOLYLINE
  5
3B1
330
12
100
AcDbEntity
  8
4WAYDRIVER1_SMT
  6
BYLAYER
370
   211
 62
   256
100
AcDbPolyline
 90
     2
 70
     0
 43
0.01
 10
0.412
 20
1.955
 10
0.412
 20
1.78
  0
LWPOLYLINE
  5
3B2
330
12
100
AcDbEntity
  8
4WAYDRIVER1_SMT
  6
BYLAYER
370
   211
 62
   256
100
AcDbPolyline
 90
     2
 70
     0
 43
0.01
 10
0.403
 20
1.955
 10
0.403
 20
1.78
  0
LWPOLYLINE
  5
3B3
330
12
100
AcDbEntity
  8
4WAYDRIVER1_SMT
  6
BYLAYER
370
   211
 62
   256
100
AcDbPolyline
 90
     2
 70
     0
 43
0.01
 10
0.394
 20
1.955
 10
0.394
 20
1.78
  0
LWPOLYLINE
  5
3B4
330
12
100
AcDbEntity
  8
4WAYDRIVER1_SMT
  6
BYLAYER
370
   211
 62
   256
100
AcDbPolyline
 90
     2
 70
     0
 43
0.01
 10
0.385
 20
1.955
 10
0.385
 20
1.78
  0
LWPOLYLINE
  5
3B5
330
12
100
AcDbEntity
  8
4WAYDRIVER1_SMT
  6
BYLAYER
370
   211
 62
   256
100
AcDbPolyline
 90
     2
 70
     0
 43
0.01
 10
0.376
 20
1.955
 10
0.376
 20
1.78
  0
LWPOLYLINE
  5
3B6
330
12
100
AcDbEntity
  8
4WAYDRIVER1_SMT
  6
BYLAYER
370
   211
 62
   256
100
AcDbPolyline
 90
     2
 70
     0
 43
0.01
 10
0.367
 20
1.955
 10
0.367
 20
1.78
  0
LWPOLYLINE
  5
3B7
330
12
100
AcDbEntity
  8
4WAYDRIVER1_SMT
  6
BYLAYER
370
   211
 62
   256
100
AcDbPolyline
 90
     2
 70
     0
 43
0.01
 10
0.358
 20
1.955
 10
0.358
 20
1.78
  0
LWPOLYLINE
  5
3B8
330
12
100
AcDbEntity
  8
4WAYDRIVER1_SMT
  6
BYLAYER
370
   211
 62
   256
100
AcDbPolyline
 90
     2
 70
     0
 43
0.01
 10
0.349
 20
1.955
 10
0.349
 20
1.78
  0
LWPOLYLINE
  5
3B9
330
12
100
AcDbEntity
  8
4WAYDRIVER1_SMT
  6
BYLAYER
370
   211
 62
   256
100
AcDbPolyline
 90
     2
 70
     0
 43
0.01
 10
0.34
 20
1.955
 10
0.34
 20
1.78
  0
LWPOLYLINE
  5
3BA
330
12
100
AcDbEntity
  8
4WAYDRIVER1_SMT
  6
BYLAYER
370
   211
 62
   256
100
AcDbPolyline
 90
     2
 70
     0
 43
0.01
 10
0.331
 20
1.955
 10
0.331
 20
1.78
  0
LWPOLYLINE
  5
3BB
330
12
100
AcDbEntity
  8
4WAYDRIVER1_SMT
  6
BYLAYER
370
   211
 62
   256
100
AcDbPolyline
 90
     2
 70
     0
 43
0.01
 10
0.322
 20
1.955
 10
0.322
 20
1.78
  0
LWPOLYLINE
  5
3BC
330
12
100
AcDbEntity
  8
4WAYDRIVER1_SMT
  6
BYLAYER
370
   211
 62
   256
100
AcDbPolyline
 90
     2
 70
     0
 43
0.01
 10
0.318
 20
1.955
 10
0.318
 20
1.78
  0
LWPOLYLINE
  5
3BD
330
12
100
AcDbEntity
  8
4WAYDRIVER1_SMT
  6
BYLAYER
370
   211
 62
   256
100
AcDbPolyline
 90
     2
 70
     0
 43
0.01
 10
0.493
 20
1.78
 10
0.318
 20
1.78
  0
LWPOLYLINE
  5
3BE
330
12
100
AcDbEntity
  8
4WAYDRIVER1_SMT
  6
BYLAYER
370
   211
 62
   256
100
AcDbPolyline
 90
     2
 70
     0
 43
0.01
 10
0.493
 20
1.955
 10
0.493
 20
1.78
  0
LWPOLYLINE
  5
3BF
330
12
100
AcDbEntity
  8
4WAYDRIVER1_SMT
  6
BYLAYER
370
   211
 62
   256
100
AcDbPolyline
 90
     2
 70
     0
 43
0.01
 10
0.493
 20
1.955
 10
0.318
 20
1.955
  0
LWPOLYLINE
  5
3C0
330
12
100
AcDbEntity
  8
4WAYDRIVER1_SMT
  6
BYLAYER
370
   211
 62
   256
100
AcDbPolyline
 90
     2
 70
     0
 43
0.01
 10
0.493
 20
1.784
 10
0.318
 20
1.784
  0
LWPOLYLINE
  5
3C1
330
12
100
AcDbEntity
  8
4WAYDRIVER1_SMT
  6
BYLAYER
370
   211
 62
   256
100
AcDbPolyline
 90
     2
 70
     0
 43
0.01
 10
0.484
 20
1.955
 10
0.484
 20
1.78
  0
LWPOLYLINE
  5
3C2
330
12
100
AcDbEntity
  8
4WAYDRIVER1_SMT
  6
BYLAYER
370
   211
 62
   256
100
AcDbPolyline
 90
     2
 70
     0
 43
0.01
 10
0.475
 20
1.955
 10
0.475
 20
1.78
  0
LWPOLYLINE
  5
3C3
330
12
100
AcDbEntity
  8
4WAYDRIVER1_SMT
  6
BYLAYER
370
   211
 62
   256
100
AcDbPolyline
 90
     2
 70
     0
 43
0.01
 10
2.05
 20
2.16
 10
2.05
 20
1.985
  0
LWPOLYLINE
  5
3C4
330
12
100
AcDbEntity
  8
4WAYDRIVER1_SMT
  6
BYLAYER
370
   211
 62
   256
100
AcDbPolyline
 90
     2
 70
     0
 43
0.01
 10
2.041
 20
2.16
 10
2.041
 20
1.985
  0
LWPOLYLINE
  5
3C5
330
12
100
AcDbEntity
  8
4WAYDRIVER1_SMT
  6
BYLAYER
370
   211
 62
   256
100
AcDbPolyline
 90
     2
 70
     0
 43
0.01
 10
2.032
 20
2.16
 10
2.032
 20
1.985
  0
LWPOLYLINE
  5
3C6
330
12
100
AcDbEntity
  8
4WAYDRIVER1_SMT
  6
BYLAYER
370
   211
 62
   256
100
AcDbPolyline
 90
     2
 70
     0
 43
0.01
 10
2.023
 20
2.16
 10
2.023
 20
1.985
  0
LWPOLYLINE
  5
3C7
330
12
100
AcDbEntity
  8
4WAYDRIVER1_SMT
  6
BYLAYER
370
   211
 62
   256
100
AcDbPolyline
 90
     2
 70
     0
 43
0.01
 10
2.014
 20
2.16
 10
2.014
 20
1.985
  0
LWPOLYLINE
  5
3C8
330
12
100
AcDbEntity
  8
4WAYDRIVER1_SMT
  6
BYLAYER
370
   211
 62
   256
100
AcDbPolyline
 90
     2
 70
     0
 43
0.01
 10
2.005
 20
2.16
 10
2.005
 20
1.985
  0
LWPOLYLINE
  5
3C9
330
12
100
AcDbEntity
  8
4WAYDRIVER1_SMT
  6
BYLAYER
370
   211
 62
   256
100
AcDbPolyline
 90
     2
 70
     0
 43
0.01
 10
1.996
 20
2.16
 10
1.996
 20
1.985
  0
LWPOLYLINE
  5
3CA
330
12
100
AcDbEntity
  8
4WAYDRIVER1_SMT
  6
BYLAYER
370
   211
 62
   256
100
AcDbPolyline
 90
     2
 70
     0
 43
0.01
 10
1.987
 20
2.16
 10
1.987
 20
1.985
  0
LWPOLYLINE
  5
3CB
330
12
100
AcDbEntity
  8
4WAYDRIVER1_SMT
  6
BYLAYER
370
   211
 62
   256
100
AcDbPolyline
 90
     2
 70
     0
 43
0.01
 10
1.978
 20
2.16
 10
1.978
 20
1.985
  0
LWPOLYLINE
  5
3CC
330
12
100
AcDbEntity
  8
4WAYDRIVER1_SMT
  6
BYLAYER
370
   211
 62
   256
100
AcDbPolyline
 90
     2
 70
     0
 43
0.01
 10
2.245
 20
1.989
 10
1.965
 20
1.989
  0
LWPOLYLINE
  5
3CD
330
12
100
AcDbEntity
  8
4WAYDRIVER1_SMT
  6
BYLAYER
370
   211
 62
   256
100
AcDbPolyline
 90
     2
 70
     0
 43
0.01
 10
2.245
 20
2.151
 10
1.965
 20
2.151
  0
LWPOLYLINE
  5
3CE
330
12
100
AcDbEntity
  8
4WAYDRIVER1_SMT
  6
BYLAYER
370
   211
 62
   256
100
AcDbPolyline
 90
     2
 70
     0
 43
0.01
 10
2.245
 20
2.142
 10
1.965
 20
2.142
  0
LWPOLYLINE
  5
3CF
330
12
100
AcDbEntity
  8
4WAYDRIVER1_SMT
  6
BYLAYER
370
   211
 62
   256
100
AcDbPolyline
 90
     2
 70
     0
 43
0.01
 10
2.245
 20
2.133
 10
1.965
 20
2.133
  0
LWPOLYLINE
  5
3D0
330
12
100
AcDbEntity
  8
4WAYDRIVER1_SMT
  6
BYLAYER
370
   211
 62
   256
100
AcDbPolyline
 90
     2
 70
     0
 43
0.01
 10
2.245
 20
2.124
 10
1.965
 20
2.124
  0
LWPOLYLINE
  5
3D1
330
12
100
AcDbEntity
  8
4WAYDRIVER1_SMT
  6
BYLAYER
370
   211
 62
   256
100
AcDbPolyline
 90
     2
 70
     0
 43
0.01
 10
2.245
 20
2.115
 10
1.965
 20
2.115
  0
LWPOLYLINE
  5
3D2
330
12
100
AcDbEntity
  8
4WAYDRIVER1_SMT
  6
BYLAYER
370
   211
 62
   256
100
AcDbPolyline
 90
     2
 70
     0
 43
0.01
 10
2.245
 20
2.106
 10
1.965
 20
2.106
  0
LWPOLYLINE
  5
3D3
330
12
100
AcDbEntity
  8
4WAYDRIVER1_SMT
  6
BYLAYER
370
   211
 62
   256
100
AcDbPolyline
 90
     2
 70
     0
 43
0.01
 10
2.245
 20
2.097
 10
1.965
 20
2.097
  0
LWPOLYLINE
  5
3D4
330
12
100
AcDbEntity
  8
4WAYDRIVER1_SMT
  6
BYLAYER
370
   211
 62
   256
100
AcDbPolyline
 90
     2
 70
     0
 43
0.01
 10
2.245
 20
2.088
 10
1.965
 20
2.088
  0
LWPOLYLINE
  5
3D5
330
12
100
AcDbEntity
  8
4WAYDRIVER1_SMT
  6
BYLAYER
370
   211
 62
   256
100
AcDbPolyline
 90
     2
 70
     0
 43
0.01
 10
2.245
 20
2.079
 10
1.965
 20
2.079
  0
LWPOLYLINE
  5
3D6
330
12
100
AcDbEntity
  8
4WAYDRIVER1_SMT
  6
BYLAYER
370
   211
 62
   256
100
AcDbPolyline
 90
     2
 70
     0
 43
0.01
 10
2.245
 20
2.07
 10
1.965
 20
2.07
  0
LWPOLYLINE
  5
3D7
330
12
100
AcDbEntity
  8
4WAYDRIVER1_SMT
  6
BYLAYER
370
   211
 62
   256
100
AcDbPolyline
 90
     2
 70
     0
 43
0.01
 10
2.245
 20
2.061
 10
1.965
 20
2.061
  0
LWPOLYLINE
  5
3D8
330
12
100
AcDbEntity
  8
4WAYDRIVER1_SMT
  6
BYLAYER
370
   211
 62
   256
100
AcDbPolyline
 90
     2
 70
     0
 43
0.01
 10
2.245
 20
2.052
 10
1.965
 20
2.052
  0
LWPOLYLINE
  5
3D9
330
12
100
AcDbEntity
  8
4WAYDRIVER1_SMT
  6
BYLAYER
370
   211
 62
   256
100
AcDbPolyline
 90
     2
 70
     0
 43
0.01
 10
2.245
 20
2.043
 10
1.965
 20
2.043
  0
LWPOLYLINE
  5
3DA
330
12
100
AcDbEntity
  8
4WAYDRIVER1_SMT
  6
BYLAYER
370
   211
 62
   256
100
AcDbPolyline
 90
     2
 70
     0
 43
0.01
 10
2.245
 20
2.034
 10
1.965
 20
2.034
  0
LWPOLYLINE
  5
3DB
330
12
100
AcDbEntity
  8
4WAYDRIVER1_SMT
  6
BYLAYER
370
   211
 62
   256
100
AcDbPolyline
 90
     2
 70
     0
 43
0.01
 10
2.245
 20
2.025
 10
1.965
 20
2.025
  0
LWPOLYLINE
  5
3DC
330
12
100
AcDbEntity
  8
4WAYDRIVER1_SMT
  6
BYLAYER
370
   211
 62
   256
100
AcDbPolyline
 90
     2
 70
     0
 43
0.01
 10
2.245
 20
2.016
 10
1.965
 20
2.016
  0
LWPOLYLINE
  5
3DD
330
12
100
AcDbEntity
  8
4WAYDRIVER1_SMT
  6
BYLAYER
370
   211
 62
   256
100
AcDbPolyline
 90
     2
 70
     0
 43
0.01
 10
2.245
 20
2.007
 10
1.965
 20
2.007
  0
LWPOLYLINE
  5
3DE
330
12
100
AcDbEntity
  8
4WAYDRIVER1_SMT
  6
BYLAYER
370
   211
 62
   256
100
AcDbPolyline
 90
     2
 70
     0
 43
0.01
 10
2.245
 20
1.998
 10
1.965
 20
1.998
  0
LWPOLYLINE
  5
3DF
330
12
100
AcDbEntity
  8
4WAYDRIVER1_SMT
  6
BYLAYER
370
   211
 62
   256
100
AcDbPolyline
 90
     2
 70
     0
 43
0.01
 10
1.969
 20
2.16
 10
1.969
 20
1.985
  0
LWPOLYLINE
  5
3E0
330
12
100
AcDbEntity
  8
4WAYDRIVER1_SMT
  6
BYLAYER
370
   211
 62
   256
100
AcDbPolyline
 90
     2
 70
     0
 43
0.01
 10
2.245
 20
2.16
 10
1.965
 20
2.16
  0
LWPOLYLINE
  5
3E1
330
12
100
AcDbEntity
  8
4WAYDRIVER1_SMT
  6
BYLAYER
370
   211
 62
   256
100
AcDbPolyline
 90
     3
 70
     0
 43
0.01
 10
2.245
 20
2.16
 10
2.245
 20
1.985
 10
1.965
 20
1.985
  0
LWPOLYLINE
  5
3E2
330
12
100
AcDbEntity
  8
4WAYDRIVER1_SMT
  6
BYLAYER
370
   211
 62
   256
100
AcDbPolyline
 90
     2
 70
     0
 43
0.01
 10
1.965
 20
2.16
 10
1.965
 20
1.985
  0
LWPOLYLINE
  5
3E3
330
12
100
AcDbEntity
  8
4WAYDRIVER1_SMT
  6
BYLAYER
370
   211
 62
   256
100
AcDbPolyline
 90
     2
 70
     0
 43
0.01
 10
2.239
 20
2.16
 10
2.239
 20
1.985
  0
LWPOLYLINE
  5
3E4
330
12
100
AcDbEntity
  8
4WAYDRIVER1_SMT
  6
BYLAYER
370
   211
 62
   256
100
AcDbPolyline
 90
     2
 70
     0
 43
0.01
 10
2.23
 20
2.16
 10
2.23
 20
1.985
  0
LWPOLYLINE
  5
3E5
330
12
100
AcDbEntity
  8
4WAYDRIVER1_SMT
  6
BYLAYER
370
   211
 62
   256
100
AcDbPolyline
 90
     2
 70
     0
 43
0.01
 10
2.221
 20
2.16
 10
2.221
 20
1.985
  0
LWPOLYLINE
  5
3E6
330
12
100
AcDbEntity
  8
4WAYDRIVER1_SMT
  6
BYLAYER
370
   211
 62
   256
100
AcDbPolyline
 90
     2
 70
     0
 43
0.01
 10
2.212
 20
2.16
 10
2.212
 20
1.985
  0
LWPOLYLINE
  5
3E7
330
12
100
AcDbEntity
  8
4WAYDRIVER1_SMT
  6
BYLAYER
370
   211
 62
   256
100
AcDbPolyline
 90
     2
 70
     0
 43
0.01
 10
2.203
 20
2.16
 10
2.203
 20
1.985
  0
LWPOLYLINE
  5
3E8
330
12
100
AcDbEntity
  8
4WAYDRIVER1_SMT
  6
BYLAYER
370
   211
 62
   256
100
AcDbPolyline
 90
     2
 70
     0
 43
0.01
 10
2.194
 20
2.16
 10
2.194
 20
1.985
  0
LWPOLYLINE
  5
3E9
330
12
100
AcDbEntity
  8
4WAYDRIVER1_SMT
  6
BYLAYER
370
   211
 62
   256
100
AcDbPolyline
 90
     2
 70
     0
 43
0.01
 10
2.185
 20
2.16
 10
2.185
 20
1.985
  0
LWPOLYLINE
  5
3EA
330
12
100
AcDbEntity
  8
4WAYDRIVER1_SMT
  6
BYLAYER
370
   211
 62
   256
100
AcDbPolyline
 90
     2
 70
     0
 43
0.01
 10
2.176
 20
2.16
 10
2.176
 20
1.985
  0
LWPOLYLINE
  5
3EB
330
12
100
AcDbEntity
  8
4WAYDRIVER1_SMT
  6
BYLAYER
370
   211
 62
   256
100
AcDbPolyline
 90
     2
 70
     0
 43
0.01
 10
2.167
 20
2.16
 10
2.167
 20
1.985
  0
LWPOLYLINE
  5
3EC
330
12
100
AcDbEntity
  8
4WAYDRIVER1_SMT
  6
BYLAYER
370
   211
 62
   256
100
AcDbPolyline
 90
     2
 70
     0
 43
0.01
 10
2.158
 20
2.16
 10
2.158
 20
1.985
  0
LWPOLYLINE
  5
3ED
330
12
100
AcDbEntity
  8
4WAYDRIVER1_SMT
  6
BYLAYER
370
   211
 62
   256
100
AcDbPolyline
 90
     2
 70
     0
 43
0.01
 10
2.149
 20
2.16
 10
2.149
 20
1.985
  0
LWPOLYLINE
  5
3EE
330
12
100
AcDbEntity
  8
4WAYDRIVER1_SMT
  6
BYLAYER
370
   211
 62
   256
100
AcDbPolyline
 90
     2
 70
     0
 43
0.01
 10
2.14
 20
2.16
 10
2.14
 20
1.985
  0
LWPOLYLINE
  5
3EF
330
12
100
AcDbEntity
  8
4WAYDRIVER1_SMT
  6
BYLAYER
370
   211
 62
   256
100
AcDbPolyline
 90
     2
 70
     0
 43
0.01
 10
2.131
 20
2.16
 10
2.131
 20
1.985
  0
LWPOLYLINE
  5
3F0
330
12
100
AcDbEntity
  8
4WAYDRIVER1_SMT
  6
BYLAYER
370
   211
 62
   256
100
AcDbPolyline
 90
     2
 70
     0
 43
0.01
 10
2.122
 20
2.16
 10
2.122
 20
1.985
  0
LWPOLYLINE
  5
3F1
330
12
100
AcDbEntity
  8
4WAYDRIVER1_SMT
  6
BYLAYER
370
   211
 62
   256
100
AcDbPolyline
 90
     2
 70
     0
 43
0.01
 10
2.113
 20
2.16
 10
2.113
 20
1.985
  0
LWPOLYLINE
  5
3F2
330
12
100
AcDbEntity
  8
4WAYDRIVER1_SMT
  6
BYLAYER
370
   211
 62
   256
100
AcDbPolyline
 90
     2
 70
     0
 43
0.01
 10
2.104
 20
2.16
 10
2.104
 20
1.985
  0
LWPOLYLINE
  5
3F3
330
12
100
AcDbEntity
  8
4WAYDRIVER1_SMT
  6
BYLAYER
370
   211
 62
   256
100
AcDbPolyline
 90
     2
 70
     0
 43
0.01
 10
2.095
 20
2.16
 10
2.095
 20
1.985
  0
LWPOLYLINE
  5
3F4
330
12
100
AcDbEntity
  8
4WAYDRIVER1_SMT
  6
BYLAYER
370
   211
 62
   256
100
AcDbPolyline
 90
     2
 70
     0
 43
0.01
 10
2.086
 20
2.16
 10
2.086
 20
1.985
  0
LWPOLYLINE
  5
3F5
330
12
100
AcDbEntity
  8
4WAYDRIVER1_SMT
  6
BYLAYER
370
   211
 62
   256
100
AcDbPolyline
 90
     2
 70
     0
 43
0.01
 10
2.077
 20
2.16
 10
2.077
 20
1.985
  0
LWPOLYLINE
  5
3F6
330
12
100
AcDbEntity
  8
4WAYDRIVER1_SMT
  6
BYLAYER
370
   211
 62
   256
100
AcDbPolyline
 90
     2
 70
     0
 43
0.01
 10
2.068
 20
2.16
 10
2.068
 20
1.985
  0
LWPOLYLINE
  5
3F7
330
12
100
AcDbEntity
  8
4WAYDRIVER1_SMT
  6
BYLAYER
370
   211
 62
   256
100
AcDbPolyline
 90
     2
 70
     0
 43
0.01
 10
2.059
 20
2.16
 10
2.059
 20
1.985
  0
LWPOLYLINE
  5
3F8
330
12
100
AcDbEntity
  8
4WAYDRIVER1_SMT
  6
BYLAYER
370
   211
 62
   256
100
AcDbPolyline
 90
     2
 70
     0
 43
0.01
 10
1.427
 20
2.16
 10
1.427
 20
1.985
  0
LWPOLYLINE
  5
3F9
330
12
100
AcDbEntity
  8
4WAYDRIVER1_SMT
  6
BYLAYER
370
   211
 62
   256
100
AcDbPolyline
 90
     2
 70
     0
 43
0.01
 10
1.418
 20
2.16
 10
1.418
 20
1.985
  0
LWPOLYLINE
  5
3FA
330
12
100
AcDbEntity
  8
4WAYDRIVER1_SMT
  6
BYLAYER
370
   211
 62
   256
100
AcDbPolyline
 90
     2
 70
     0
 43
0.01
 10
1.409
 20
2.16
 10
1.409
 20
1.985
  0
LWPOLYLINE
  5
3FB
330
12
100
AcDbEntity
  8
4WAYDRIVER1_SMT
  6
BYLAYER
370
   211
 62
   256
100
AcDbPolyline
 90
     2
 70
     0
 43
0.01
 10
1.4
 20
2.16
 10
1.4
 20
1.985
  0
LWPOLYLINE
  5
3FC
330
12
100
AcDbEntity
  8
4WAYDRIVER1_SMT
  6
BYLAYER
370
   211
 62
   256
100
AcDbPolyline
 90
     2
 70
     0
 43
0.01
 10
1.391
 20
2.16
 10
1.391
 20
1.985
  0
LWPOLYLINE
  5
3FD
330
12
100
AcDbEntity
  8
4WAYDRIVER1_SMT
  6
BYLAYER
370
   211
 62
   256
100
AcDbPolyline
 90
     2
 70
     0
 43
0.01
 10
1.382
 20
2.16
 10
1.382
 20
1.985
  0
LWPOLYLINE
  5
3FE
330
12
100
AcDbEntity
  8
4WAYDRIVER1_SMT
  6
BYLAYER
370
   211
 62
   256
100
AcDbPolyline
 90
     2
 70
     0
 43
0.01
 10
1.373
 20
2.16
 10
1.373
 20
1.985
  0
LWPOLYLINE
  5
3FF
330
12
100
AcDbEntity
  8
4WAYDRIVER1_SMT
  6
BYLAYER
370
   211
 62
   256
100
AcDbPolyline
 90
     2
 70
     0
 43
0.01
 10
1.364
 20
2.16
 10
1.364
 20
1.985
  0
LWPOLYLINE
  5
400
330
12
100
AcDbEntity
  8
4WAYDRIVER1_SMT
  6
BYLAYER
370
   211
 62
   256
100
AcDbPolyline
 90
     2
 70
     0
 43
0.01
 10
1.625
 20
2.151
 10
1.351
 20
2.151
  0
LWPOLYLINE
  5
401
330
12
100
AcDbEntity
  8
4WAYDRIVER1_SMT
  6
BYLAYER
370
   211
 62
   256
100
AcDbPolyline
 90
     2
 70
     0
 43
0.01
 10
1.625
 20
2.142
 10
1.351
 20
2.142
  0
LWPOLYLINE
  5
402
330
12
100
AcDbEntity
  8
4WAYDRIVER1_SMT
  6
BYLAYER
370
   211
 62
   256
100
AcDbPolyline
 90
     2
 70
     0
 43
0.01
 10
1.625
 20
2.133
 10
1.351
 20
2.133
  0
LWPOLYLINE
  5
403
330
12
100
AcDbEntity
  8
4WAYDRIVER1_SMT
  6
BYLAYER
370
   211
 62
   256
100
AcDbPolyline
 90
     2
 70
     0
 43
0.01
 10
1.625
 20
2.124
 10
1.351
 20
2.124
  0
LWPOLYLINE
  5
404
330
12
100
AcDbEntity
  8
4WAYDRIVER1_SMT
  6
BYLAYER
370
   211
 62
   256
100
AcDbPolyline
 90
     2
 70
     0
 43
0.01
 10
1.625
 20
2.115
 10
1.351
 20
2.115
  0
LWPOLYLINE
  5
405
330
12
100
AcDbEntity
  8
4WAYDRIVER1_SMT
  6
BYLAYER
370
   211
 62
   256
100
AcDbPolyline
 90
     2
 70
     0
 43
0.01
 10
1.625
 20
2.106
 10
1.351
 20
2.106
  0
LWPOLYLINE
  5
406
330
12
100
AcDbEntity
  8
4WAYDRIVER1_SMT
  6
BYLAYER
370
   211
 62
   256
100
AcDbPolyline
 90
     2
 70
     0
 43
0.01
 10
1.625
 20
2.097
 10
1.351
 20
2.097
  0
LWPOLYLINE
  5
407
330
12
100
AcDbEntity
  8
4WAYDRIVER1_SMT
  6
BYLAYER
370
   211
 62
   256
100
AcDbPolyline
 90
     2
 70
     0
 43
0.01
 10
1.625
 20
2.088
 10
1.351
 20
2.088
  0
LWPOLYLINE
  5
408
330
12
100
AcDbEntity
  8
4WAYDRIVER1_SMT
  6
BYLAYER
370
   211
 62
   256
100
AcDbPolyline
 90
     2
 70
     0
 43
0.01
 10
1.625
 20
2.079
 10
1.351
 20
2.079
  0
LWPOLYLINE
  5
409
330
12
100
AcDbEntity
  8
4WAYDRIVER1_SMT
  6
BYLAYER
370
   211
 62
   256
100
AcDbPolyline
 90
     2
 70
     0
 43
0.01
 10
1.625
 20
2.07
 10
1.351
 20
2.07
  0
LWPOLYLINE
  5
40A
330
12
100
AcDbEntity
  8
4WAYDRIVER1_SMT
  6
BYLAYER
370
   211
 62
   256
100
AcDbPolyline
 90
     2
 70
     0
 43
0.01
 10
1.625
 20
2.061
 10
1.351
 20
2.061
  0
LWPOLYLINE
  5
40B
330
12
100
AcDbEntity
  8
4WAYDRIVER1_SMT
  6
BYLAYER
370
   211
 62
   256
100
AcDbPolyline
 90
     2
 70
     0
 43
0.01
 10
1.625
 20
2.052
 10
1.351
 20
2.052
  0
LWPOLYLINE
  5
40C
330
12
100
AcDbEntity
  8
4WAYDRIVER1_SMT
  6
BYLAYER
370
   211
 62
   256
100
AcDbPolyline
 90
     2
 70
     0
 43
0.01
 10
1.625
 20
2.043
 10
1.351
 20
2.043
  0
LWPOLYLINE
  5
40D
330
12
100
AcDbEntity
  8
4WAYDRIVER1_SMT
  6
BYLAYER
370
   211
 62
   256
100
AcDbPolyline
 90
     2
 70
     0
 43
0.01
 10
1.625
 20
2.034
 10
1.351
 20
2.034
  0
LWPOLYLINE
  5
40E
330
12
100
AcDbEntity
  8
4WAYDRIVER1_SMT
  6
BYLAYER
370
   211
 62
   256
100
AcDbPolyline
 90
     2
 70
     0
 43
0.01
 10
1.625
 20
2.025
 10
1.351
 20
2.025
  0
LWPOLYLINE
  5
40F
330
12
100
AcDbEntity
  8
4WAYDRIVER1_SMT
  6
BYLAYER
370
   211
 62
   256
100
AcDbPolyline
 90
     2
 70
     0
 43
0.01
 10
1.625
 20
2.016
 10
1.351
 20
2.016
  0
LWPOLYLINE
  5
410
330
12
100
AcDbEntity
  8
4WAYDRIVER1_SMT
  6
BYLAYER
370
   211
 62
   256
100
AcDbPolyline
 90
     2
 70
     0
 43
0.01
 10
1.625
 20
2.007
 10
1.351
 20
2.007
  0
LWPOLYLINE
  5
411
330
12
100
AcDbEntity
  8
4WAYDRIVER1_SMT
  6
BYLAYER
370
   211
 62
   256
100
AcDbPolyline
 90
     2
 70
     0
 43
0.01
 10
1.625
 20
1.998
 10
1.351
 20
1.998
  0
LWPOLYLINE
  5
412
330
12
100
AcDbEntity
  8
4WAYDRIVER1_SMT
  6
BYLAYER
370
   211
 62
   256
100
AcDbPolyline
 90
     2
 70
     0
 43
0.01
 10
1.355
 20
2.16
 10
1.355
 20
1.985
  0
LWPOLYLINE
  5
413
330
12
100
AcDbEntity
  8
4WAYDRIVER1_SMT
  6
BYLAYER
370
   211
 62
   256
100
AcDbPolyline
 90
     2
 70
     0
 43
0.01
 10
1.351
 20
2.16
 10
1.351
 20
1.985
  0
LWPOLYLINE
  5
414
330
12
100
AcDbEntity
  8
4WAYDRIVER1_SMT
  6
BYLAYER
370
   211
 62
   256
100
AcDbPolyline
 90
     2
 70
     0
 43
0.01
 10
1.625
 20
1.985
 10
1.351
 20
1.985
  0
LWPOLYLINE
  5
415
330
12
100
AcDbEntity
  8
4WAYDRIVER1_SMT
  6
BYLAYER
370
   211
 62
   256
100
AcDbPolyline
 90
     2
 70
     0
 43
0.01
 10
1.625
 20
2.16
 10
1.625
 20
1.985
  0
LWPOLYLINE
  5
416
330
12
100
AcDbEntity
  8
4WAYDRIVER1_SMT
  6
BYLAYER
370
   211
 62
   256
100
AcDbPolyline
 90
     2
 70
     0
 43
0.01
 10
1.625
 20
2.16
 10
1.351
 20
2.16
  0
LWPOLYLINE
  5
417
330
12
100
AcDbEntity
  8
4WAYDRIVER1_SMT
  6
BYLAYER
370
   211
 62
   256
100
AcDbPolyline
 90
     2
 70
     0
 43
0.01
 10
1.625
 20
1.989
 10
1.351
 20
1.989
  0
LWPOLYLINE
  5
418
330
12
100
AcDbEntity
  8
4WAYDRIVER1_SMT
  6
BYLAYER
370
   211
 62
   256
100
AcDbPolyline
 90
     2
 70
     0
 43
0.01
 10
1.616
 20
2.16
 10
1.616
 20
1.985
  0
LWPOLYLINE
  5
419
330
12
100
AcDbEntity
  8
4WAYDRIVER1_SMT
  6
BYLAYER
370
   211
 62
   256
100
AcDbPolyline
 90
     2
 70
     0
 43
0.01
 10
1.607
 20
2.16
 10
1.607
 20
1.985
  0
LWPOLYLINE
  5
41A
330
12
100
AcDbEntity
  8
4WAYDRIVER1_SMT
  6
BYLAYER
370
   211
 62
   256
100
AcDbPolyline
 90
     2
 70
     0
 43
0.01
 10
1.598
 20
2.16
 10
1.598
 20
1.985
  0
LWPOLYLINE
  5
41B
330
12
100
AcDbEntity
  8
4WAYDRIVER1_SMT
  6
BYLAYER
370
   211
 62
   256
100
AcDbPolyline
 90
     2
 70
     0
 43
0.01
 10
1.589
 20
2.16
 10
1.589
 20
1.985
  0
LWPOLYLINE
  5
41C
330
12
100
AcDbEntity
  8
4WAYDRIVER1_SMT
  6
BYLAYER
370
   211
 62
   256
100
AcDbPolyline
 90
     2
 70
     0
 43
0.01
 10
1.58
 20
2.16
 10
1.58
 20
1.985
  0
LWPOLYLINE
  5
41D
330
12
100
AcDbEntity
  8
4WAYDRIVER1_SMT
  6
BYLAYER
370
   211
 62
   256
100
AcDbPolyline
 90
     2
 70
     0
 43
0.01
 10
1.571
 20
2.16
 10
1.571
 20
1.985
  0
LWPOLYLINE
  5
41E
330
12
100
AcDbEntity
  8
4WAYDRIVER1_SMT
  6
BYLAYER
370
   211
 62
   256
100
AcDbPolyline
 90
     2
 70
     0
 43
0.01
 10
1.562
 20
2.16
 10
1.562
 20
1.985
  0
LWPOLYLINE
  5
41F
330
12
100
AcDbEntity
  8
4WAYDRIVER1_SMT
  6
BYLAYER
370
   211
 62
   256
100
AcDbPolyline
 90
     2
 70
     0
 43
0.01
 10
1.553
 20
2.16
 10
1.553
 20
1.985
  0
LWPOLYLINE
  5
420
330
12
100
AcDbEntity
  8
4WAYDRIVER1_SMT
  6
BYLAYER
370
   211
 62
   256
100
AcDbPolyline
 90
     2
 70
     0
 43
0.01
 10
1.544
 20
2.16
 10
1.544
 20
1.985
  0
LWPOLYLINE
  5
421
330
12
100
AcDbEntity
  8
4WAYDRIVER1_SMT
  6
BYLAYER
370
   211
 62
   256
100
AcDbPolyline
 90
     2
 70
     0
 43
0.01
 10
1.535
 20
2.16
 10
1.535
 20
1.985
  0
LWPOLYLINE
  5
422
330
12
100
AcDbEntity
  8
4WAYDRIVER1_SMT
  6
BYLAYER
370
   211
 62
   256
100
AcDbPolyline
 90
     2
 70
     0
 43
0.01
 10
1.526
 20
2.16
 10
1.526
 20
1.985
  0
LWPOLYLINE
  5
423
330
12
100
AcDbEntity
  8
4WAYDRIVER1_SMT
  6
BYLAYER
370
   211
 62
   256
100
AcDbPolyline
 90
     2
 70
     0
 43
0.01
 10
1.517
 20
2.16
 10
1.517
 20
1.985
  0
LWPOLYLINE
  5
424
330
12
100
AcDbEntity
  8
4WAYDRIVER1_SMT
  6
BYLAYER
370
   211
 62
   256
100
AcDbPolyline
 90
     2
 70
     0
 43
0.01
 10
1.508
 20
2.16
 10
1.508
 20
1.985
  0
LWPOLYLINE
  5
425
330
12
100
AcDbEntity
  8
4WAYDRIVER1_SMT
  6
BYLAYER
370
   211
 62
   256
100
AcDbPolyline
 90
     2
 70
     0
 43
0.01
 10
1.499
 20
2.16
 10
1.499
 20
1.985
  0
LWPOLYLINE
  5
426
330
12
100
AcDbEntity
  8
4WAYDRIVER1_SMT
  6
BYLAYER
370
   211
 62
   256
100
AcDbPolyline
 90
     2
 70
     0
 43
0.01
 10
1.49
 20
2.16
 10
1.49
 20
1.985
  0
LWPOLYLINE
  5
427
330
12
100
AcDbEntity
  8
4WAYDRIVER1_SMT
  6
BYLAYER
370
   211
 62
   256
100
AcDbPolyline
 90
     2
 70
     0
 43
0.01
 10
1.481
 20
2.16
 10
1.481
 20
1.985
  0
LWPOLYLINE
  5
428
330
12
100
AcDbEntity
  8
4WAYDRIVER1_SMT
  6
BYLAYER
370
   211
 62
   256
100
AcDbPolyline
 90
     2
 70
     0
 43
0.01
 10
1.472
 20
2.16
 10
1.472
 20
1.985
  0
LWPOLYLINE
  5
429
330
12
100
AcDbEntity
  8
4WAYDRIVER1_SMT
  6
BYLAYER
370
   211
 62
   256
100
AcDbPolyline
 90
     2
 70
     0
 43
0.01
 10
1.463
 20
2.16
 10
1.463
 20
1.985
  0
LWPOLYLINE
  5
42A
330
12
100
AcDbEntity
  8
4WAYDRIVER1_SMT
  6
BYLAYER
370
   211
 62
   256
100
AcDbPolyline
 90
     2
 70
     0
 43
0.01
 10
1.454
 20
2.16
 10
1.454
 20
1.985
  0
LWPOLYLINE
  5
42B
330
12
100
AcDbEntity
  8
4WAYDRIVER1_SMT
  6
BYLAYER
370
   211
 62
   256
100
AcDbPolyline
 90
     2
 70
     0
 43
0.01
 10
1.445
 20
2.16
 10
1.445
 20
1.985
  0
LWPOLYLINE
  5
42C
330
12
100
AcDbEntity
  8
4WAYDRIVER1_SMT
  6
BYLAYER
370
   211
 62
   256
100
AcDbPolyline
 90
     2
 70
     0
 43
0.01
 10
1.436
 20
2.16
 10
1.436
 20
1.985
  0
LWPOLYLINE
  5
42D
330
12
100
AcDbEntity
  8
4WAYDRIVER1_SMT
  6
BYLAYER
370
   211
 62
   256
100
AcDbPolyline
 90
     2
 70
     0
 43
0.01
 10
1.416
 20
1.785
 10
1.416
 20
1.63
  0
LWPOLYLINE
  5
42E
330
12
100
AcDbEntity
  8
4WAYDRIVER1_SMT
  6
BYLAYER
370
   211
 62
   256
100
AcDbPolyline
 90
     2
 70
     0
 43
0.01
 10
1.407
 20
1.785
 10
1.407
 20
1.63
  0
LWPOLYLINE
  5
42F
330
12
100
AcDbEntity
  8
4WAYDRIVER1_SMT
  6
BYLAYER
370
   211
 62
   256
100
AcDbPolyline
 90
     2
 70
     0
 43
0.01
 10
1.398
 20
1.785
 10
1.398
 20
1.63
  0
LWPOLYLINE
  5
430
330
12
100
AcDbEntity
  8
4WAYDRIVER1_SMT
  6
BYLAYER
370
   211
 62
   256
100
AcDbPolyline
 90
     2
 70
     0
 43
0.01
 10
1.389
 20
1.785
 10
1.389
 20
1.63
  0
LWPOLYLINE
  5
431
330
12
100
AcDbEntity
  8
4WAYDRIVER1_SMT
  6
BYLAYER
370
   211
 62
   256
100
AcDbPolyline
 90
     2
 70
     0
 43
0.01
 10
1.38
 20
1.785
 10
1.38
 20
1.63
  0
LWPOLYLINE
  5
432
330
12
100
AcDbEntity
  8
4WAYDRIVER1_SMT
  6
BYLAYER
370
   211
 62
   256
100
AcDbPolyline
 90
     2
 70
     0
 43
0.01
 10
1.371
 20
1.785
 10
1.371
 20
1.63
  0
LWPOLYLINE
  5
433
330
12
100
AcDbEntity
  8
4WAYDRIVER1_SMT
  6
BYLAYER
370
   211
 62
   256
100
AcDbPolyline
 90
     2
 70
     0
 43
0.01
 10
1.362
 20
1.785
 10
1.362
 20
1.63
  0
LWPOLYLINE
  5
434
330
12
100
AcDbEntity
  8
4WAYDRIVER1_SMT
  6
BYLAYER
370
   211
 62
   256
100
AcDbPolyline
 90
     2
 70
     0
 43
0.01
 10
1.353
 20
1.785
 10
1.353
 20
1.63
  0
LWPOLYLINE
  5
435
330
12
100
AcDbEntity
  8
4WAYDRIVER1_SMT
  6
BYLAYER
370
   211
 62
   256
100
AcDbPolyline
 90
     2
 70
     0
 43
0.01
 10
1.625
 20
1.778
 10
1.349
 20
1.778
  0
LWPOLYLINE
  5
436
330
12
100
AcDbEntity
  8
4WAYDRIVER1_SMT
  6
BYLAYER
370
   211
 62
   256
100
AcDbPolyline
 90
     2
 70
     0
 43
0.01
 10
1.625
 20
1.769
 10
1.349
 20
1.769
  0
LWPOLYLINE
  5
437
330
12
100
AcDbEntity
  8
4WAYDRIVER1_SMT
  6
BYLAYER
370
   211
 62
   256
100
AcDbPolyline
 90
     2
 70
     0
 43
0.01
 10
1.625
 20
1.76
 10
1.349
 20
1.76
  0
LWPOLYLINE
  5
438
330
12
100
AcDbEntity
  8
4WAYDRIVER1_SMT
  6
BYLAYER
370
   211
 62
   256
100
AcDbPolyline
 90
     2
 70
     0
 43
0.01
 10
1.625
 20
1.751
 10
1.349
 20
1.751
  0
LWPOLYLINE
  5
439
330
12
100
AcDbEntity
  8
4WAYDRIVER1_SMT
  6
BYLAYER
370
   211
 62
   256
100
AcDbPolyline
 90
     2
 70
     0
 43
0.01
 10
1.625
 20
1.742
 10
1.349
 20
1.742
  0
LWPOLYLINE
  5
43A
330
12
100
AcDbEntity
  8
4WAYDRIVER1_SMT
  6
BYLAYER
370
   211
 62
   256
100
AcDbPolyline
 90
     2
 70
     0
 43
0.01
 10
1.625
 20
1.733
 10
1.349
 20
1.733
  0
LWPOLYLINE
  5
43B
330
12
100
AcDbEntity
  8
4WAYDRIVER1_SMT
  6
BYLAYER
370
   211
 62
   256
100
AcDbPolyline
 90
     2
 70
     0
 43
0.01
 10
1.625
 20
1.724
 10
1.349
 20
1.724
  0
LWPOLYLINE
  5
43C
330
12
100
AcDbEntity
  8
4WAYDRIVER1_SMT
  6
BYLAYER
370
   211
 62
   256
100
AcDbPolyline
 90
     2
 70
     0
 43
0.01
 10
1.625
 20
1.715
 10
1.349
 20
1.715
  0
LWPOLYLINE
  5
43D
330
12
100
AcDbEntity
  8
4WAYDRIVER1_SMT
  6
BYLAYER
370
   211
 62
   256
100
AcDbPolyline
 90
     2
 70
     0
 43
0.01
 10
1.625
 20
1.706
 10
1.349
 20
1.706
  0
LWPOLYLINE
  5
43E
330
12
100
AcDbEntity
  8
4WAYDRIVER1_SMT
  6
BYLAYER
370
   211
 62
   256
100
AcDbPolyline
 90
     2
 70
     0
 43
0.01
 10
1.625
 20
1.697
 10
1.349
 20
1.697
  0
LWPOLYLINE
  5
43F
330
12
100
AcDbEntity
  8
4WAYDRIVER1_SMT
  6
BYLAYER
370
   211
 62
   256
100
AcDbPolyline
 90
     2
 70
     0
 43
0.01
 10
1.625
 20
1.688
 10
1.349
 20
1.688
  0
LWPOLYLINE
  5
440
330
12
100
AcDbEntity
  8
4WAYDRIVER1_SMT
  6
BYLAYER
370
   211
 62
   256
100
AcDbPolyline
 90
     2
 70
     0
 43
0.01
 10
1.625
 20
1.679
 10
1.349
 20
1.679
  0
LWPOLYLINE
  5
441
330
12
100
AcDbEntity
  8
4WAYDRIVER1_SMT
  6
BYLAYER
370
   211
 62
   256
100
AcDbPolyline
 90
     2
 70
     0
 43
0.01
 10
1.625
 20
1.67
 10
1.349
 20
1.67
  0
LWPOLYLINE
  5
442
330
12
100
AcDbEntity
  8
4WAYDRIVER1_SMT
  6
BYLAYER
370
   211
 62
   256
100
AcDbPolyline
 90
     2
 70
     0
 43
0.01
 10
1.625
 20
1.661
 10
1.349
 20
1.661
  0
LWPOLYLINE
  5
443
330
12
100
AcDbEntity
  8
4WAYDRIVER1_SMT
  6
BYLAYER
370
   211
 62
   256
100
AcDbPolyline
 90
     2
 70
     0
 43
0.01
 10
1.625
 20
1.652
 10
1.349
 20
1.652
  0
LWPOLYLINE
  5
444
330
12
100
AcDbEntity
  8
4WAYDRIVER1_SMT
  6
BYLAYER
370
   211
 62
   256
100
AcDbPolyline
 90
     2
 70
     0
 43
0.01
 10
1.625
 20
1.643
 10
1.349
 20
1.643
  0
LWPOLYLINE
  5
445
330
12
100
AcDbEntity
  8
4WAYDRIVER1_SMT
  6
BYLAYER
370
   211
 62
   256
100
AcDbPolyline
 90
     2
 70
     0
 43
0.01
 10
1.625
 20
1.785
 10
1.349
 20
1.785
  0
LWPOLYLINE
  5
446
330
12
100
AcDbEntity
  8
4WAYDRIVER1_SMT
  6
BYLAYER
370
   211
 62
   256
100
AcDbPolyline
 90
     2
 70
     0
 43
0.01
 10
1.623
 20
1.785
 10
1.623
 20
1.63
  0
LWPOLYLINE
  5
447
330
12
100
AcDbEntity
  8
4WAYDRIVER1_SMT
  6
BYLAYER
370
   211
 62
   256
100
AcDbPolyline
 90
     2
 70
     0
 43
0.01
 10
1.614
 20
1.785
 10
1.614
 20
1.63
  0
LWPOLYLINE
  5
448
330
12
100
AcDbEntity
  8
4WAYDRIVER1_SMT
  6
BYLAYER
370
   211
 62
   256
100
AcDbPolyline
 90
     2
 70
     0
 43
0.01
 10
1.605
 20
1.785
 10
1.605
 20
1.63
  0
LWPOLYLINE
  5
449
330
12
100
AcDbEntity
  8
4WAYDRIVER1_SMT
  6
BYLAYER
370
   211
 62
   256
100
AcDbPolyline
 90
     2
 70
     0
 43
0.01
 10
1.596
 20
1.785
 10
1.596
 20
1.63
  0
LWPOLYLINE
  5
44A
330
12
100
AcDbEntity
  8
4WAYDRIVER1_SMT
  6
BYLAYER
370
   211
 62
   256
100
AcDbPolyline
 90
     2
 70
     0
 43
0.01
 10
1.587
 20
1.785
 10
1.587
 20
1.63
  0
LWPOLYLINE
  5
44B
330
12
100
AcDbEntity
  8
4WAYDRIVER1_SMT
  6
BYLAYER
370
   211
 62
   256
100
AcDbPolyline
 90
     2
 70
     0
 43
0.01
 10
1.578
 20
1.785
 10
1.578
 20
1.63
  0
LWPOLYLINE
  5
44C
330
12
100
AcDbEntity
  8
4WAYDRIVER1_SMT
  6
BYLAYER
370
   211
 62
   256
100
AcDbPolyline
 90
     2
 70
     0
 43
0.01
 10
1.569
 20
1.785
 10
1.569
 20
1.63
  0
LWPOLYLINE
  5
44D
330
12
100
AcDbEntity
  8
4WAYDRIVER1_SMT
  6
BYLAYER
370
   211
 62
   256
100
AcDbPolyline
 90
     2
 70
     0
 43
0.01
 10
1.56
 20
1.785
 10
1.56
 20
1.63
  0
LWPOLYLINE
  5
44E
330
12
100
AcDbEntity
  8
4WAYDRIVER1_SMT
  6
BYLAYER
370
   211
 62
   256
100
AcDbPolyline
 90
     2
 70
     0
 43
0.01
 10
1.551
 20
1.785
 10
1.551
 20
1.63
  0
LWPOLYLINE
  5
44F
330
12
100
AcDbEntity
  8
4WAYDRIVER1_SMT
  6
BYLAYER
370
   211
 62
   256
100
AcDbPolyline
 90
     2
 70
     0
 43
0.01
 10
1.542
 20
1.785
 10
1.542
 20
1.63
  0
LWPOLYLINE
  5
450
330
12
100
AcDbEntity
  8
4WAYDRIVER1_SMT
  6
BYLAYER
370
   211
 62
   256
100
AcDbPolyline
 90
     2
 70
     0
 43
0.01
 10
1.533
 20
1.785
 10
1.533
 20
1.63
  0
LWPOLYLINE
  5
451
330
12
100
AcDbEntity
  8
4WAYDRIVER1_SMT
  6
BYLAYER
370
   211
 62
   256
100
AcDbPolyline
 90
     2
 70
     0
 43
0.01
 10
1.524
 20
1.785
 10
1.524
 20
1.63
  0
LWPOLYLINE
  5
452
330
12
100
AcDbEntity
  8
4WAYDRIVER1_SMT
  6
BYLAYER
370
   211
 62
   256
100
AcDbPolyline
 90
     2
 70
     0
 43
0.01
 10
1.515
 20
1.785
 10
1.515
 20
1.63
  0
LWPOLYLINE
  5
453
330
12
100
AcDbEntity
  8
4WAYDRIVER1_SMT
  6
BYLAYER
370
   211
 62
   256
100
AcDbPolyline
 90
     2
 70
     0
 43
0.01
 10
1.506
 20
1.785
 10
1.506
 20
1.63
  0
LWPOLYLINE
  5
454
330
12
100
AcDbEntity
  8
4WAYDRIVER1_SMT
  6
BYLAYER
370
   211
 62
   256
100
AcDbPolyline
 90
     2
 70
     0
 43
0.01
 10
1.497
 20
1.785
 10
1.497
 20
1.63
  0
LWPOLYLINE
  5
455
330
12
100
AcDbEntity
  8
4WAYDRIVER1_SMT
  6
BYLAYER
370
   211
 62
   256
100
AcDbPolyline
 90
     2
 70
     0
 43
0.01
 10
1.488
 20
1.785
 10
1.488
 20
1.63
  0
LWPOLYLINE
  5
456
330
12
100
AcDbEntity
  8
4WAYDRIVER1_SMT
  6
BYLAYER
370
   211
 62
   256
100
AcDbPolyline
 90
     2
 70
     0
 43
0.01
 10
1.479
 20
1.785
 10
1.479
 20
1.63
  0
LWPOLYLINE
  5
457
330
12
100
AcDbEntity
  8
4WAYDRIVER1_SMT
  6
BYLAYER
370
   211
 62
   256
100
AcDbPolyline
 90
     2
 70
     0
 43
0.01
 10
1.47
 20
1.785
 10
1.47
 20
1.63
  0
LWPOLYLINE
  5
458
330
12
100
AcDbEntity
  8
4WAYDRIVER1_SMT
  6
BYLAYER
370
   211
 62
   256
100
AcDbPolyline
 90
     2
 70
     0
 43
0.01
 10
1.461
 20
1.785
 10
1.461
 20
1.63
  0
LWPOLYLINE
  5
459
330
12
100
AcDbEntity
  8
4WAYDRIVER1_SMT
  6
BYLAYER
370
   211
 62
   256
100
AcDbPolyline
 90
     2
 70
     0
 43
0.01
 10
1.452
 20
1.785
 10
1.452
 20
1.63
  0
LWPOLYLINE
  5
45A
330
12
100
AcDbEntity
  8
4WAYDRIVER1_SMT
  6
BYLAYER
370
   211
 62
   256
100
AcDbPolyline
 90
     2
 70
     0
 43
0.01
 10
1.443
 20
1.785
 10
1.443
 20
1.63
  0
LWPOLYLINE
  5
45B
330
12
100
AcDbEntity
  8
4WAYDRIVER1_SMT
  6
BYLAYER
370
   211
 62
   256
100
AcDbPolyline
 90
     2
 70
     0
 43
0.01
 10
1.434
 20
1.785
 10
1.434
 20
1.63
  0
LWPOLYLINE
  5
45C
330
12
100
AcDbEntity
  8
4WAYDRIVER1_SMT
  6
BYLAYER
370
   211
 62
   256
100
AcDbPolyline
 90
     2
 70
     0
 43
0.01
 10
1.425
 20
1.785
 10
1.425
 20
1.63
  0
LWPOLYLINE
  5
45D
330
12
100
AcDbEntity
  8
4WAYDRIVER1_SMT
  6
BYLAYER
370
   211
 62
   256
100
AcDbPolyline
 90
     2
 70
     0
 43
0.01
 10
1.625
 20
1.634
 10
1.349
 20
1.634
  0
LWPOLYLINE
  5
45E
330
12
100
AcDbEntity
  8
4WAYDRIVER1_SMT
  6
BYLAYER
370
   211
 62
   256
100
AcDbPolyline
 90
     2
 70
     0
 43
0.01
 10
1.349
 20
1.785
 10
1.349
 20
1.63
  0
LWPOLYLINE
  5
45F
330
12
100
AcDbEntity
  8
4WAYDRIVER1_SMT
  6
BYLAYER
370
   211
 62
   256
100
AcDbPolyline
 90
     2
 70
     0
 43
0.01
 10
1.625
 20
1.63
 10
1.349
 20
1.63
  0
LWPOLYLINE
  5
460
330
12
100
AcDbEntity
  8
4WAYDRIVER1_SMT
  6
BYLAYER
370
   211
 62
   256
100
AcDbPolyline
 90
     2
 70
     0
 43
0.01
 10
1.625
 20
1.785
 10
1.625
 20
1.63
  0
LWPOLYLINE
  5
461
330
12
100
AcDbEntity
  8
4WAYDRIVER1_SMT
  6
BYLAYER
370
   211
 62
   256
100
AcDbPolyline
 90
     2
 70
     0
 43
0.01
 10
2.041
 20
1.785
 10
2.041
 20
1.63
  0
LWPOLYLINE
  5
462
330
12
100
AcDbEntity
  8
4WAYDRIVER1_SMT
  6
BYLAYER
370
   211
 62
   256
100
AcDbPolyline
 90
     2
 70
     0
 43
0.01
 10
2.032
 20
1.785
 10
2.032
 20
1.63
  0
LWPOLYLINE
  5
463
330
12
100
AcDbEntity
  8
4WAYDRIVER1_SMT
  6
BYLAYER
370
   211
 62
   256
100
AcDbPolyline
 90
     2
 70
     0
 43
0.01
 10
2.023
 20
1.785
 10
2.023
 20
1.63
  0
LWPOLYLINE
  5
464
330
12
100
AcDbEntity
  8
4WAYDRIVER1_SMT
  6
BYLAYER
370
   211
 62
   256
100
AcDbPolyline
 90
     2
 70
     0
 43
0.01
 10
2.014
 20
1.785
 10
2.014
 20
1.63
  0
LWPOLYLINE
  5
465
330
12
100
AcDbEntity
  8
4WAYDRIVER1_SMT
  6
BYLAYER
370
   211
 62
   256
100
AcDbPolyline
 90
     2
 70
     0
 43
0.01
 10
2.005
 20
1.785
 10
2.005
 20
1.63
  0
LWPOLYLINE
  5
466
330
12
100
AcDbEntity
  8
4WAYDRIVER1_SMT
  6
BYLAYER
370
   211
 62
   256
100
AcDbPolyline
 90
     2
 70
     0
 43
0.01
 10
1.996
 20
1.785
 10
1.996
 20
1.63
  0
LWPOLYLINE
  5
467
330
12
100
AcDbEntity
  8
4WAYDRIVER1_SMT
  6
BYLAYER
370
   211
 62
   256
100
AcDbPolyline
 90
     2
 70
     0
 43
0.01
 10
1.987
 20
1.785
 10
1.987
 20
1.63
  0
LWPOLYLINE
  5
468
330
12
100
AcDbEntity
  8
4WAYDRIVER1_SMT
  6
BYLAYER
370
   211
 62
   256
100
AcDbPolyline
 90
     2
 70
     0
 43
0.01
 10
1.978
 20
1.785
 10
1.978
 20
1.63
  0
LWPOLYLINE
  5
469
330
12
100
AcDbEntity
  8
4WAYDRIVER1_SMT
  6
BYLAYER
370
   211
 62
   256
100
AcDbPolyline
 90
     2
 70
     0
 43
0.01
 10
1.969
 20
1.785
 10
1.969
 20
1.63
  0
LWPOLYLINE
  5
46A
330
12
100
AcDbEntity
  8
4WAYDRIVER1_SMT
  6
BYLAYER
370
   211
 62
   256
100
AcDbPolyline
 90
     2
 70
     0
 43
0.01
 10
2.245
 20
1.778
 10
1.965
 20
1.778
  0
LWPOLYLINE
  5
46B
330
12
100
AcDbEntity
  8
4WAYDRIVER1_SMT
  6
BYLAYER
370
   211
 62
   256
100
AcDbPolyline
 90
     2
 70
     0
 43
0.01
 10
2.245
 20
1.769
 10
1.965
 20
1.769
  0
LWPOLYLINE
  5
46C
330
12
100
AcDbEntity
  8
4WAYDRIVER1_SMT
  6
BYLAYER
370
   211
 62
   256
100
AcDbPolyline
 90
     2
 70
     0
 43
0.01
 10
2.245
 20
1.76
 10
1.965
 20
1.76
  0
LWPOLYLINE
  5
46D
330
12
100
AcDbEntity
  8
4WAYDRIVER1_SMT
  6
BYLAYER
370
   211
 62
   256
100
AcDbPolyline
 90
     2
 70
     0
 43
0.01
 10
2.245
 20
1.751
 10
1.965
 20
1.751
  0
LWPOLYLINE
  5
46E
330
12
100
AcDbEntity
  8
4WAYDRIVER1_SMT
  6
BYLAYER
370
   211
 62
   256
100
AcDbPolyline
 90
     2
 70
     0
 43
0.01
 10
2.245
 20
1.742
 10
1.965
 20
1.742
  0
LWPOLYLINE
  5
46F
330
12
100
AcDbEntity
  8
4WAYDRIVER1_SMT
  6
BYLAYER
370
   211
 62
   256
100
AcDbPolyline
 90
     2
 70
     0
 43
0.01
 10
2.245
 20
1.733
 10
1.965
 20
1.733
  0
LWPOLYLINE
  5
470
330
12
100
AcDbEntity
  8
4WAYDRIVER1_SMT
  6
BYLAYER
370
   211
 62
   256
100
AcDbPolyline
 90
     2
 70
     0
 43
0.01
 10
2.245
 20
1.724
 10
1.965
 20
1.724
  0
LWPOLYLINE
  5
471
330
12
100
AcDbEntity
  8
4WAYDRIVER1_SMT
  6
BYLAYER
370
   211
 62
   256
100
AcDbPolyline
 90
     2
 70
     0
 43
0.01
 10
2.245
 20
1.715
 10
1.965
 20
1.715
  0
LWPOLYLINE
  5
472
330
12
100
AcDbEntity
  8
4WAYDRIVER1_SMT
  6
BYLAYER
370
   211
 62
   256
100
AcDbPolyline
 90
     2
 70
     0
 43
0.01
 10
2.245
 20
1.706
 10
1.965
 20
1.706
  0
LWPOLYLINE
  5
473
330
12
100
AcDbEntity
  8
4WAYDRIVER1_SMT
  6
BYLAYER
370
   211
 62
   256
100
AcDbPolyline
 90
     2
 70
     0
 43
0.01
 10
2.245
 20
1.697
 10
1.965
 20
1.697
  0
LWPOLYLINE
  5
474
330
12
100
AcDbEntity
  8
4WAYDRIVER1_SMT
  6
BYLAYER
370
   211
 62
   256
100
AcDbPolyline
 90
     2
 70
     0
 43
0.01
 10
2.245
 20
1.688
 10
1.965
 20
1.688
  0
LWPOLYLINE
  5
475
330
12
100
AcDbEntity
  8
4WAYDRIVER1_SMT
  6
BYLAYER
370
   211
 62
   256
100
AcDbPolyline
 90
     2
 70
     0
 43
0.01
 10
2.245
 20
1.679
 10
1.965
 20
1.679
  0
LWPOLYLINE
  5
476
330
12
100
AcDbEntity
  8
4WAYDRIVER1_SMT
  6
BYLAYER
370
   211
 62
   256
100
AcDbPolyline
 90
     2
 70
     0
 43
0.01
 10
2.245
 20
1.67
 10
1.965
 20
1.67
  0
LWPOLYLINE
  5
477
330
12
100
AcDbEntity
  8
4WAYDRIVER1_SMT
  6
BYLAYER
370
   211
 62
   256
100
AcDbPolyline
 90
     2
 70
     0
 43
0.01
 10
2.245
 20
1.661
 10
1.965
 20
1.661
  0
LWPOLYLINE
  5
478
330
12
100
AcDbEntity
  8
4WAYDRIVER1_SMT
  6
BYLAYER
370
   211
 62
   256
100
AcDbPolyline
 90
     2
 70
     0
 43
0.01
 10
2.245
 20
1.652
 10
1.965
 20
1.652
  0
LWPOLYLINE
  5
479
330
12
100
AcDbEntity
  8
4WAYDRIVER1_SMT
  6
BYLAYER
370
   211
 62
   256
100
AcDbPolyline
 90
     2
 70
     0
 43
0.01
 10
2.245
 20
1.643
 10
1.965
 20
1.643
  0
LWPOLYLINE
  5
47A
330
12
100
AcDbEntity
  8
4WAYDRIVER1_SMT
  6
BYLAYER
370
   211
 62
   256
100
AcDbPolyline
 90
     2
 70
     0
 43
0.01
 10
2.245
 20
1.785
 10
2.245
 20
1.63
  0
LWPOLYLINE
  5
47B
330
12
100
AcDbEntity
  8
4WAYDRIVER1_SMT
  6
BYLAYER
370
   211
 62
   256
100
AcDbPolyline
 90
     2
 70
     0
 43
0.01
 10
2.245
 20
1.785
 10
1.965
 20
1.785
  0
LWPOLYLINE
  5
47C
330
12
100
AcDbEntity
  8
4WAYDRIVER1_SMT
  6
BYLAYER
370
   211
 62
   256
100
AcDbPolyline
 90
     2
 70
     0
 43
0.01
 10
2.239
 20
1.785
 10
2.239
 20
1.63
  0
LWPOLYLINE
  5
47D
330
12
100
AcDbEntity
  8
4WAYDRIVER1_SMT
  6
BYLAYER
370
   211
 62
   256
100
AcDbPolyline
 90
     2
 70
     0
 43
0.01
 10
2.23
 20
1.785
 10
2.23
 20
1.63
  0
LWPOLYLINE
  5
47E
330
12
100
AcDbEntity
  8
4WAYDRIVER1_SMT
  6
BYLAYER
370
   211
 62
   256
100
AcDbPolyline
 90
     2
 70
     0
 43
0.01
 10
2.221
 20
1.785
 10
2.221
 20
1.63
  0
LWPOLYLINE
  5
47F
330
12
100
AcDbEntity
  8
4WAYDRIVER1_SMT
  6
BYLAYER
370
   211
 62
   256
100
AcDbPolyline
 90
     2
 70
     0
 43
0.01
 10
2.212
 20
1.785
 10
2.212
 20
1.63
  0
LWPOLYLINE
  5
480
330
12
100
AcDbEntity
  8
4WAYDRIVER1_SMT
  6
BYLAYER
370
   211
 62
   256
100
AcDbPolyline
 90
     2
 70
     0
 43
0.01
 10
2.203
 20
1.785
 10
2.203
 20
1.63
  0
LWPOLYLINE
  5
481
330
12
100
AcDbEntity
  8
4WAYDRIVER1_SMT
  6
BYLAYER
370
   211
 62
   256
100
AcDbPolyline
 90
     2
 70
     0
 43
0.01
 10
2.194
 20
1.785
 10
2.194
 20
1.63
  0
LWPOLYLINE
  5
482
330
12
100
AcDbEntity
  8
4WAYDRIVER1_SMT
  6
BYLAYER
370
   211
 62
   256
100
AcDbPolyline
 90
     2
 70
     0
 43
0.01
 10
2.185
 20
1.785
 10
2.185
 20
1.63
  0
LWPOLYLINE
  5
483
330
12
100
AcDbEntity
  8
4WAYDRIVER1_SMT
  6
BYLAYER
370
   211
 62
   256
100
AcDbPolyline
 90
     2
 70
     0
 43
0.01
 10
2.176
 20
1.785
 10
2.176
 20
1.63
  0
LWPOLYLINE
  5
484
330
12
100
AcDbEntity
  8
4WAYDRIVER1_SMT
  6
BYLAYER
370
   211
 62
   256
100
AcDbPolyline
 90
     2
 70
     0
 43
0.01
 10
2.167
 20
1.785
 10
2.167
 20
1.63
  0
LWPOLYLINE
  5
485
330
12
100
AcDbEntity
  8
4WAYDRIVER1_SMT
  6
BYLAYER
370
   211
 62
   256
100
AcDbPolyline
 90
     2
 70
     0
 43
0.01
 10
2.158
 20
1.785
 10
2.158
 20
1.63
  0
LWPOLYLINE
  5
486
330
12
100
AcDbEntity
  8
4WAYDRIVER1_SMT
  6
BYLAYER
370
   211
 62
   256
100
AcDbPolyline
 90
     2
 70
     0
 43
0.01
 10
2.149
 20
1.785
 10
2.149
 20
1.63
  0
LWPOLYLINE
  5
487
330
12
100
AcDbEntity
  8
4WAYDRIVER1_SMT
  6
BYLAYER
370
   211
 62
   256
100
AcDbPolyline
 90
     2
 70
     0
 43
0.01
 10
2.14
 20
1.785
 10
2.14
 20
1.63
  0
LWPOLYLINE
  5
488
330
12
100
AcDbEntity
  8
4WAYDRIVER1_SMT
  6
BYLAYER
370
   211
 62
   256
100
AcDbPolyline
 90
     2
 70
     0
 43
0.01
 10
2.131
 20
1.785
 10
2.131
 20
1.63
  0
LWPOLYLINE
  5
489
330
12
100
AcDbEntity
  8
4WAYDRIVER1_SMT
  6
BYLAYER
370
   211
 62
   256
100
AcDbPolyline
 90
     2
 70
     0
 43
0.01
 10
2.122
 20
1.785
 10
2.122
 20
1.63
  0
LWPOLYLINE
  5
48A
330
12
100
AcDbEntity
  8
4WAYDRIVER1_SMT
  6
BYLAYER
370
   211
 62
   256
100
AcDbPolyline
 90
     2
 70
     0
 43
0.01
 10
2.113
 20
1.785
 10
2.113
 20
1.63
  0
LWPOLYLINE
  5
48B
330
12
100
AcDbEntity
  8
4WAYDRIVER1_SMT
  6
BYLAYER
370
   211
 62
   256
100
AcDbPolyline
 90
     2
 70
     0
 43
0.01
 10
2.104
 20
1.785
 10
2.104
 20
1.63
  0
LWPOLYLINE
  5
48C
330
12
100
AcDbEntity
  8
4WAYDRIVER1_SMT
  6
BYLAYER
370
   211
 62
   256
100
AcDbPolyline
 90
     2
 70
     0
 43
0.01
 10
2.095
 20
1.785
 10
2.095
 20
1.63
  0
LWPOLYLINE
  5
48D
330
12
100
AcDbEntity
  8
4WAYDRIVER1_SMT
  6
BYLAYER
370
   211
 62
   256
100
AcDbPolyline
 90
     2
 70
     0
 43
0.01
 10
2.086
 20
1.785
 10
2.086
 20
1.63
  0
LWPOLYLINE
  5
48E
330
12
100
AcDbEntity
  8
4WAYDRIVER1_SMT
  6
BYLAYER
370
   211
 62
   256
100
AcDbPolyline
 90
     2
 70
     0
 43
0.01
 10
2.077
 20
1.785
 10
2.077
 20
1.63
  0
LWPOLYLINE
  5
48F
330
12
100
AcDbEntity
  8
4WAYDRIVER1_SMT
  6
BYLAYER
370
   211
 62
   256
100
AcDbPolyline
 90
     2
 70
     0
 43
0.01
 10
2.068
 20
1.785
 10
2.068
 20
1.63
  0
LWPOLYLINE
  5
490
330
12
100
AcDbEntity
  8
4WAYDRIVER1_SMT
  6
BYLAYER
370
   211
 62
   256
100
AcDbPolyline
 90
     2
 70
     0
 43
0.01
 10
2.059
 20
1.785
 10
2.059
 20
1.63
  0
LWPOLYLINE
  5
491
330
12
100
AcDbEntity
  8
4WAYDRIVER1_SMT
  6
BYLAYER
370
   211
 62
   256
100
AcDbPolyline
 90
     2
 70
     0
 43
0.01
 10
2.05
 20
1.785
 10
2.05
 20
1.63
  0
LWPOLYLINE
  5
492
330
12
100
AcDbEntity
  8
4WAYDRIVER1_SMT
  6
BYLAYER
370
   211
 62
   256
100
AcDbPolyline
 90
     2
 70
     0
 43
0.01
 10
2.245
 20
1.634
 10
1.965
 20
1.634
  0
LWPOLYLINE
  5
493
330
12
100
AcDbEntity
  8
4WAYDRIVER1_SMT
  6
BYLAYER
370
   211
 62
   256
100
AcDbPolyline
 90
     2
 70
     0
 43
0.01
 10
1.965
 20
1.785
 10
1.965
 20
1.63
  0
LWPOLYLINE
  5
494
330
12
100
AcDbEntity
  8
4WAYDRIVER1_SMT
  6
BYLAYER
370
   211
 62
   256
100
AcDbPolyline
 90
     2
 70
     0
 43
0.01
 10
2.245
 20
1.63
 10
1.965
 20
1.63
  0
LWPOLYLINE
  5
495
330
12
100
AcDbEntity
  8
4WAYDRIVER1_SMT
  6
BYLAYER
370
   211
 62
   256
100
AcDbPolyline
 90
     2
 70
     0
 43
0.01
 10
2.587
 20
0.615
 10
2.587
 20
0.44
  0
LWPOLYLINE
  5
496
330
12
100
AcDbEntity
  8
4WAYDRIVER1_SMT
  6
BYLAYER
370
   211
 62
   256
100
AcDbPolyline
 90
     2
 70
     0
 43
0.01
 10
2.578
 20
0.615
 10
2.578
 20
0.44
  0
LWPOLYLINE
  5
497
330
12
100
AcDbEntity
  8
4WAYDRIVER1_SMT
  6
BYLAYER
370
   211
 62
   256
100
AcDbPolyline
 90
     2
 70
     0
 43
0.01
 10
2.78
 20
0.444
 10
2.565
 20
0.444
  0
LWPOLYLINE
  5
498
330
12
100
AcDbEntity
  8
4WAYDRIVER1_SMT
  6
BYLAYER
370
   211
 62
   256
100
AcDbPolyline
 90
     2
 70
     0
 43
0.01
 10
2.78
 20
0.606
 10
2.565
 20
0.606
  0
LWPOLYLINE
  5
499
330
12
100
AcDbEntity
  8
4WAYDRIVER1_SMT
  6
BYLAYER
370
   211
 62
   256
100
AcDbPolyline
 90
     2
 70
     0
 43
0.01
 10
2.78
 20
0.597
 10
2.565
 20
0.597
  0
LWPOLYLINE
  5
49A
330
12
100
AcDbEntity
  8
4WAYDRIVER1_SMT
  6
BYLAYER
370
   211
 62
   256
100
AcDbPolyline
 90
     2
 70
     0
 43
0.01
 10
2.78
 20
0.588
 10
2.565
 20
0.588
  0
LWPOLYLINE
  5
49B
330
12
100
AcDbEntity
  8
4WAYDRIVER1_SMT
  6
BYLAYER
370
   211
 62
   256
100
AcDbPolyline
 90
     2
 70
     0
 43
0.01
 10
2.78
 20
0.579
 10
2.565
 20
0.579
  0
LWPOLYLINE
  5
49C
330
12
100
AcDbEntity
  8
4WAYDRIVER1_SMT
  6
BYLAYER
370
   211
 62
   256
100
AcDbPolyline
 90
     2
 70
     0
 43
0.01
 10
2.78
 20
0.57
 10
2.565
 20
0.57
  0
LWPOLYLINE
  5
49D
330
12
100
AcDbEntity
  8
4WAYDRIVER1_SMT
  6
BYLAYER
370
   211
 62
   256
100
AcDbPolyline
 90
     2
 70
     0
 43
0.01
 10
2.78
 20
0.561
 10
2.565
 20
0.561
  0
LWPOLYLINE
  5
49E
330
12
100
AcDbEntity
  8
4WAYDRIVER1_SMT
  6
BYLAYER
370
   211
 62
   256
100
AcDbPolyline
 90
     2
 70
     0
 43
0.01
 10
2.78
 20
0.552
 10
2.565
 20
0.552
  0
LWPOLYLINE
  5
49F
330
12
100
AcDbEntity
  8
4WAYDRIVER1_SMT
  6
BYLAYER
370
   211
 62
   256
100
AcDbPolyline
 90
     2
 70
     0
 43
0.01
 10
2.78
 20
0.543
 10
2.565
 20
0.543
  0
LWPOLYLINE
  5
4A0
330
12
100
AcDbEntity
  8
4WAYDRIVER1_SMT
  6
BYLAYER
370
   211
 62
   256
100
AcDbPolyline
 90
     2
 70
     0
 43
0.01
 10
2.78
 20
0.534
 10
2.565
 20
0.534
  0
LWPOLYLINE
  5
4A1
330
12
100
AcDbEntity
  8
4WAYDRIVER1_SMT
  6
BYLAYER
370
   211
 62
   256
100
AcDbPolyline
 90
     2
 70
     0
 43
0.01
 10
2.78
 20
0.525
 10
2.565
 20
0.525
  0
LWPOLYLINE
  5
4A2
330
12
100
AcDbEntity
  8
4WAYDRIVER1_SMT
  6
BYLAYER
370
   211
 62
   256
100
AcDbPolyline
 90
     2
 70
     0
 43
0.01
 10
2.78
 20
0.516
 10
2.565
 20
0.516
  0
LWPOLYLINE
  5
4A3
330
12
100
AcDbEntity
  8
4WAYDRIVER1_SMT
  6
BYLAYER
370
   211
 62
   256
100
AcDbPolyline
 90
     2
 70
     0
 43
0.01
 10
2.78
 20
0.507
 10
2.565
 20
0.507
  0
LWPOLYLINE
  5
4A4
330
12
100
AcDbEntity
  8
4WAYDRIVER1_SMT
  6
BYLAYER
370
   211
 62
   256
100
AcDbPolyline
 90
     2
 70
     0
 43
0.01
 10
2.78
 20
0.498
 10
2.565
 20
0.498
  0
LWPOLYLINE
  5
4A5
330
12
100
AcDbEntity
  8
4WAYDRIVER1_SMT
  6
BYLAYER
370
   211
 62
   256
100
AcDbPolyline
 90
     2
 70
     0
 43
0.01
 10
2.78
 20
0.489
 10
2.565
 20
0.489
  0
LWPOLYLINE
  5
4A6
330
12
100
AcDbEntity
  8
4WAYDRIVER1_SMT
  6
BYLAYER
370
   211
 62
   256
100
AcDbPolyline
 90
     2
 70
     0
 43
0.01
 10
2.78
 20
0.48
 10
2.565
 20
0.48
  0
LWPOLYLINE
  5
4A7
330
12
100
AcDbEntity
  8
4WAYDRIVER1_SMT
  6
BYLAYER
370
   211
 62
   256
100
AcDbPolyline
 90
     2
 70
     0
 43
0.01
 10
2.78
 20
0.471
 10
2.565
 20
0.471
  0
LWPOLYLINE
  5
4A8
330
12
100
AcDbEntity
  8
4WAYDRIVER1_SMT
  6
BYLAYER
370
   211
 62
   256
100
AcDbPolyline
 90
     2
 70
     0
 43
0.01
 10
2.78
 20
0.462
 10
2.565
 20
0.462
  0
LWPOLYLINE
  5
4A9
330
12
100
AcDbEntity
  8
4WAYDRIVER1_SMT
  6
BYLAYER
370
   211
 62
   256
100
AcDbPolyline
 90
     2
 70
     0
 43
0.01
 10
2.78
 20
0.453
 10
2.565
 20
0.453
  0
LWPOLYLINE
  5
4AA
330
12
100
AcDbEntity
  8
4WAYDRIVER1_SMT
  6
BYLAYER
370
   211
 62
   256
100
AcDbPolyline
 90
     2
 70
     0
 43
0.01
 10
2.776
 20
0.615
 10
2.776
 20
0.44
  0
LWPOLYLINE
  5
4AB
330
12
100
AcDbEntity
  8
4WAYDRIVER1_SMT
  6
BYLAYER
370
   211
 62
   256
100
AcDbPolyline
 90
     2
 70
     0
 43
0.01
 10
2.767
 20
0.615
 10
2.767
 20
0.44
  0
LWPOLYLINE
  5
4AC
330
12
100
AcDbEntity
  8
4WAYDRIVER1_SMT
  6
BYLAYER
370
   211
 62
   256
100
AcDbPolyline
 90
     2
 70
     0
 43
0.01
 10
2.758
 20
0.615
 10
2.758
 20
0.44
  0
LWPOLYLINE
  5
4AD
330
12
100
AcDbEntity
  8
4WAYDRIVER1_SMT
  6
BYLAYER
370
   211
 62
   256
100
AcDbPolyline
 90
     2
 70
     0
 43
0.01
 10
2.749
 20
0.615
 10
2.749
 20
0.44
  0
LWPOLYLINE
  5
4AE
330
12
100
AcDbEntity
  8
4WAYDRIVER1_SMT
  6
BYLAYER
370
   211
 62
   256
100
AcDbPolyline
 90
     2
 70
     0
 43
0.01
 10
2.74
 20
0.615
 10
2.74
 20
0.44
  0
LWPOLYLINE
  5
4AF
330
12
100
AcDbEntity
  8
4WAYDRIVER1_SMT
  6
BYLAYER
370
   211
 62
   256
100
AcDbPolyline
 90
     2
 70
     0
 43
0.01
 10
2.731
 20
0.615
 10
2.731
 20
0.44
  0
LWPOLYLINE
  5
4B0
330
12
100
AcDbEntity
  8
4WAYDRIVER1_SMT
  6
BYLAYER
370
   211
 62
   256
100
AcDbPolyline
 90
     2
 70
     0
 43
0.01
 10
2.722
 20
0.615
 10
2.722
 20
0.44
  0
LWPOLYLINE
  5
4B1
330
12
100
AcDbEntity
  8
4WAYDRIVER1_SMT
  6
BYLAYER
370
   211
 62
   256
100
AcDbPolyline
 90
     2
 70
     0
 43
0.01
 10
2.713
 20
0.615
 10
2.713
 20
0.44
  0
LWPOLYLINE
  5
4B2
330
12
100
AcDbEntity
  8
4WAYDRIVER1_SMT
  6
BYLAYER
370
   211
 62
   256
100
AcDbPolyline
 90
     2
 70
     0
 43
0.01
 10
2.704
 20
0.615
 10
2.704
 20
0.44
  0
LWPOLYLINE
  5
4B3
330
12
100
AcDbEntity
  8
4WAYDRIVER1_SMT
  6
BYLAYER
370
   211
 62
   256
100
AcDbPolyline
 90
     2
 70
     0
 43
0.01
 10
2.695
 20
0.615
 10
2.695
 20
0.44
  0
LWPOLYLINE
  5
4B4
330
12
100
AcDbEntity
  8
4WAYDRIVER1_SMT
  6
BYLAYER
370
   211
 62
   256
100
AcDbPolyline
 90
     2
 70
     0
 43
0.01
 10
2.686
 20
0.615
 10
2.686
 20
0.44
  0
LWPOLYLINE
  5
4B5
330
12
100
AcDbEntity
  8
4WAYDRIVER1_SMT
  6
BYLAYER
370
   211
 62
   256
100
AcDbPolyline
 90
     2
 70
     0
 43
0.01
 10
2.677
 20
0.615
 10
2.677
 20
0.44
  0
LWPOLYLINE
  5
4B6
330
12
100
AcDbEntity
  8
4WAYDRIVER1_SMT
  6
BYLAYER
370
   211
 62
   256
100
AcDbPolyline
 90
     2
 70
     0
 43
0.01
 10
2.668
 20
0.615
 10
2.668
 20
0.44
  0
LWPOLYLINE
  5
4B7
330
12
100
AcDbEntity
  8
4WAYDRIVER1_SMT
  6
BYLAYER
370
   211
 62
   256
100
AcDbPolyline
 90
     2
 70
     0
 43
0.01
 10
2.659
 20
0.615
 10
2.659
 20
0.44
  0
LWPOLYLINE
  5
4B8
330
12
100
AcDbEntity
  8
4WAYDRIVER1_SMT
  6
BYLAYER
370
   211
 62
   256
100
AcDbPolyline
 90
     2
 70
     0
 43
0.01
 10
2.65
 20
0.615
 10
2.65
 20
0.44
  0
LWPOLYLINE
  5
4B9
330
12
100
AcDbEntity
  8
4WAYDRIVER1_SMT
  6
BYLAYER
370
   211
 62
   256
100
AcDbPolyline
 90
     2
 70
     0
 43
0.01
 10
2.641
 20
0.615
 10
2.641
 20
0.44
  0
LWPOLYLINE
  5
4BA
330
12
100
AcDbEntity
  8
4WAYDRIVER1_SMT
  6
BYLAYER
370
   211
 62
   256
100
AcDbPolyline
 90
     2
 70
     0
 43
0.01
 10
2.632
 20
0.615
 10
2.632
 20
0.44
  0
LWPOLYLINE
  5
4BB
330
12
100
AcDbEntity
  8
4WAYDRIVER1_SMT
  6
BYLAYER
370
   211
 62
   256
100
AcDbPolyline
 90
     2
 70
     0
 43
0.01
 10
2.623
 20
0.615
 10
2.623
 20
0.44
  0
LWPOLYLINE
  5
4BC
330
12
100
AcDbEntity
  8
4WAYDRIVER1_SMT
  6
BYLAYER
370
   211
 62
   256
100
AcDbPolyline
 90
     2
 70
     0
 43
0.01
 10
2.614
 20
0.615
 10
2.614
 20
0.44
  0
LWPOLYLINE
  5
4BD
330
12
100
AcDbEntity
  8
4WAYDRIVER1_SMT
  6
BYLAYER
370
   211
 62
   256
100
AcDbPolyline
 90
     2
 70
     0
 43
0.01
 10
2.605
 20
0.615
 10
2.605
 20
0.44
  0
LWPOLYLINE
  5
4BE
330
12
100
AcDbEntity
  8
4WAYDRIVER1_SMT
  6
BYLAYER
370
   211
 62
   256
100
AcDbPolyline
 90
     2
 70
     0
 43
0.01
 10
2.596
 20
0.615
 10
2.596
 20
0.44
  0
LWPOLYLINE
  5
4BF
330
12
100
AcDbEntity
  8
4WAYDRIVER1_SMT
  6
BYLAYER
370
   211
 62
   256
100
AcDbPolyline
 90
     2
 70
     0
 43
0.01
 10
2.569
 20
0.615
 10
2.569
 20
0.44
  0
LWPOLYLINE
  5
4C0
330
12
100
AcDbEntity
  8
4WAYDRIVER1_SMT
  6
BYLAYER
370
   211
 62
   256
100
AcDbPolyline
 90
     2
 70
     0
 43
0.01
 10
2.78
 20
0.615
 10
2.565
 20
0.615
  0
LWPOLYLINE
  5
4C1
330
12
100
AcDbEntity
  8
4WAYDRIVER1_SMT
  6
BYLAYER
370
   211
 62
   256
100
AcDbPolyline
 90
     3
 70
     0
 43
0.01
 10
2.78
 20
0.615
 10
2.78
 20
0.44
 10
2.565
 20
0.44
  0
LWPOLYLINE
  5
4C2
330
12
100
AcDbEntity
  8
4WAYDRIVER1_SMT
  6
BYLAYER
370
   211
 62
   256
100
AcDbPolyline
 90
     2
 70
     0
 43
0.01
 10
2.565
 20
0.615
 10
2.565
 20
0.44
  0
LWPOLYLINE
  5
4C3
330
12
100
AcDbEntity
  8
4WAYDRIVER1_SMT
  6
BYLAYER
370
   211
 62
   256
100
AcDbPolyline
 90
     2
 70
     0
 43
0.01
 10
2.032
 20
0.615
 10
2.032
 20
0.44
  0
LWPOLYLINE
  5
4C4
330
12
100
AcDbEntity
  8
4WAYDRIVER1_SMT
  6
BYLAYER
370
   211
 62
   256
100
AcDbPolyline
 90
     2
 70
     0
 43
0.01
 10
2.023
 20
0.615
 10
2.023
 20
0.44
  0
LWPOLYLINE
  5
4C5
330
12
100
AcDbEntity
  8
4WAYDRIVER1_SMT
  6
BYLAYER
370
   211
 62
   256
100
AcDbPolyline
 90
     2
 70
     0
 43
0.01
 10
2.224
 20
0.444
 10
2.01
 20
0.444
  0
LWPOLYLINE
  5
4C6
330
12
100
AcDbEntity
  8
4WAYDRIVER1_SMT
  6
BYLAYER
370
   211
 62
   256
100
AcDbPolyline
 90
     2
 70
     0
 43
0.01
 10
2.224
 20
0.606
 10
2.01
 20
0.606
  0
LWPOLYLINE
  5
4C7
330
12
100
AcDbEntity
  8
4WAYDRIVER1_SMT
  6
BYLAYER
370
   211
 62
   256
100
AcDbPolyline
 90
     2
 70
     0
 43
0.01
 10
2.224
 20
0.597
 10
2.01
 20
0.597
  0
LWPOLYLINE
  5
4C8
330
12
100
AcDbEntity
  8
4WAYDRIVER1_SMT
  6
BYLAYER
370
   211
 62
   256
100
AcDbPolyline
 90
     2
 70
     0
 43
0.01
 10
2.224
 20
0.588
 10
2.01
 20
0.588
  0
LWPOLYLINE
  5
4C9
330
12
100
AcDbEntity
  8
4WAYDRIVER1_SMT
  6
BYLAYER
370
   211
 62
   256
100
AcDbPolyline
 90
     2
 70
     0
 43
0.01
 10
2.224
 20
0.579
 10
2.01
 20
0.579
  0
LWPOLYLINE
  5
4CA
330
12
100
AcDbEntity
  8
4WAYDRIVER1_SMT
  6
BYLAYER
370
   211
 62
   256
100
AcDbPolyline
 90
     2
 70
     0
 43
0.01
 10
2.224
 20
0.57
 10
2.01
 20
0.57
  0
LWPOLYLINE
  5
4CB
330
12
100
AcDbEntity
  8
4WAYDRIVER1_SMT
  6
BYLAYER
370
   211
 62
   256
100
AcDbPolyline
 90
     2
 70
     0
 43
0.01
 10
2.224
 20
0.561
 10
2.01
 20
0.561
  0
LWPOLYLINE
  5
4CC
330
12
100
AcDbEntity
  8
4WAYDRIVER1_SMT
  6
BYLAYER
370
   211
 62
   256
100
AcDbPolyline
 90
     2
 70
     0
 43
0.01
 10
2.224
 20
0.552
 10
2.01
 20
0.552
  0
LWPOLYLINE
  5
4CD
330
12
100
AcDbEntity
  8
4WAYDRIVER1_SMT
  6
BYLAYER
370
   211
 62
   256
100
AcDbPolyline
 90
     2
 70
     0
 43
0.01
 10
2.224
 20
0.543
 10
2.01
 20
0.543
  0
LWPOLYLINE
  5
4CE
330
12
100
AcDbEntity
  8
4WAYDRIVER1_SMT
  6
BYLAYER
370
   211
 62
   256
100
AcDbPolyline
 90
     2
 70
     0
 43
0.01
 10
2.224
 20
0.534
 10
2.01
 20
0.534
  0
LWPOLYLINE
  5
4CF
330
12
100
AcDbEntity
  8
4WAYDRIVER1_SMT
  6
BYLAYER
370
   211
 62
   256
100
AcDbPolyline
 90
     2
 70
     0
 43
0.01
 10
2.224
 20
0.525
 10
2.01
 20
0.525
  0
LWPOLYLINE
  5
4D0
330
12
100
AcDbEntity
  8
4WAYDRIVER1_SMT
  6
BYLAYER
370
   211
 62
   256
100
AcDbPolyline
 90
     2
 70
     0
 43
0.01
 10
2.224
 20
0.516
 10
2.01
 20
0.516
  0
LWPOLYLINE
  5
4D1
330
12
100
AcDbEntity
  8
4WAYDRIVER1_SMT
  6
BYLAYER
370
   211
 62
   256
100
AcDbPolyline
 90
     2
 70
     0
 43
0.01
 10
2.224
 20
0.507
 10
2.01
 20
0.507
  0
LWPOLYLINE
  5
4D2
330
12
100
AcDbEntity
  8
4WAYDRIVER1_SMT
  6
BYLAYER
370
   211
 62
   256
100
AcDbPolyline
 90
     2
 70
     0
 43
0.01
 10
2.224
 20
0.498
 10
2.01
 20
0.498
  0
LWPOLYLINE
  5
4D3
330
12
100
AcDbEntity
  8
4WAYDRIVER1_SMT
  6
BYLAYER
370
   211
 62
   256
100
AcDbPolyline
 90
     2
 70
     0
 43
0.01
 10
2.224
 20
0.489
 10
2.01
 20
0.489
  0
LWPOLYLINE
  5
4D4
330
12
100
AcDbEntity
  8
4WAYDRIVER1_SMT
  6
BYLAYER
370
   211
 62
   256
100
AcDbPolyline
 90
     2
 70
     0
 43
0.01
 10
2.224
 20
0.48
 10
2.01
 20
0.48
  0
LWPOLYLINE
  5
4D5
330
12
100
AcDbEntity
  8
4WAYDRIVER1_SMT
  6
BYLAYER
370
   211
 62
   256
100
AcDbPolyline
 90
     2
 70
     0
 43
0.01
 10
2.224
 20
0.471
 10
2.01
 20
0.471
  0
LWPOLYLINE
  5
4D6
330
12
100
AcDbEntity
  8
4WAYDRIVER1_SMT
  6
BYLAYER
370
   211
 62
   256
100
AcDbPolyline
 90
     2
 70
     0
 43
0.01
 10
2.224
 20
0.462
 10
2.01
 20
0.462
  0
LWPOLYLINE
  5
4D7
330
12
100
AcDbEntity
  8
4WAYDRIVER1_SMT
  6
BYLAYER
370
   211
 62
   256
100
AcDbPolyline
 90
     2
 70
     0
 43
0.01
 10
2.224
 20
0.453
 10
2.01
 20
0.453
  0
LWPOLYLINE
  5
4D8
330
12
100
AcDbEntity
  8
4WAYDRIVER1_SMT
  6
BYLAYER
370
   211
 62
   256
100
AcDbPolyline
 90
     2
 70
     0
 43
0.01
 10
2.221
 20
0.615
 10
2.221
 20
0.44
  0
LWPOLYLINE
  5
4D9
330
12
100
AcDbEntity
  8
4WAYDRIVER1_SMT
  6
BYLAYER
370
   211
 62
   256
100
AcDbPolyline
 90
     2
 70
     0
 43
0.01
 10
2.212
 20
0.615
 10
2.212
 20
0.44
  0
LWPOLYLINE
  5
4DA
330
12
100
AcDbEntity
  8
4WAYDRIVER1_SMT
  6
BYLAYER
370
   211
 62
   256
100
AcDbPolyline
 90
     2
 70
     0
 43
0.01
 10
2.203
 20
0.615
 10
2.203
 20
0.44
  0
LWPOLYLINE
  5
4DB
330
12
100
AcDbEntity
  8
4WAYDRIVER1_SMT
  6
BYLAYER
370
   211
 62
   256
100
AcDbPolyline
 90
     2
 70
     0
 43
0.01
 10
2.194
 20
0.615
 10
2.194
 20
0.44
  0
LWPOLYLINE
  5
4DC
330
12
100
AcDbEntity
  8
4WAYDRIVER1_SMT
  6
BYLAYER
370
   211
 62
   256
100
AcDbPolyline
 90
     2
 70
     0
 43
0.01
 10
2.185
 20
0.615
 10
2.185
 20
0.44
  0
LWPOLYLINE
  5
4DD
330
12
100
AcDbEntity
  8
4WAYDRIVER1_SMT
  6
BYLAYER
370
   211
 62
   256
100
AcDbPolyline
 90
     2
 70
     0
 43
0.01
 10
2.176
 20
0.615
 10
2.176
 20
0.44
  0
LWPOLYLINE
  5
4DE
330
12
100
AcDbEntity
  8
4WAYDRIVER1_SMT
  6
BYLAYER
370
   211
 62
   256
100
AcDbPolyline
 90
     2
 70
     0
 43
0.01
 10
2.167
 20
0.615
 10
2.167
 20
0.44
  0
LWPOLYLINE
  5
4DF
330
12
100
AcDbEntity
  8
4WAYDRIVER1_SMT
  6
BYLAYER
370
   211
 62
   256
100
AcDbPolyline
 90
     2
 70
     0
 43
0.01
 10
2.158
 20
0.615
 10
2.158
 20
0.44
  0
LWPOLYLINE
  5
4E0
330
12
100
AcDbEntity
  8
4WAYDRIVER1_SMT
  6
BYLAYER
370
   211
 62
   256
100
AcDbPolyline
 90
     2
 70
     0
 43
0.01
 10
2.149
 20
0.615
 10
2.149
 20
0.44
  0
LWPOLYLINE
  5
4E1
330
12
100
AcDbEntity
  8
4WAYDRIVER1_SMT
  6
BYLAYER
370
   211
 62
   256
100
AcDbPolyline
 90
     2
 70
     0
 43
0.01
 10
2.14
 20
0.615
 10
2.14
 20
0.44
  0
LWPOLYLINE
  5
4E2
330
12
100
AcDbEntity
  8
4WAYDRIVER1_SMT
  6
BYLAYER
370
   211
 62
   256
100
AcDbPolyline
 90
     2
 70
     0
 43
0.01
 10
2.131
 20
0.615
 10
2.131
 20
0.44
  0
LWPOLYLINE
  5
4E3
330
12
100
AcDbEntity
  8
4WAYDRIVER1_SMT
  6
BYLAYER
370
   211
 62
   256
100
AcDbPolyline
 90
     2
 70
     0
 43
0.01
 10
2.122
 20
0.615
 10
2.122
 20
0.44
  0
LWPOLYLINE
  5
4E4
330
12
100
AcDbEntity
  8
4WAYDRIVER1_SMT
  6
BYLAYER
370
   211
 62
   256
100
AcDbPolyline
 90
     2
 70
     0
 43
0.01
 10
2.113
 20
0.615
 10
2.113
 20
0.44
  0
LWPOLYLINE
  5
4E5
330
12
100
AcDbEntity
  8
4WAYDRIVER1_SMT
  6
BYLAYER
370
   211
 62
   256
100
AcDbPolyline
 90
     2
 70
     0
 43
0.01
 10
2.104
 20
0.615
 10
2.104
 20
0.44
  0
LWPOLYLINE
  5
4E6
330
12
100
AcDbEntity
  8
4WAYDRIVER1_SMT
  6
BYLAYER
370
   211
 62
   256
100
AcDbPolyline
 90
     2
 70
     0
 43
0.01
 10
2.095
 20
0.615
 10
2.095
 20
0.44
  0
LWPOLYLINE
  5
4E7
330
12
100
AcDbEntity
  8
4WAYDRIVER1_SMT
  6
BYLAYER
370
   211
 62
   256
100
AcDbPolyline
 90
     2
 70
     0
 43
0.01
 10
2.086
 20
0.615
 10
2.086
 20
0.44
  0
LWPOLYLINE
  5
4E8
330
12
100
AcDbEntity
  8
4WAYDRIVER1_SMT
  6
BYLAYER
370
   211
 62
   256
100
AcDbPolyline
 90
     2
 70
     0
 43
0.01
 10
2.077
 20
0.615
 10
2.077
 20
0.44
  0
LWPOLYLINE
  5
4E9
330
12
100
AcDbEntity
  8
4WAYDRIVER1_SMT
  6
BYLAYER
370
   211
 62
   256
100
AcDbPolyline
 90
     2
 70
     0
 43
0.01
 10
2.068
 20
0.615
 10
2.068
 20
0.44
  0
LWPOLYLINE
  5
4EA
330
12
100
AcDbEntity
  8
4WAYDRIVER1_SMT
  6
BYLAYER
370
   211
 62
   256
100
AcDbPolyline
 90
     2
 70
     0
 43
0.01
 10
2.059
 20
0.615
 10
2.059
 20
0.44
  0
LWPOLYLINE
  5
4EB
330
12
100
AcDbEntity
  8
4WAYDRIVER1_SMT
  6
BYLAYER
370
   211
 62
   256
100
AcDbPolyline
 90
     2
 70
     0
 43
0.01
 10
2.05
 20
0.615
 10
2.05
 20
0.44
  0
LWPOLYLINE
  5
4EC
330
12
100
AcDbEntity
  8
4WAYDRIVER1_SMT
  6
BYLAYER
370
   211
 62
   256
100
AcDbPolyline
 90
     2
 70
     0
 43
0.01
 10
2.041
 20
0.615
 10
2.041
 20
0.44
  0
LWPOLYLINE
  5
4ED
330
12
100
AcDbEntity
  8
4WAYDRIVER1_SMT
  6
BYLAYER
370
   211
 62
   256
100
AcDbPolyline
 90
     2
 70
     0
 43
0.01
 10
2.014
 20
0.615
 10
2.014
 20
0.44
  0
LWPOLYLINE
  5
4EE
330
12
100
AcDbEntity
  8
4WAYDRIVER1_SMT
  6
BYLAYER
370
   211
 62
   256
100
AcDbPolyline
 90
     2
 70
     0
 43
0.01
 10
2.01
 20
0.615
 10
2.01
 20
0.44
  0
LWPOLYLINE
  5
4EF
330
12
100
AcDbEntity
  8
4WAYDRIVER1_SMT
  6
BYLAYER
370
   211
 62
   256
100
AcDbPolyline
 90
     2
 70
     0
 43
0.01
 10
2.224
 20
0.44
 10
2.01
 20
0.44
  0
LWPOLYLINE
  5
4F0
330
12
100
AcDbEntity
  8
4WAYDRIVER1_SMT
  6
BYLAYER
370
   211
 62
   256
100
AcDbPolyline
 90
     2
 70
     0
 43
0.01
 10
2.224
 20
0.615
 10
2.224
 20
0.44
  0
LWPOLYLINE
  5
4F1
330
12
100
AcDbEntity
  8
4WAYDRIVER1_SMT
  6
BYLAYER
370
   211
 62
   256
100
AcDbPolyline
 90
     2
 70
     0
 43
0.01
 10
2.224
 20
0.615
 10
2.01
 20
0.615
  0
LWPOLYLINE
  5
4F2
330
12
100
AcDbEntity
  8
4WAYDRIVER1_SMT
  6
BYLAYER
370
   211
 62
   256
100
AcDbPolyline
 90
     2
 70
     0
 43
0.01
 10
1.398
 20
0.615
 10
1.398
 20
0.44
  0
LWPOLYLINE
  5
4F3
330
12
100
AcDbEntity
  8
4WAYDRIVER1_SMT
  6
BYLAYER
370
   211
 62
   256
100
AcDbPolyline
 90
     2
 70
     0
 43
0.01
 10
1.389
 20
0.615
 10
1.389
 20
0.44
  0
LWPOLYLINE
  5
4F4
330
12
100
AcDbEntity
  8
4WAYDRIVER1_SMT
  6
BYLAYER
370
   211
 62
   256
100
AcDbPolyline
 90
     2
 70
     0
 43
0.01
 10
1.59
 20
0.444
 10
1.376
 20
0.444
  0
LWPOLYLINE
  5
4F5
330
12
100
AcDbEntity
  8
4WAYDRIVER1_SMT
  6
BYLAYER
370
   211
 62
   256
100
AcDbPolyline
 90
     2
 70
     0
 43
0.01
 10
1.59
 20
0.606
 10
1.376
 20
0.606
  0
LWPOLYLINE
  5
4F6
330
12
100
AcDbEntity
  8
4WAYDRIVER1_SMT
  6
BYLAYER
370
   211
 62
   256
100
AcDbPolyline
 90
     2
 70
     0
 43
0.01
 10
1.59
 20
0.597
 10
1.376
 20
0.597
  0
LWPOLYLINE
  5
4F7
330
12
100
AcDbEntity
  8
4WAYDRIVER1_SMT
  6
BYLAYER
370
   211
 62
   256
100
AcDbPolyline
 90
     2
 70
     0
 43
0.01
 10
1.59
 20
0.588
 10
1.376
 20
0.588
  0
LWPOLYLINE
  5
4F8
330
12
100
AcDbEntity
  8
4WAYDRIVER1_SMT
  6
BYLAYER
370
   211
 62
   256
100
AcDbPolyline
 90
     2
 70
     0
 43
0.01
 10
1.59
 20
0.579
 10
1.376
 20
0.579
  0
LWPOLYLINE
  5
4F9
330
12
100
AcDbEntity
  8
4WAYDRIVER1_SMT
  6
BYLAYER
370
   211
 62
   256
100
AcDbPolyline
 90
     2
 70
     0
 43
0.01
 10
1.59
 20
0.57
 10
1.376
 20
0.57
  0
LWPOLYLINE
  5
4FA
330
12
100
AcDbEntity
  8
4WAYDRIVER1_SMT
  6
BYLAYER
370
   211
 62
   256
100
AcDbPolyline
 90
     2
 70
     0
 43
0.01
 10
1.59
 20
0.561
 10
1.376
 20
0.561
  0
LWPOLYLINE
  5
4FB
330
12
100
AcDbEntity
  8
4WAYDRIVER1_SMT
  6
BYLAYER
370
   211
 62
   256
100
AcDbPolyline
 90
     2
 70
     0
 43
0.01
 10
1.59
 20
0.552
 10
1.376
 20
0.552
  0
LWPOLYLINE
  5
4FC
330
12
100
AcDbEntity
  8
4WAYDRIVER1_SMT
  6
BYLAYER
370
   211
 62
   256
100
AcDbPolyline
 90
     2
 70
     0
 43
0.01
 10
1.59
 20
0.543
 10
1.376
 20
0.543
  0
LWPOLYLINE
  5
4FD
330
12
100
AcDbEntity
  8
4WAYDRIVER1_SMT
  6
BYLAYER
370
   211
 62
   256
100
AcDbPolyline
 90
     2
 70
     0
 43
0.01
 10
1.59
 20
0.534
 10
1.376
 20
0.534
  0
LWPOLYLINE
  5
4FE
330
12
100
AcDbEntity
  8
4WAYDRIVER1_SMT
  6
BYLAYER
370
   211
 62
   256
100
AcDbPolyline
 90
     2
 70
     0
 43
0.01
 10
1.59
 20
0.525
 10
1.376
 20
0.525
  0
LWPOLYLINE
  5
4FF
330
12
100
AcDbEntity
  8
4WAYDRIVER1_SMT
  6
BYLAYER
370
   211
 62
   256
100
AcDbPolyline
 90
     2
 70
     0
 43
0.01
 10
1.59
 20
0.516
 10
1.376
 20
0.516
  0
LWPOLYLINE
  5
500
330
12
100
AcDbEntity
  8
4WAYDRIVER1_SMT
  6
BYLAYER
370
   211
 62
   256
100
AcDbPolyline
 90
     2
 70
     0
 43
0.01
 10
1.59
 20
0.507
 10
1.376
 20
0.507
  0
LWPOLYLINE
  5
501
330
12
100
AcDbEntity
  8
4WAYDRIVER1_SMT
  6
BYLAYER
370
   211
 62
   256
100
AcDbPolyline
 90
     2
 70
     0
 43
0.01
 10
1.59
 20
0.498
 10
1.376
 20
0.498
  0
LWPOLYLINE
  5
502
330
12
100
AcDbEntity
  8
4WAYDRIVER1_SMT
  6
BYLAYER
370
   211
 62
   256
100
AcDbPolyline
 90
     2
 70
     0
 43
0.01
 10
1.59
 20
0.489
 10
1.376
 20
0.489
  0
LWPOLYLINE
  5
503
330
12
100
AcDbEntity
  8
4WAYDRIVER1_SMT
  6
BYLAYER
370
   211
 62
   256
100
AcDbPolyline
 90
     2
 70
     0
 43
0.01
 10
1.59
 20
0.48
 10
1.376
 20
0.48
  0
LWPOLYLINE
  5
504
330
12
100
AcDbEntity
  8
4WAYDRIVER1_SMT
  6
BYLAYER
370
   211
 62
   256
100
AcDbPolyline
 90
     2
 70
     0
 43
0.01
 10
1.59
 20
0.471
 10
1.376
 20
0.471
  0
LWPOLYLINE
  5
505
330
12
100
AcDbEntity
  8
4WAYDRIVER1_SMT
  6
BYLAYER
370
   211
 62
   256
100
AcDbPolyline
 90
     2
 70
     0
 43
0.01
 10
1.59
 20
0.462
 10
1.376
 20
0.462
  0
LWPOLYLINE
  5
506
330
12
100
AcDbEntity
  8
4WAYDRIVER1_SMT
  6
BYLAYER
370
   211
 62
   256
100
AcDbPolyline
 90
     2
 70
     0
 43
0.01
 10
1.59
 20
0.453
 10
1.376
 20
0.453
  0
LWPOLYLINE
  5
507
330
12
100
AcDbEntity
  8
4WAYDRIVER1_SMT
  6
BYLAYER
370
   211
 62
   256
100
AcDbPolyline
 90
     2
 70
     0
 43
0.01
 10
1.587
 20
0.615
 10
1.587
 20
0.44
  0
LWPOLYLINE
  5
508
330
12
100
AcDbEntity
  8
4WAYDRIVER1_SMT
  6
BYLAYER
370
   211
 62
   256
100
AcDbPolyline
 90
     2
 70
     0
 43
0.01
 10
1.578
 20
0.615
 10
1.578
 20
0.44
  0
LWPOLYLINE
  5
509
330
12
100
AcDbEntity
  8
4WAYDRIVER1_SMT
  6
BYLAYER
370
   211
 62
   256
100
AcDbPolyline
 90
     2
 70
     0
 43
0.01
 10
1.569
 20
0.615
 10
1.569
 20
0.44
  0
LWPOLYLINE
  5
50A
330
12
100
AcDbEntity
  8
4WAYDRIVER1_SMT
  6
BYLAYER
370
   211
 62
   256
100
AcDbPolyline
 90
     2
 70
     0
 43
0.01
 10
1.56
 20
0.615
 10
1.56
 20
0.44
  0
LWPOLYLINE
  5
50B
330
12
100
AcDbEntity
  8
4WAYDRIVER1_SMT
  6
BYLAYER
370
   211
 62
   256
100
AcDbPolyline
 90
     2
 70
     0
 43
0.01
 10
1.551
 20
0.615
 10
1.551
 20
0.44
  0
LWPOLYLINE
  5
50C
330
12
100
AcDbEntity
  8
4WAYDRIVER1_SMT
  6
BYLAYER
370
   211
 62
   256
100
AcDbPolyline
 90
     2
 70
     0
 43
0.01
 10
1.542
 20
0.615
 10
1.542
 20
0.44
  0
LWPOLYLINE
  5
50D
330
12
100
AcDbEntity
  8
4WAYDRIVER1_SMT
  6
BYLAYER
370
   211
 62
   256
100
AcDbPolyline
 90
     2
 70
     0
 43
0.01
 10
1.533
 20
0.615
 10
1.533
 20
0.44
  0
LWPOLYLINE
  5
50E
330
12
100
AcDbEntity
  8
4WAYDRIVER1_SMT
  6
BYLAYER
370
   211
 62
   256
100
AcDbPolyline
 90
     2
 70
     0
 43
0.01
 10
1.524
 20
0.615
 10
1.524
 20
0.44
  0
LWPOLYLINE
  5
50F
330
12
100
AcDbEntity
  8
4WAYDRIVER1_SMT
  6
BYLAYER
370
   211
 62
   256
100
AcDbPolyline
 90
     2
 70
     0
 43
0.01
 10
1.515
 20
0.615
 10
1.515
 20
0.44
  0
LWPOLYLINE
  5
510
330
12
100
AcDbEntity
  8
4WAYDRIVER1_SMT
  6
BYLAYER
370
   211
 62
   256
100
AcDbPolyline
 90
     2
 70
     0
 43
0.01
 10
1.506
 20
0.615
 10
1.506
 20
0.44
  0
LWPOLYLINE
  5
511
330
12
100
AcDbEntity
  8
4WAYDRIVER1_SMT
  6
BYLAYER
370
   211
 62
   256
100
AcDbPolyline
 90
     2
 70
     0
 43
0.01
 10
1.497
 20
0.615
 10
1.497
 20
0.44
  0
LWPOLYLINE
  5
512
330
12
100
AcDbEntity
  8
4WAYDRIVER1_SMT
  6
BYLAYER
370
   211
 62
   256
100
AcDbPolyline
 90
     2
 70
     0
 43
0.01
 10
1.488
 20
0.615
 10
1.488
 20
0.44
  0
LWPOLYLINE
  5
513
330
12
100
AcDbEntity
  8
4WAYDRIVER1_SMT
  6
BYLAYER
370
   211
 62
   256
100
AcDbPolyline
 90
     2
 70
     0
 43
0.01
 10
1.479
 20
0.615
 10
1.479
 20
0.44
  0
LWPOLYLINE
  5
514
330
12
100
AcDbEntity
  8
4WAYDRIVER1_SMT
  6
BYLAYER
370
   211
 62
   256
100
AcDbPolyline
 90
     2
 70
     0
 43
0.01
 10
1.47
 20
0.615
 10
1.47
 20
0.44
  0
LWPOLYLINE
  5
515
330
12
100
AcDbEntity
  8
4WAYDRIVER1_SMT
  6
BYLAYER
370
   211
 62
   256
100
AcDbPolyline
 90
     2
 70
     0
 43
0.01
 10
1.461
 20
0.615
 10
1.461
 20
0.44
  0
LWPOLYLINE
  5
516
330
12
100
AcDbEntity
  8
4WAYDRIVER1_SMT
  6
BYLAYER
370
   211
 62
   256
100
AcDbPolyline
 90
     2
 70
     0
 43
0.01
 10
1.452
 20
0.615
 10
1.452
 20
0.44
  0
LWPOLYLINE
  5
517
330
12
100
AcDbEntity
  8
4WAYDRIVER1_SMT
  6
BYLAYER
370
   211
 62
   256
100
AcDbPolyline
 90
     2
 70
     0
 43
0.01
 10
1.443
 20
0.615
 10
1.443
 20
0.44
  0
LWPOLYLINE
  5
518
330
12
100
AcDbEntity
  8
4WAYDRIVER1_SMT
  6
BYLAYER
370
   211
 62
   256
100
AcDbPolyline
 90
     2
 70
     0
 43
0.01
 10
1.434
 20
0.615
 10
1.434
 20
0.44
  0
LWPOLYLINE
  5
519
330
12
100
AcDbEntity
  8
4WAYDRIVER1_SMT
  6
BYLAYER
370
   211
 62
   256
100
AcDbPolyline
 90
     2
 70
     0
 43
0.01
 10
1.425
 20
0.615
 10
1.425
 20
0.44
  0
LWPOLYLINE
  5
51A
330
12
100
AcDbEntity
  8
4WAYDRIVER1_SMT
  6
BYLAYER
370
   211
 62
   256
100
AcDbPolyline
 90
     2
 70
     0
 43
0.01
 10
1.416
 20
0.615
 10
1.416
 20
0.44
  0
LWPOLYLINE
  5
51B
330
12
100
AcDbEntity
  8
4WAYDRIVER1_SMT
  6
BYLAYER
370
   211
 62
   256
100
AcDbPolyline
 90
     2
 70
     0
 43
0.01
 10
1.407
 20
0.615
 10
1.407
 20
0.44
  0
LWPOLYLINE
  5
51C
330
12
100
AcDbEntity
  8
4WAYDRIVER1_SMT
  6
BYLAYER
370
   211
 62
   256
100
AcDbPolyline
 90
     2
 70
     0
 43
0.01
 10
1.38
 20
0.615
 10
1.38
 20
0.44
  0
LWPOLYLINE
  5
51D
330
12
100
AcDbEntity
  8
4WAYDRIVER1_SMT
  6
BYLAYER
370
   211
 62
   256
100
AcDbPolyline
 90
     2
 70
     0
 43
0.01
 10
1.59
 20
0.615
 10
1.376
 20
0.615
  0
LWPOLYLINE
  5
51E
330
12
100
AcDbEntity
  8
4WAYDRIVER1_SMT
  6
BYLAYER
370
   211
 62
   256
100
AcDbPolyline
 90
     3
 70
     0
 43
0.01
 10
1.59
 20
0.615
 10
1.59
 20
0.44
 10
1.376
 20
0.44
  0
LWPOLYLINE
  5
51F
330
12
100
AcDbEntity
  8
4WAYDRIVER1_SMT
  6
BYLAYER
370
   211
 62
   256
100
AcDbPolyline
 90
     2
 70
     0
 43
0.01
 10
1.376
 20
0.615
 10
1.376
 20
0.44
  0
LWPOLYLINE
  5
520
330
12
100
AcDbEntity
  8
4WAYDRIVER1_SMT
  6
BYLAYER
370
   211
 62
   256
100
AcDbPolyline
 90
     2
 70
     0
 43
0.01
 10
0.842
 20
0.615
 10
0.842
 20
0.44
  0
LWPOLYLINE
  5
521
330
12
100
AcDbEntity
  8
4WAYDRIVER1_SMT
  6
BYLAYER
370
   211
 62
   256
100
AcDbPolyline
 90
     2
 70
     0
 43
0.01
 10
0.833
 20
0.615
 10
0.833
 20
0.44
  0
LWPOLYLINE
  5
522
330
12
100
AcDbEntity
  8
4WAYDRIVER1_SMT
  6
BYLAYER
370
   211
 62
   256
100
AcDbPolyline
 90
     2
 70
     0
 43
0.01
 10
1.035
 20
0.444
 10
0.82
 20
0.444
  0
LWPOLYLINE
  5
523
330
12
100
AcDbEntity
  8
4WAYDRIVER1_SMT
  6
BYLAYER
370
   211
 62
   256
100
AcDbPolyline
 90
     2
 70
     0
 43
0.01
 10
1.035
 20
0.606
 10
0.82
 20
0.606
  0
LWPOLYLINE
  5
524
330
12
100
AcDbEntity
  8
4WAYDRIVER1_SMT
  6
BYLAYER
370
   211
 62
   256
100
AcDbPolyline
 90
     2
 70
     0
 43
0.01
 10
1.035
 20
0.597
 10
0.82
 20
0.597
  0
LWPOLYLINE
  5
525
330
12
100
AcDbEntity
  8
4WAYDRIVER1_SMT
  6
BYLAYER
370
   211
 62
   256
100
AcDbPolyline
 90
     2
 70
     0
 43
0.01
 10
1.035
 20
0.588
 10
0.82
 20
0.588
  0
LWPOLYLINE
  5
526
330
12
100
AcDbEntity
  8
4WAYDRIVER1_SMT
  6
BYLAYER
370
   211
 62
   256
100
AcDbPolyline
 90
     2
 70
     0
 43
0.01
 10
1.035
 20
0.579
 10
0.82
 20
0.579
  0
LWPOLYLINE
  5
527
330
12
100
AcDbEntity
  8
4WAYDRIVER1_SMT
  6
BYLAYER
370
   211
 62
   256
100
AcDbPolyline
 90
     2
 70
     0
 43
0.01
 10
1.035
 20
0.57
 10
0.82
 20
0.57
  0
LWPOLYLINE
  5
528
330
12
100
AcDbEntity
  8
4WAYDRIVER1_SMT
  6
BYLAYER
370
   211
 62
   256
100
AcDbPolyline
 90
     2
 70
     0
 43
0.01
 10
1.035
 20
0.561
 10
0.82
 20
0.561
  0
LWPOLYLINE
  5
529
330
12
100
AcDbEntity
  8
4WAYDRIVER1_SMT
  6
BYLAYER
370
   211
 62
   256
100
AcDbPolyline
 90
     2
 70
     0
 43
0.01
 10
1.035
 20
0.552
 10
0.82
 20
0.552
  0
LWPOLYLINE
  5
52A
330
12
100
AcDbEntity
  8
4WAYDRIVER1_SMT
  6
BYLAYER
370
   211
 62
   256
100
AcDbPolyline
 90
     2
 70
     0
 43
0.01
 10
1.035
 20
0.543
 10
0.82
 20
0.543
  0
LWPOLYLINE
  5
52B
330
12
100
AcDbEntity
  8
4WAYDRIVER1_SMT
  6
BYLAYER
370
   211
 62
   256
100
AcDbPolyline
 90
     2
 70
     0
 43
0.01
 10
1.035
 20
0.534
 10
0.82
 20
0.534
  0
LWPOLYLINE
  5
52C
330
12
100
AcDbEntity
  8
4WAYDRIVER1_SMT
  6
BYLAYER
370
   211
 62
   256
100
AcDbPolyline
 90
     2
 70
     0
 43
0.01
 10
1.035
 20
0.525
 10
0.82
 20
0.525
  0
LWPOLYLINE
  5
52D
330
12
100
AcDbEntity
  8
4WAYDRIVER1_SMT
  6
BYLAYER
370
   211
 62
   256
100
AcDbPolyline
 90
     2
 70
     0
 43
0.01
 10
1.035
 20
0.516
 10
0.82
 20
0.516
  0
LWPOLYLINE
  5
52E
330
12
100
AcDbEntity
  8
4WAYDRIVER1_SMT
  6
BYLAYER
370
   211
 62
   256
100
AcDbPolyline
 90
     2
 70
     0
 43
0.01
 10
1.035
 20
0.507
 10
0.82
 20
0.507
  0
LWPOLYLINE
  5
52F
330
12
100
AcDbEntity
  8
4WAYDRIVER1_SMT
  6
BYLAYER
370
   211
 62
   256
100
AcDbPolyline
 90
     2
 70
     0
 43
0.01
 10
1.035
 20
0.498
 10
0.82
 20
0.498
  0
LWPOLYLINE
  5
530
330
12
100
AcDbEntity
  8
4WAYDRIVER1_SMT
  6
BYLAYER
370
   211
 62
   256
100
AcDbPolyline
 90
     2
 70
     0
 43
0.01
 10
1.035
 20
0.489
 10
0.82
 20
0.489
  0
LWPOLYLINE
  5
531
330
12
100
AcDbEntity
  8
4WAYDRIVER1_SMT
  6
BYLAYER
370
   211
 62
   256
100
AcDbPolyline
 90
     2
 70
     0
 43
0.01
 10
1.035
 20
0.48
 10
0.82
 20
0.48
  0
LWPOLYLINE
  5
532
330
12
100
AcDbEntity
  8
4WAYDRIVER1_SMT
  6
BYLAYER
370
   211
 62
   256
100
AcDbPolyline
 90
     2
 70
     0
 43
0.01
 10
1.035
 20
0.471
 10
0.82
 20
0.471
  0
LWPOLYLINE
  5
533
330
12
100
AcDbEntity
  8
4WAYDRIVER1_SMT
  6
BYLAYER
370
   211
 62
   256
100
AcDbPolyline
 90
     2
 70
     0
 43
0.01
 10
1.035
 20
0.462
 10
0.82
 20
0.462
  0
LWPOLYLINE
  5
534
330
12
100
AcDbEntity
  8
4WAYDRIVER1_SMT
  6
BYLAYER
370
   211
 62
   256
100
AcDbPolyline
 90
     2
 70
     0
 43
0.01
 10
1.035
 20
0.453
 10
0.82
 20
0.453
  0
LWPOLYLINE
  5
535
330
12
100
AcDbEntity
  8
4WAYDRIVER1_SMT
  6
BYLAYER
370
   211
 62
   256
100
AcDbPolyline
 90
     2
 70
     0
 43
0.01
 10
1.031
 20
0.615
 10
1.031
 20
0.44
  0
LWPOLYLINE
  5
536
330
12
100
AcDbEntity
  8
4WAYDRIVER1_SMT
  6
BYLAYER
370
   211
 62
   256
100
AcDbPolyline
 90
     2
 70
     0
 43
0.01
 10
1.022
 20
0.615
 10
1.022
 20
0.44
  0
LWPOLYLINE
  5
537
330
12
100
AcDbEntity
  8
4WAYDRIVER1_SMT
  6
BYLAYER
370
   211
 62
   256
100
AcDbPolyline
 90
     2
 70
     0
 43
0.01
 10
1.013
 20
0.615
 10
1.013
 20
0.44
  0
LWPOLYLINE
  5
538
330
12
100
AcDbEntity
  8
4WAYDRIVER1_SMT
  6
BYLAYER
370
   211
 62
   256
100
AcDbPolyline
 90
     2
 70
     0
 43
0.01
 10
1.004
 20
0.615
 10
1.004
 20
0.44
  0
LWPOLYLINE
  5
539
330
12
100
AcDbEntity
  8
4WAYDRIVER1_SMT
  6
BYLAYER
370
   211
 62
   256
100
AcDbPolyline
 90
     2
 70
     0
 43
0.01
 10
0.995
 20
0.615
 10
0.995
 20
0.44
  0
LWPOLYLINE
  5
53A
330
12
100
AcDbEntity
  8
4WAYDRIVER1_SMT
  6
BYLAYER
370
   211
 62
   256
100
AcDbPolyline
 90
     2
 70
     0
 43
0.01
 10
0.986
 20
0.615
 10
0.986
 20
0.44
  0
LWPOLYLINE
  5
53B
330
12
100
AcDbEntity
  8
4WAYDRIVER1_SMT
  6
BYLAYER
370
   211
 62
   256
100
AcDbPolyline
 90
     2
 70
     0
 43
0.01
 10
0.977
 20
0.615
 10
0.977
 20
0.44
  0
LWPOLYLINE
  5
53C
330
12
100
AcDbEntity
  8
4WAYDRIVER1_SMT
  6
BYLAYER
370
   211
 62
   256
100
AcDbPolyline
 90
     2
 70
     0
 43
0.01
 10
0.968
 20
0.615
 10
0.968
 20
0.44
  0
LWPOLYLINE
  5
53D
330
12
100
AcDbEntity
  8
4WAYDRIVER1_SMT
  6
BYLAYER
370
   211
 62
   256
100
AcDbPolyline
 90
     2
 70
     0
 43
0.01
 10
0.959
 20
0.615
 10
0.959
 20
0.44
  0
LWPOLYLINE
  5
53E
330
12
100
AcDbEntity
  8
4WAYDRIVER1_SMT
  6
BYLAYER
370
   211
 62
   256
100
AcDbPolyline
 90
     2
 70
     0
 43
0.01
 10
0.95
 20
0.615
 10
0.95
 20
0.44
  0
LWPOLYLINE
  5
53F
330
12
100
AcDbEntity
  8
4WAYDRIVER1_SMT
  6
BYLAYER
370
   211
 62
   256
100
AcDbPolyline
 90
     2
 70
     0
 43
0.01
 10
0.941
 20
0.615
 10
0.941
 20
0.44
  0
LWPOLYLINE
  5
540
330
12
100
AcDbEntity
  8
4WAYDRIVER1_SMT
  6
BYLAYER
370
   211
 62
   256
100
AcDbPolyline
 90
     2
 70
     0
 43
0.01
 10
0.932
 20
0.615
 10
0.932
 20
0.44
  0
LWPOLYLINE
  5
541
330
12
100
AcDbEntity
  8
4WAYDRIVER1_SMT
  6
BYLAYER
370
   211
 62
   256
100
AcDbPolyline
 90
     2
 70
     0
 43
0.01
 10
0.923
 20
0.615
 10
0.923
 20
0.44
  0
LWPOLYLINE
  5
542
330
12
100
AcDbEntity
  8
4WAYDRIVER1_SMT
  6
BYLAYER
370
   211
 62
   256
100
AcDbPolyline
 90
     2
 70
     0
 43
0.01
 10
0.914
 20
0.615
 10
0.914
 20
0.44
  0
LWPOLYLINE
  5
543
330
12
100
AcDbEntity
  8
4WAYDRIVER1_SMT
  6
BYLAYER
370
   211
 62
   256
100
AcDbPolyline
 90
     2
 70
     0
 43
0.01
 10
0.905
 20
0.615
 10
0.905
 20
0.44
  0
LWPOLYLINE
  5
544
330
12
100
AcDbEntity
  8
4WAYDRIVER1_SMT
  6
BYLAYER
370
   211
 62
   256
100
AcDbPolyline
 90
     2
 70
     0
 43
0.01
 10
0.896
 20
0.615
 10
0.896
 20
0.44
  0
LWPOLYLINE
  5
545
330
12
100
AcDbEntity
  8
4WAYDRIVER1_SMT
  6
BYLAYER
370
   211
 62
   256
100
AcDbPolyline
 90
     2
 70
     0
 43
0.01
 10
0.887
 20
0.615
 10
0.887
 20
0.44
  0
LWPOLYLINE
  5
546
330
12
100
AcDbEntity
  8
4WAYDRIVER1_SMT
  6
BYLAYER
370
   211
 62
   256
100
AcDbPolyline
 90
     2
 70
     0
 43
0.01
 10
0.878
 20
0.615
 10
0.878
 20
0.44
  0
LWPOLYLINE
  5
547
330
12
100
AcDbEntity
  8
4WAYDRIVER1_SMT
  6
BYLAYER
370
   211
 62
   256
100
AcDbPolyline
 90
     2
 70
     0
 43
0.01
 10
0.869
 20
0.615
 10
0.869
 20
0.44
  0
LWPOLYLINE
  5
548
330
12
100
AcDbEntity
  8
4WAYDRIVER1_SMT
  6
BYLAYER
370
   211
 62
   256
100
AcDbPolyline
 90
     2
 70
     0
 43
0.01
 10
0.86
 20
0.615
 10
0.86
 20
0.44
  0
LWPOLYLINE
  5
549
330
12
100
AcDbEntity
  8
4WAYDRIVER1_SMT
  6
BYLAYER
370
   211
 62
   256
100
AcDbPolyline
 90
     2
 70
     0
 43
0.01
 10
0.851
 20
0.615
 10
0.851
 20
0.44
  0
LWPOLYLINE
  5
54A
330
12
100
AcDbEntity
  8
4WAYDRIVER1_SMT
  6
BYLAYER
370
   211
 62
   256
100
AcDbPolyline
 90
     2
 70
     0
 43
0.01
 10
0.824
 20
0.615
 10
0.824
 20
0.44
  0
LWPOLYLINE
  5
54B
330
12
100
AcDbEntity
  8
4WAYDRIVER1_SMT
  6
BYLAYER
370
   211
 62
   256
100
AcDbPolyline
 90
     2
 70
     0
 43
0.01
 10
0.82
 20
0.615
 10
0.82
 20
0.44
  0
LWPOLYLINE
  5
54C
330
12
100
AcDbEntity
  8
4WAYDRIVER1_SMT
  6
BYLAYER
370
   211
 62
   256
100
AcDbPolyline
 90
     2
 70
     0
 43
0.01
 10
1.035
 20
0.44
 10
0.82
 20
0.44
  0
LWPOLYLINE
  5
54D
330
12
100
AcDbEntity
  8
4WAYDRIVER1_SMT
  6
BYLAYER
370
   211
 62
   256
100
AcDbPolyline
 90
     2
 70
     0
 43
0.01
 10
1.035
 20
0.615
 10
1.035
 20
0.44
  0
LWPOLYLINE
  5
54E
330
12
100
AcDbEntity
  8
4WAYDRIVER1_SMT
  6
BYLAYER
370
   211
 62
   256
100
AcDbPolyline
 90
     2
 70
     0
 43
0.01
 10
1.035
 20
0.615
 10
0.82
 20
0.615
  0
LWPOLYLINE
  5
54F
330
12
100
AcDbEntity
  8
4WAYDRIVER1_SMT
  6
BYLAYER
370
   211
 62
   256
100
AcDbPolyline
 90
     2
 70
     0
 43
0.01
 10
1.996
 20
1.922
 10
1.996
 20
1.858
  0
LWPOLYLINE
  5
550
330
12
100
AcDbEntity
  8
4WAYDRIVER1_SMT
  6
BYLAYER
370
   211
 62
   256
100
AcDbPolyline
 90
     2
 70
     0
 43
0.01
 10
1.987
 20
1.922
 10
1.987
 20
1.858
  0
LWPOLYLINE
  5
551
330
12
100
AcDbEntity
  8
4WAYDRIVER1_SMT
  6
BYLAYER
370
   211
 62
   256
100
AcDbPolyline
 90
     2
 70
     0
 43
0.01
 10
1.978
 20
1.922
 10
1.978
 20
1.858
  0
LWPOLYLINE
  5
552
330
12
100
AcDbEntity
  8
4WAYDRIVER1_SMT
  6
BYLAYER
370
   211
 62
   256
100
AcDbPolyline
 90
     2
 70
     0
 43
0.01
 10
1.969
 20
1.922
 10
1.969
 20
1.858
  0
LWPOLYLINE
  5
553
330
12
100
AcDbEntity
  8
4WAYDRIVER1_SMT
  6
BYLAYER
370
   211
 62
   256
100
AcDbPolyline
 90
     2
 70
     0
 43
0.01
 10
2.18
 20
1.916
 10
1.965
 20
1.916
  0
LWPOLYLINE
  5
554
330
12
100
AcDbEntity
  8
4WAYDRIVER1_SMT
  6
BYLAYER
370
   211
 62
   256
100
AcDbPolyline
 90
     2
 70
     0
 43
0.01
 10
2.18
 20
1.907
 10
1.965
 20
1.907
  0
LWPOLYLINE
  5
555
330
12
100
AcDbEntity
  8
4WAYDRIVER1_SMT
  6
BYLAYER
370
   211
 62
   256
100
AcDbPolyline
 90
     2
 70
     0
 43
0.01
 10
2.18
 20
1.898
 10
1.965
 20
1.898
  0
LWPOLYLINE
  5
556
330
12
100
AcDbEntity
  8
4WAYDRIVER1_SMT
  6
BYLAYER
370
   211
 62
   256
100
AcDbPolyline
 90
     2
 70
     0
 43
0.01
 10
2.18
 20
1.889
 10
1.965
 20
1.889
  0
LWPOLYLINE
  5
557
330
12
100
AcDbEntity
  8
4WAYDRIVER1_SMT
  6
BYLAYER
370
   211
 62
   256
100
AcDbPolyline
 90
     2
 70
     0
 43
0.01
 10
2.18
 20
1.88
 10
1.965
 20
1.88
  0
LWPOLYLINE
  5
558
330
12
100
AcDbEntity
  8
4WAYDRIVER1_SMT
  6
BYLAYER
370
   211
 62
   256
100
AcDbPolyline
 90
     2
 70
     0
 43
0.01
 10
2.18
 20
1.871
 10
1.965
 20
1.871
  0
LWPOLYLINE
  5
559
330
12
100
AcDbEntity
  8
4WAYDRIVER1_SMT
  6
BYLAYER
370
   211
 62
   256
100
AcDbPolyline
 90
     2
 70
     0
 43
0.01
 10
2.095
 20
1.922
 10
2.095
 20
1.858
  0
LWPOLYLINE
  5
55A
330
12
100
AcDbEntity
  8
4WAYDRIVER1_SMT
  6
BYLAYER
370
   211
 62
   256
100
AcDbPolyline
 90
     2
 70
     0
 43
0.01
 10
2.086
 20
1.922
 10
2.086
 20
1.858
  0
LWPOLYLINE
  5
55B
330
12
100
AcDbEntity
  8
4WAYDRIVER1_SMT
  6
BYLAYER
370
   211
 62
   256
100
AcDbPolyline
 90
     2
 70
     0
 43
0.01
 10
2.077
 20
1.922
 10
2.077
 20
1.858
  0
LWPOLYLINE
  5
55C
330
12
100
AcDbEntity
  8
4WAYDRIVER1_SMT
  6
BYLAYER
370
   211
 62
   256
100
AcDbPolyline
 90
     2
 70
     0
 43
0.01
 10
2.068
 20
1.922
 10
2.068
 20
1.858
  0
LWPOLYLINE
  5
55D
330
12
100
AcDbEntity
  8
4WAYDRIVER1_SMT
  6
BYLAYER
370
   211
 62
   256
100
AcDbPolyline
 90
     2
 70
     0
 43
0.01
 10
2.059
 20
1.922
 10
2.059
 20
1.858
  0
LWPOLYLINE
  5
55E
330
12
100
AcDbEntity
  8
4WAYDRIVER1_SMT
  6
BYLAYER
370
   211
 62
   256
100
AcDbPolyline
 90
     2
 70
     0
 43
0.01
 10
2.05
 20
1.922
 10
2.05
 20
1.858
  0
LWPOLYLINE
  5
55F
330
12
100
AcDbEntity
  8
4WAYDRIVER1_SMT
  6
BYLAYER
370
   211
 62
   256
100
AcDbPolyline
 90
     2
 70
     0
 43
0.01
 10
2.041
 20
1.922
 10
2.041
 20
1.858
  0
LWPOLYLINE
  5
560
330
12
100
AcDbEntity
  8
4WAYDRIVER1_SMT
  6
BYLAYER
370
   211
 62
   256
100
AcDbPolyline
 90
     2
 70
     0
 43
0.01
 10
2.032
 20
1.922
 10
2.032
 20
1.858
  0
LWPOLYLINE
  5
561
330
12
100
AcDbEntity
  8
4WAYDRIVER1_SMT
  6
BYLAYER
370
   211
 62
   256
100
AcDbPolyline
 90
     2
 70
     0
 43
0.01
 10
2.023
 20
1.922
 10
2.023
 20
1.858
  0
LWPOLYLINE
  5
562
330
12
100
AcDbEntity
  8
4WAYDRIVER1_SMT
  6
BYLAYER
370
   211
 62
   256
100
AcDbPolyline
 90
     2
 70
     0
 43
0.01
 10
2.014
 20
1.922
 10
2.014
 20
1.858
  0
LWPOLYLINE
  5
563
330
12
100
AcDbEntity
  8
4WAYDRIVER1_SMT
  6
BYLAYER
370
   211
 62
   256
100
AcDbPolyline
 90
     2
 70
     0
 43
0.01
 10
2.005
 20
1.922
 10
2.005
 20
1.858
  0
LWPOLYLINE
  5
564
330
12
100
AcDbEntity
  8
4WAYDRIVER1_SMT
  6
BYLAYER
370
   211
 62
   256
100
AcDbPolyline
 90
     2
 70
     0
 43
0.01
 10
1.965
 20
1.922
 10
1.965
 20
1.858
  0
LWPOLYLINE
  5
565
330
12
100
AcDbEntity
  8
4WAYDRIVER1_SMT
  6
BYLAYER
370
   211
 62
   256
100
AcDbPolyline
 90
     2
 70
     0
 43
0.01
 10
2.176
 20
1.922
 10
2.176
 20
1.858
  0
LWPOLYLINE
  5
566
330
12
100
AcDbEntity
  8
4WAYDRIVER1_SMT
  6
BYLAYER
370
   211
 62
   256
100
AcDbPolyline
 90
     2
 70
     0
 43
0.01
 10
2.167
 20
1.922
 10
2.167
 20
1.858
  0
LWPOLYLINE
  5
567
330
12
100
AcDbEntity
  8
4WAYDRIVER1_SMT
  6
BYLAYER
370
   211
 62
   256
100
AcDbPolyline
 90
     2
 70
     0
 43
0.01
 10
2.158
 20
1.922
 10
2.158
 20
1.858
  0
LWPOLYLINE
  5
568
330
12
100
AcDbEntity
  8
4WAYDRIVER1_SMT
  6
BYLAYER
370
   211
 62
   256
100
AcDbPolyline
 90
     2
 70
     0
 43
0.01
 10
2.149
 20
1.922
 10
2.149
 20
1.858
  0
LWPOLYLINE
  5
569
330
12
100
AcDbEntity
  8
4WAYDRIVER1_SMT
  6
BYLAYER
370
   211
 62
   256
100
AcDbPolyline
 90
     2
 70
     0
 43
0.01
 10
2.14
 20
1.922
 10
2.14
 20
1.858
  0
LWPOLYLINE
  5
56A
330
12
100
AcDbEntity
  8
4WAYDRIVER1_SMT
  6
BYLAYER
370
   211
 62
   256
100
AcDbPolyline
 90
     2
 70
     0
 43
0.01
 10
2.131
 20
1.922
 10
2.131
 20
1.858
  0
LWPOLYLINE
  5
56B
330
12
100
AcDbEntity
  8
4WAYDRIVER1_SMT
  6
BYLAYER
370
   211
 62
   256
100
AcDbPolyline
 90
     2
 70
     0
 43
0.01
 10
2.122
 20
1.922
 10
2.122
 20
1.858
  0
LWPOLYLINE
  5
56C
330
12
100
AcDbEntity
  8
4WAYDRIVER1_SMT
  6
BYLAYER
370
   211
 62
   256
100
AcDbPolyline
 90
     2
 70
     0
 43
0.01
 10
2.113
 20
1.922
 10
2.113
 20
1.858
  0
LWPOLYLINE
  5
56D
330
12
100
AcDbEntity
  8
4WAYDRIVER1_SMT
  6
BYLAYER
370
   211
 62
   256
100
AcDbPolyline
 90
     2
 70
     0
 43
0.01
 10
2.104
 20
1.922
 10
2.104
 20
1.858
  0
LWPOLYLINE
  5
56E
330
12
100
AcDbEntity
  8
4WAYDRIVER1_SMT
  6
BYLAYER
370
   211
 62
   256
100
AcDbPolyline
 90
     2
 70
     0
 43
0.01
 10
2.18
 20
1.862
 10
1.965
 20
1.862
  0
LWPOLYLINE
  5
56F
330
12
100
AcDbEntity
  8
4WAYDRIVER1_SMT
  6
BYLAYER
370
   211
 62
   256
100
AcDbPolyline
 90
     2
 70
     0
 43
0.01
 10
2.18
 20
1.922
 10
1.965
 20
1.922
  0
LWPOLYLINE
  5
570
330
12
100
AcDbEntity
  8
4WAYDRIVER1_SMT
  6
BYLAYER
370
   211
 62
   256
100
AcDbPolyline
 90
     3
 70
     0
 43
0.01
 10
2.18
 20
1.922
 10
2.18
 20
1.858
 10
1.965
 20
1.858
  0
LWPOLYLINE
  5
571
330
12
100
AcDbEntity
  8
4WAYDRIVER1_SST
  6
BYLAYER
370
   211
 62
   256
100
AcDbPolyline
 90
     9
 70
     0
 43
0.008
 10
0.2615
 20
1.9901
 10
0.2656
 20
1.9818
 10
0.2906
 20
1.9818
 10
0.2948
 20
1.9901
 10
0.2948
 20
2.0068
 10
0.2865
 20
2.0152
 10
0.2615
 20
2.0152
 10
0.2615
 20
2.0318
 10
0.2948
 20
2.0318
  0
LWPOLYLINE
  5
572
330
12
100
AcDbEntity
  8
4WAYDRIVER1_SST
  6
BYLAYER
370
   211
 62
   256
100
AcDbPolyline
 90
     2
 70
     0
 43
0.008
 10
0.2121
 20
1.9985
 10
0.2122
 20
1.9901
  0
LWPOLYLINE
  5
573
330
12
100
AcDbEntity
  8
4WAYDRIVER1_SST
  6
BYLAYER
370
   211
 62
   256
100
AcDbPolyline
 90
     5
 70
     0
 43
0.008
 10
0.2121
 20
1.9901
 10
0.2163
 20
1.9818
 10
0.233
 20
1.9818
 10
0.2371
 20
1.9901
 10
0.2371
 20
2.0318
  0
LWPOLYLINE
  5
574
330
12
100
AcDbEntity
  8
4WAYDRIVER1_SST
  6
BYLAYER
370
   211
 62
   256
100
AcDbPolyline
 90
     2
 70
     0
 43
0.008
 10
0.2413
 20
2.0318
 10
0.2247
 20
2.0318
  0
LWPOLYLINE
  5
575
330
12
100
AcDbEntity
  8
4WAYDRIVER1_SST
  6
BYLAYER
370
   211
 62
   256
100
AcDbPolyline
 90
    13
 70
     0
 43
0.008
 10
1.4549
 20
2.6098
 10
1.4466
 20
2.6181
 10
1.4424
 20
2.6265
 10
1.4424
 20
2.6432
 10
1.4466
 20
2.6515
 10
1.4549
 20
2.6598
 10
1.4632
 20
2.6598
 10
1.4716
 20
2.6515
 10
1.4757
 20
2.6432
 10
1.4757
 20
2.6265
 10
1.4716
 20
2.6181
 10
1.4632
 20
2.6098
 10
1.4549
 20
2.6098
  0
LWPOLYLINE
  5
576
330
12
100
AcDbEntity
  8
4WAYDRIVER1_SST
  6
BYLAYER
370
   211
 62
   256
100
AcDbPolyline
 90
     5
 70
     0
 43
0.008
 10
1.4222
 20
2.6265
 10
1.3889
 20
2.6265
 10
1.4056
 20
2.6598
 10
1.4139
 20
2.6598
 10
1.4139
 20
2.6098
  0
LWPOLYLINE
  5
577
330
12
100
AcDbEntity
  8
4WAYDRIVER1_SST
  6
BYLAYER
370
   211
 62
   256
100
AcDbPolyline
 90
    13
 70
     0
 43
0.008
 10
1.3479
 20
2.6098
 10
1.3396
 20
2.6181
 10
1.3354
 20
2.6265
 10
1.3354
 20
2.6432
 10
1.3396
 20
2.6515
 10
1.3479
 20
2.6598
 10
1.3562
 20
2.6598
 10
1.3646
 20
2.6515
 10
1.3687
 20
2.6432
 10
1.3687
 20
2.6265
 10
1.3646
 20
2.6181
 10
1.3562
 20
2.6098
 10
1.3479
 20
2.6098
  0
LWPOLYLINE
  5
578
330
12
100
AcDbEntity
  8
4WAYDRIVER1_SST
  6
BYLAYER
370
   211
 62
   256
100
AcDbPolyline
 90
    16
 70
     0
 43
0.008
 10
1.3111
 20
2.6348
 10
1.3152
 20
2.6432
 10
1.3152
 20
2.6515
 10
1.3111
 20
2.6598
 10
1.2861
 20
2.6598
 10
1.2819
 20
2.6515
 10
1.2819
 20
2.6432
 10
1.2861
 20
2.6348
 10
1.3111
 20
2.6348
 10
1.3152
 20
2.6265
 10
1.3152
 20
2.6181
 10
1.3111
 20
2.6098
 10
1.2861
 20
2.6098
 10
1.2819
 20
2.6181
 10
1.2819
 20
2.6265
 10
1.2861
 20
2.6348
  0
LWPOLYLINE
  5
579
330
12
100
AcDbEntity
  8
4WAYDRIVER1_SST
  6
BYLAYER
370
   211
 62
   256
100
AcDbPolyline
 90
    13
 70
     0
 43
0.008
 10
1.2409
 20
2.6098
 10
1.2326
 20
2.6181
 10
1.2284
 20
2.6265
 10
1.2284
 20
2.6432
 10
1.2326
 20
2.6515
 10
1.2409
 20
2.6598
 10
1.2492
 20
2.6598
 10
1.2576
 20
2.6515
 10
1.2617
 20
2.6432
 10
1.2617
 20
2.6265
 10
1.2576
 20
2.6181
 10
1.2492
 20
2.6098
 10
1.2409
 20
2.6098
  0
LWPOLYLINE
  5
57A
330
12
100
AcDbEntity
  8
4WAYDRIVER1_SST
  6
BYLAYER
370
   211
 62
   256
100
AcDbPolyline
 90
     3
 70
     0
 43
0.008
 10
1.1832
 20
2.6098
 10
1.2082
 20
2.6598
 10
1.1749
 20
2.6598
  0
LWPOLYLINE
  5
57B
330
12
100
AcDbEntity
  8
4WAYDRIVER1_SST
  6
BYLAYER
370
   211
 62
   256
100
AcDbPolyline
 90
     2
 70
     0
 43
0.008
 10
1.0533
 20
2.6098
 10
1.0533
 20
2.6598
  0
LWPOLYLINE
  5
57C
330
12
100
AcDbEntity
  8
4WAYDRIVER1_SST
  6
BYLAYER
370
   211
 62
   256
100
AcDbPolyline
 90
     5
 70
     0
 43
0.008
 10
1.0491
 20
2.6098
 10
1.0741
 20
2.6098
 10
1.0825
 20
2.6181
 10
1.0825
 20
2.6265
 10
1.0783
 20
2.6348
  0
LWPOLYLINE
  5
57D
330
12
100
AcDbEntity
  8
4WAYDRIVER1_SST
  6
BYLAYER
370
   211
 62
   256
100
AcDbPolyline
 90
     6
 70
     0
 43
0.008
 10
1.0533
 20
2.6348
 10
1.0783
 20
2.6348
 10
1.0825
 20
2.6432
 10
1.0825
 20
2.6515
 10
1.0741
 20
2.6598
 10
1.0492
 20
2.6598
  0
LWPOLYLINE
  5
57E
330
12
100
AcDbEntity
  8
4WAYDRIVER1_SST
  6
BYLAYER
370
   211
 62
   256
100
AcDbPolyline
 90
     4
 70
     0
 43
0.008
 10
1.029
 20
2.6181
 10
1.0248
 20
2.6098
 10
0.9998
 20
2.6098
 10
0.9957
 20
2.6181
  0
LWPOLYLINE
  5
57F
330
12
100
AcDbEntity
  8
4WAYDRIVER1_SST
  6
BYLAYER
370
   211
 62
   256
100
AcDbPolyline
 90
     2
 70
     0
 43
0.008
 10
0.9956
 20
2.6181
 10
0.9957
 20
2.6515
  0
LWPOLYLINE
  5
580
330
12
100
AcDbEntity
  8
4WAYDRIVER1_SST
  6
BYLAYER
370
   211
 62
   256
100
AcDbPolyline
 90
     4
 70
     0
 43
0.008
 10
0.9956
 20
2.6515
 10
0.9998
 20
2.6598
 10
1.0248
 20
2.6598
 10
1.029
 20
2.6515
  0
LWPOLYLINE
  5
581
330
12
100
AcDbEntity
  8
4WAYDRIVER1_SST
  6
BYLAYER
370
   211
 62
   256
100
AcDbPolyline
 90
     6
 70
     0
 43
0.008
 10
0.9421
 20
2.6348
 10
0.9671
 20
2.6348
 10
0.9755
 20
2.6432
 10
0.9755
 20
2.6515
 10
0.9671
 20
2.6598
 10
0.9422
 20
2.6598
  0
LWPOLYLINE
  5
582
330
12
100
AcDbEntity
  8
4WAYDRIVER1_SST
  6
BYLAYER
370
   211
 62
   256
100
AcDbPolyline
 90
     2
 70
     0
 43
0.008
 10
0.9421
 20
2.6598
 10
0.9422
 20
2.6098
  0
LWPOLYLINE
  5
583
330
12
100
AcDbEntity
  8
4WAYDRIVER1_SST
  6
BYLAYER
370
   211
 62
   256
100
AcDbPolyline
 90
     5
 70
     0
 43
0.008
 10
2.5908
 20
0.0955
 10
2.5575
 20
0.0955
 10
2.5741
 20
0.1288
 10
2.5825
 20
0.1288
 10
2.5825
 20
0.0788
  0
LWPOLYLINE
  5
584
330
12
100
AcDbEntity
  8
4WAYDRIVER1_SST
  6
BYLAYER
370
   211
 62
   256
100
AcDbPolyline
 90
     2
 70
     0
 43
0.008
 10
2.5081
 20
0.0955
 10
2.5082
 20
0.0871
  0
LWPOLYLINE
  5
585
330
12
100
AcDbEntity
  8
4WAYDRIVER1_SST
  6
BYLAYER
370
   211
 62
   256
100
AcDbPolyline
 90
     5
 70
     0
 43
0.008
 10
2.5081
 20
0.0871
 10
2.5123
 20
0.0788
 10
2.529
 20
0.0788
 10
2.5331
 20
0.0871
 10
2.5331
 20
0.1288
  0
LWPOLYLINE
  5
586
330
12
100
AcDbEntity
  8
4WAYDRIVER1_SST
  6
BYLAYER
370
   211
 62
   256
100
AcDbPolyline
 90
     2
 70
     0
 43
0.008
 10
2.5373
 20
0.1288
 10
2.5207
 20
0.1288
  0
LWPOLYLINE
  5
587
330
12
100
AcDbEntity
  8
4WAYDRIVER1_SST
  6
BYLAYER
370
   211
 62
   256
100
AcDbPolyline
 90
     8
 70
     0
 43
0.008
 10
1.9615
 20
0.1051
 10
1.9698
 20
0.0968
 10
1.9865
 20
0.0968
 10
1.9948
 20
0.1051
 10
1.9948
 20
0.1135
 10
1.9781
 20
0.1302
 10
1.9948
 20
0.1468
 10
1.9615
 20
0.1468
  0
LWPOLYLINE
  5
588
330
12
100
AcDbEntity
  8
4WAYDRIVER1_SST
  6
BYLAYER
370
   211
 62
   256
100
AcDbPolyline
 90
     2
 70
     0
 43
0.008
 10
1.9121
 20
0.1135
 10
1.9122
 20
0.1051
  0
LWPOLYLINE
  5
589
330
12
100
AcDbEntity
  8
4WAYDRIVER1_SST
  6
BYLAYER
370
   211
 62
   256
100
AcDbPolyline
 90
     5
 70
     0
 43
0.008
 10
1.9121
 20
0.1051
 10
1.9163
 20
0.0968
 10
1.933
 20
0.0968
 10
1.9371
 20
0.1051
 10
1.9371
 20
0.1468
  0
LWPOLYLINE
  5
58A
330
12
100
AcDbEntity
  8
4WAYDRIVER1_SST
  6
BYLAYER
370
   211
 62
   256
100
AcDbPolyline
 90
     2
 70
     0
 43
0.008
 10
1.9413
 20
0.1468
 10
1.9247
 20
0.1468
  0
LWPOLYLINE
  5
58B
330
12
100
AcDbEntity
  8
4WAYDRIVER1_SST
  6
BYLAYER
370
   211
 62
   256
100
AcDbPolyline
 90
     7
 70
     0
 43
0.008
 10
1.4018
 20
0.0828
 10
1.3685
 20
0.0828
 10
1.4018
 20
0.1162
 10
1.4018
 20
0.1245
 10
1.3976
 20
0.1328
 10
1.3726
 20
0.1328
 10
1.3685
 20
0.1245
  0
LWPOLYLINE
  5
58C
330
12
100
AcDbEntity
  8
4WAYDRIVER1_SST
  6
BYLAYER
370
   211
 62
   256
100
AcDbPolyline
 90
     2
 70
     0
 43
0.008
 10
1.3191
 20
0.0995
 10
1.3192
 20
0.0911
  0
LWPOLYLINE
  5
58D
330
12
100
AcDbEntity
  8
4WAYDRIVER1_SST
  6
BYLAYER
370
   211
 62
   256
100
AcDbPolyline
 90
     5
 70
     0
 43
0.008
 10
1.3191
 20
0.0911
 10
1.3233
 20
0.0828
 10
1.34
 20
0.0828
 10
1.3441
 20
0.0911
 10
1.3441
 20
0.1328
  0
LWPOLYLINE
  5
58E
330
12
100
AcDbEntity
  8
4WAYDRIVER1_SST
  6
BYLAYER
370
   211
 62
   256
100
AcDbPolyline
 90
     2
 70
     0
 43
0.008
 10
1.3483
 20
0.1328
 10
1.3317
 20
0.1328
  0
LWPOLYLINE
  5
58F
330
12
100
AcDbEntity
  8
4WAYDRIVER1_SST
  6
BYLAYER
370
   211
 62
   256
100
AcDbPolyline
 90
     2
 70
     0
 43
0.008
 10
0.7845
 20
0.0928
 10
0.7678
 20
0.0928
  0
LWPOLYLINE
  5
590
330
12
100
AcDbEntity
  8
4WAYDRIVER1_SST
  6
BYLAYER
370
   211
 62
   256
100
AcDbPolyline
 90
     3
 70
     0
 43
0.008
 10
0.7761
 20
0.0928
 10
0.7761
 20
0.1428
 10
0.7678
 20
0.1345
  0
LWPOLYLINE
  5
591
330
12
100
AcDbEntity
  8
4WAYDRIVER1_SST
  6
BYLAYER
370
   211
 62
   256
100
AcDbPolyline
 90
     2
 70
     0
 43
0.008
 10
0.7101
 20
0.1095
 10
0.7102
 20
0.1011
  0
LWPOLYLINE
  5
592
330
12
100
AcDbEntity
  8
4WAYDRIVER1_SST
  6
BYLAYER
370
   211
 62
   256
100
AcDbPolyline
 90
     5
 70
     0
 43
0.008
 10
0.7101
 20
0.1011
 10
0.7143
 20
0.0928
 10
0.731
 20
0.0928
 10
0.7351
 20
0.1011
 10
0.7351
 20
0.1428
  0
LWPOLYLINE
  5
593
330
12
100
AcDbEntity
  8
4WAYDRIVER1_SST
  6
BYLAYER
370
   211
 62
   256
100
AcDbPolyline
 90
     2
 70
     0
 43
0.008
 10
0.7393
 20
0.1428
 10
0.7227
 20
0.1428
  0
LWPOLYLINE
  5
594
330
12
100
AcDbEntity
  8
4WAYDRIVER1_SST
  6
BYLAYER
370
   211
 62
   256
100
AcDbPolyline
 90
     2
 70
     0
 43
0.008
 10
0.4897
 20
2.2302
 10
0.4647
 20
2.2302
  0
LWPOLYLINE
  5
595
330
12
100
AcDbEntity
  8
4WAYDRIVER1_SST
  6
BYLAYER
370
   211
 62
   256
100
AcDbPolyline
 90
     4
 70
     0
 43
0.008
 10
0.4939
 20
2.1968
 10
0.4772
 20
2.1968
 10
0.4731
 20
2.2051
 10
0.4731
 20
2.2468
  0
LWPOLYLINE
  5
596
330
12
100
AcDbEntity
  8
4WAYDRIVER1_SST
  6
BYLAYER
370
   211
 62
   256
100
AcDbPolyline
 90
     2
 70
     0
 43
0.008
 10
0.4404
 20
2.2302
 10
0.4404
 20
2.1968
  0
LWPOLYLINE
  5
597
330
12
100
AcDbEntity
  8
4WAYDRIVER1_SST
  6
BYLAYER
370
   211
 62
   256
100
AcDbPolyline
 90
     4
 70
     0
 43
0.008
 10
0.4446
 20
2.1968
 10
0.4154
 20
2.1968
 10
0.4112
 20
2.2051
 10
0.4112
 20
2.2302
  0
LWPOLYLINE
  5
598
330
12
100
AcDbEntity
  8
4WAYDRIVER1_SST
  6
BYLAYER
370
   211
 62
   256
100
AcDbPolyline
 90
     4
 70
     0
 43
0.008
 10
0.3619
 20
2.1801
 10
0.3619
 20
2.2302
 10
0.3869
 20
2.2302
 10
0.3911
 20
2.2218
  0
LWPOLYLINE
  5
599
330
12
100
AcDbEntity
  8
4WAYDRIVER1_SST
  6
BYLAYER
370
   211
 62
   256
100
AcDbPolyline
 90
     2
 70
     0
 43
0.008
 10
0.391
 20
2.2218
 10
0.3911
 20
2.2051
  0
LWPOLYLINE
  5
59A
330
12
100
AcDbEntity
  8
4WAYDRIVER1_SST
  6
BYLAYER
370
   211
 62
   256
100
AcDbPolyline
 90
     3
 70
     0
 43
0.008
 10
0.391
 20
2.2051
 10
0.3869
 20
2.1968
 10
0.3619
 20
2.1968
  0
LWPOLYLINE
  5
59B
330
12
100
AcDbEntity
  8
4WAYDRIVER1_SST
  6
BYLAYER
370
   211
 62
   256
100
AcDbPolyline
 90
     4
 70
     0
 43
0.008
 10
0.3417
 20
2.1968
 10
0.3417
 20
2.2218
 10
0.3375
 20
2.2302
 10
0.3126
 20
2.2302
  0
LWPOLYLINE
  5
59C
330
12
100
AcDbEntity
  8
4WAYDRIVER1_SST
  6
BYLAYER
370
   211
 62
   256
100
AcDbPolyline
 90
     2
 70
     0
 43
0.008
 10
0.3125
 20
2.2302
 10
0.3126
 20
2.1968
  0
LWPOLYLINE
  5
59D
330
12
100
AcDbEntity
  8
4WAYDRIVER1_SST
  6
BYLAYER
370
   211
 62
   256
100
AcDbPolyline
 90
     2
 70
     0
 43
0.008
 10
0.2924
 20
2.1968
 10
0.2757
 20
2.1968
  0
LWPOLYLINE
  5
59E
330
12
100
AcDbEntity
  8
4WAYDRIVER1_SST
  6
BYLAYER
370
   211
 62
   256
100
AcDbPolyline
 90
     2
 70
     0
 43
0.008
 10
0.2841
 20
2.1968
 10
0.2841
 20
2.2468
  0
LWPOLYLINE
  5
59F
330
12
100
AcDbEntity
  8
4WAYDRIVER1_SST
  6
BYLAYER
370
   211
 62
   256
100
AcDbPolyline
 90
     2
 70
     0
 43
0.008
 10
0.2924
 20
2.2468
 10
0.2757
 20
2.2468
  0
LWPOLYLINE
  5
5A0
330
12
100
AcDbEntity
  8
4WAYDRIVER1_SST
  6
BYLAYER
370
   211
 62
   256
100
AcDbPolyline
 90
     2
 70
     0
 43
0.008
 10
0.1666
 20
2.2218
 10
0.1417
 20
2.2218
  0
LWPOLYLINE
  5
5A1
330
12
100
AcDbEntity
  8
4WAYDRIVER1_SST
  6
BYLAYER
370
   211
 62
   256
100
AcDbPolyline
 90
     2
 70
     0
 43
0.008
 10
0.1416
 20
2.1968
 10
0.1417
 20
2.2468
  0
LWPOLYLINE
  5
5A2
330
12
100
AcDbEntity
  8
4WAYDRIVER1_SST
  6
BYLAYER
370
   211
 62
   256
100
AcDbPolyline
 90
     2
 70
     0
 43
0.008
 10
0.1416
 20
2.2468
 10
0.175
 20
2.2468
  0
LWPOLYLINE
  5
5A3
330
12
100
AcDbEntity
  8
4WAYDRIVER1_SST
  6
BYLAYER
370
   211
 62
   256
100
AcDbPolyline
 90
     2
 70
     0
 43
0.008
 10
0.109
 20
2.2218
 10
0.1215
 20
2.1968
  0
LWPOLYLINE
  5
5A4
330
12
100
AcDbEntity
  8
4WAYDRIVER1_SST
  6
BYLAYER
370
   211
 62
   256
100
AcDbPolyline
 90
     6
 70
     0
 43
0.008
 10
0.0881
 20
2.2218
 10
0.1131
 20
2.2218
 10
0.1215
 20
2.2302
 10
0.1215
 20
2.2385
 10
0.1131
 20
2.2468
 10
0.0882
 20
2.2468
  0
LWPOLYLINE
  5
5A5
330
12
100
AcDbEntity
  8
4WAYDRIVER1_SST
  6
BYLAYER
370
   211
 62
   256
100
AcDbPolyline
 90
     2
 70
     0
 43
0.008
 10
0.0881
 20
2.2468
 10
0.0882
 20
2.1968
  0
LWPOLYLINE
  5
5A6
330
12
100
AcDbEntity
  8
4WAYDRIVER1_SST
  6
BYLAYER
370
   211
 62
   256
100
AcDbPolyline
 90
     8
 70
     0
 43
0.008
 10
1.8036
 20
2.0851
 10
1.812
 20
2.0768
 10
1.8286
 20
2.0768
 10
1.837
 20
2.0851
 10
1.837
 20
2.0935
 10
1.8203
 20
2.1102
 10
1.837
 20
2.1268
 10
1.8037
 20
2.1268
  0
LWPOLYLINE
  5
5A7
330
12
100
AcDbEntity
  8
4WAYDRIVER1_SST
  6
BYLAYER
370
   211
 62
   256
100
AcDbPolyline
 90
     2
 70
     0
 43
0.008
 10
1.771
 20
2.1018
 10
1.7835
 20
2.0768
  0
LWPOLYLINE
  5
5A8
330
12
100
AcDbEntity
  8
4WAYDRIVER1_SST
  6
BYLAYER
370
   211
 62
   256
100
AcDbPolyline
 90
     6
 70
     0
 43
0.008
 10
1.7501
 20
2.1018
 10
1.7751
 20
2.1018
 10
1.7835
 20
2.1102
 10
1.7835
 20
2.1185
 10
1.7751
 20
2.1268
 10
1.7502
 20
2.1268
  0
LWPOLYLINE
  5
5A9
330
12
100
AcDbEntity
  8
4WAYDRIVER1_SST
  6
BYLAYER
370
   211
 62
   256
100
AcDbPolyline
 90
     2
 70
     0
 43
0.008
 10
1.7501
 20
2.1268
 10
1.7502
 20
2.0768
  0
LWPOLYLINE
  5
5AA
330
12
100
AcDbEntity
  8
4WAYDRIVER1_SST
  6
BYLAYER
370
   211
 62
   256
100
AcDbPolyline
 90
     2
 70
     0
 43
0.008
 10
2.327
 20
0.7778
 10
2.2937
 20
0.7778
  0
LWPOLYLINE
  5
5AB
330
12
100
AcDbEntity
  8
4WAYDRIVER1_SST
  6
BYLAYER
370
   211
 62
   256
100
AcDbPolyline
 90
     6
 70
     0
 43
0.008
 10
2.2936
 20
0.7778
 10
2.327
 20
0.8112
 10
2.327
 20
0.8195
 10
2.3228
 20
0.8278
 10
2.2978
 20
0.8278
 10
2.2937
 20
0.8195
  0
LWPOLYLINE
  5
5AC
330
12
100
AcDbEntity
  8
4WAYDRIVER1_SST
  6
BYLAYER
370
   211
 62
   256
100
AcDbPolyline
 90
     2
 70
     0
 43
0.008
 10
2.261
 20
0.8028
 10
2.2735
 20
0.7778
  0
LWPOLYLINE
  5
5AD
330
12
100
AcDbEntity
  8
4WAYDRIVER1_SST
  6
BYLAYER
370
   211
 62
   256
100
AcDbPolyline
 90
     6
 70
     0
 43
0.008
 10
2.2401
 20
0.8028
 10
2.2651
 20
0.8028
 10
2.2735
 20
0.8112
 10
2.2735
 20
0.8195
 10
2.2651
 20
0.8278
 10
2.2402
 20
0.8278
  0
LWPOLYLINE
  5
5AE
330
12
100
AcDbEntity
  8
4WAYDRIVER1_SST
  6
BYLAYER
370
   211
 62
   256
100
AcDbPolyline
 90
     2
 70
     0
 43
0.008
 10
2.2401
 20
0.8278
 10
2.2402
 20
0.7778
  0
LWPOLYLINE
  5
5AF
330
12
100
AcDbEntity
  8
4WAYDRIVER1_SST
  6
BYLAYER
370
   211
 62
   256
100
AcDbPolyline
 90
     2
 70
     0
 43
0.008
 10
1.1296
 20
0.7768
 10
1.113
 20
0.7768
  0
LWPOLYLINE
  5
5B0
330
12
100
AcDbEntity
  8
4WAYDRIVER1_SST
  6
BYLAYER
370
   211
 62
   256
100
AcDbPolyline
 90
     3
 70
     0
 43
0.008
 10
1.1213
 20
0.7768
 10
1.1213
 20
0.8268
 10
1.113
 20
0.8185
  0
LWPOLYLINE
  5
5B1
330
12
100
AcDbEntity
  8
4WAYDRIVER1_SST
  6
BYLAYER
370
   211
 62
   256
100
AcDbPolyline
 90
     2
 70
     0
 43
0.008
 10
1.072
 20
0.8018
 10
1.0845
 20
0.7768
  0
LWPOLYLINE
  5
5B2
330
12
100
AcDbEntity
  8
4WAYDRIVER1_SST
  6
BYLAYER
370
   211
 62
   256
100
AcDbPolyline
 90
     6
 70
     0
 43
0.008
 10
1.0511
 20
0.8018
 10
1.0761
 20
0.8018
 10
1.0845
 20
0.8102
 10
1.0845
 20
0.8185
 10
1.0761
 20
0.8268
 10
1.0512
 20
0.8268
  0
LWPOLYLINE
  5
5B3
330
12
100
AcDbEntity
  8
4WAYDRIVER1_SST
  6
BYLAYER
370
   211
 62
   256
100
AcDbPolyline
 90
     2
 70
     0
 43
0.008
 10
1.0511
 20
0.8268
 10
1.0512
 20
0.7768
  0
ENDSEC
  0
SECTION
  2
OBJECTS
  0
DICTIONARY
  5
19
102
{ACAD_REACTORS
330
0
102
}
330
0
100
AcDbDictionary
280
     1
281
     0
  3
ACAD_GROUP
350
1A
  3
ACAD_LAYOUT
350
1B
  3
ACAD_MLINESTYLE
350
1E
  0
DICTIONARY
  5
1A
102
{ACAD_REACTORS
330
19
102
}
330
19
100
AcDbDictionary
280
     1
281
     0
  0
DICTIONARY
  5
1B
102
{ACAD_REACTORS
330
19
102
}
330
19
100
AcDbDictionary
280
     1
281
     0
  3
Model
350
1C
  3
Layout1
350
1D
  0
LAYOUT
  5
1C
102
{ACAD_REACTORS
330
1B
102
}
330
1B
100
AcDbPlotSettings
  1

  2
none_device
  4
ISO_A4_(210.00_x_297.00_MM)
 40
0.0
 41
0.0
 42
0.0
 43
0.0
 44
210.0
 45
297.0
 46
0.0
 47
0.0
 48
0.0
 49
0.0
140
0.0
141
0.0
141
1.0
143
1.0
 72
     1
 73
     0
 74
     5
  7

 75
    16
147
1.0
 76
     0
 77
     2
148
0.0
149
0.0
100
AcDbLayout
  1
Model
 70
     1
 71
     0
 10
-0.807
 20
-1.3352
 11
5.0874
 21
3.1535
 12
0.0
 22
0.0
 32
0.0
 14
-0.807
 24
-1.3352
 34
0.0
 15
5.0874
 25
3.1535
 35
0.0
146
0.0
 13
0.0
 23
0.0
 33
0.0
 16
1.0
 26
0.0
 36
0.0
 17
0.0
 27
1.0
 37
0.0
 76
     0
330
12
  0
LAYOUT
  5
1D
102
{ACAD_REACTORS
330
1B
102
}
330
1B
100
AcDbPlotSettings
  1

  2
none_device
  4

 40
0.0
 41
0.0
 42
0.0
 43
0.0
 44
0.0
 45
0.0
 46
0.0
 47
0.0
 48
0.0
 49
0.0
140
0.0
141
0.0
141
1.0
143
1.0
 72
     1
 73
     0
 74
     5
  7

 75
    16
147
1.0
 76
     0
 77
     2
148
0.0
149
0.0
100
AcDbLayout
  1
Layout1
 70
     1
 71
     1
 10
100000000000000000000.0
 20
100000000000000000000.0
 11
-100000000000000000000.0
 21
-100000000000000000000.0
 12
0.0
 22
0.0
 32
0.0
 14
100000000000000000000.0
 24
100000000000000000000.0
 34
0.0
 15
-100000000000000000000.0
 25
-100000000000000000000.0
 35
0.0
146
0.0
 13
0.0
 23
0.0
 33
0.0
 16
1.0
 26
0.0
 36
0.0
 17
0.0
 27
1.0
 37
0.0
 76
     0
330
13
  0
DICTIONARY
  5
1E
102
{ACAD_REACTORS
330
19
102
}
330
19
100
AcDbDictionary
280
     1
281
     0
  0
ENDSEC
  0
EOF
