  0
SECTION
  2
HEADER
  9
$ACADVER
  1
AC1018
  9
$ACADMAINTVER
 70
     0
  9
$DWGCODEPAGE
  3
ANSI_1252
  9
$COMMENTS
  1
File was created by Mastercam 2017
  9
$INSBASE
 10
0.0
 20
0.0
 30
0.0
  9
$EXTMIN
 10
-4.537730363440067
 20
-1.945
 30
0.0
  9
$EXTMAX
 10
3.799799999999999
 20
2.391278668575255
 30
0.0
  9
$LIMMIN
 10
0.0
 20
0.0
  9
$LIMMAX
 10
12.0
 20
9.0
  9
$ORTHOMODE
 70
     0
  9
$REGENMODE
 70
     1
  9
$FILLMODE
 70
     1
  9
$QTEXTMODE
 70
     0
  9
$MIRRTEXT
 70
     1
  9
$LTSCALE
 40
1.0
  9
$ATTMODE
 70
     1
  9
$TEXTSIZE
 40
0.2
  9
$TRACEWID
 40
0.05
  9
$TEXTSTYLE
  7
Standard
  9
$CLAYER
  8
0
  9
$CELTYPE
  6
ByLayer
  9
$CECOLOR
 62
   256
  9
$CELTSCALE
 40
1.0
  9
$DISPSILH
 70
     0
  9
$DIMSCALE
 40
1.0
  9
$DIMASZ
 40
0.18
  9
$DIMEXO
 40
0.0625
  9
$DIMDLI
 40
0.38
  9
$DIMRND
 40
0.0
  9
$DIMDLE
 40
0.0
  9
$DIMEXE
 40
0.18
  9
$DIMTP
 40
0.0
  9
$DIMTM
 40
0.0
  9
$DIMTXT
 40
0.18
  9
$DIMCEN
 40
0.09
  9
$DIMTSZ
 40
0.0
  9
$DIMTOL
 70
     0
  9
$DIMLIM
 70
     0
  9
$DIMTIH
 70
     1
  9
$DIMTOH
 70
     1
  9
$DIMSE1
 70
     0
  9
$DIMSE2
 70
     0
  9
$DIMTAD
 70
     0
  9
$DIMZIN
 70
     0
  9
$DIMBLK
  1

  9
$DIMASO
 70
     1
  9
$DIMSHO
 70
     1
  9
$DIMPOST
  1

  9
$DIMAPOST
  1

  9
$DIMALT
 70
     0
  9
$DIMALTD
 70
     2
  9
$DIMALTF
 40
25.4
  9
$DIMLFAC
 40
1.0
  9
$DIMTOFL
 70
     0
  9
$DIMTVP
 40
0.0
  9
$DIMTIX
 70
     0
  9
$DIMSOXD
 70
     0
  9
$DIMSAH
 70
     0
  9
$DIMBLK1
  1

  9
$DIMBLK2
  1

  9
$DIMSTYLE
  2
Standard
  9
$DIMCLRD
 70
     0
  9
$DIMCLRE
 70
     0
  9
$DIMCLRT
 70
     0
  9
$DIMTFAC
 40
1.0
  9
$DIMGAP
 40
0.09
  9
$DIMJUST
 70
     0
  9
$DIMSD1
 70
     0
  9
$DIMSD2
 70
     0
  9
$DIMTOLJ
 70
     1
  9
$DIMTZIN
 70
     0
  9
$DIMALTZ
 70
     0
  9
$DIMALTTZ
 70
     0
  9
$DIMUPT
 70
     0
  9
$DIMDEC
 70
     4
  9
$DIMTDEC
 70
     4
  9
$DIMALTU
 70
     2
  9
$DIMALTTD
 70
     2
  9
$DIMTXSTY
  7
Standard
  9
$DIMAUNIT
 70
     0
  9
$DIMADEC
 70
     0
  9
$DIMALTRND
 40
0.0
  9
$DIMAZIN
 70
     0
  9
$DIMDSEP
 70
    46
  9
$DIMATFIT
 70
     3
  9
$DIMFRAC
 70
     0
  9
$DIMLDRBLK
  1

  9
$DIMLUNIT
 70
     2
  9
$DIMLWD
 70
    -2
  9
$DIMLWE
 70
    -2
  9
$DIMTMOVE
 70
     0
  9
$LUNITS
 70
     2
  9
$LUPREC
 70
     4
  9
$SKETCHINC
 40
0.1
  9
$FILLETRAD
 40
0.5
  9
$AUNITS
 70
     0
  9
$AUPREC
 70
     0
  9
$MENU
  1
.
  9
$ELEVATION
 40
0.0
  9
$PELEVATION
 40
0.0
  9
$THICKNESS
 40
0.0
  9
$LIMCHECK
 70
     0
  9
$CHAMFERA
 40
0.0
  9
$CHAMFERB
 40
0.0
  9
$CHAMFERC
 40
0.0
  9
$CHAMFERD
 40
0.0
  9
$SKPOLY
 70
     0
  9
$TDCREATE
 40
2453737.5
  9
$TDUCREATE
 40
2453737.666666667
  9
$TDUPDATE
 40
2458744.726877847
  9
$TDUUPDATE
 40
2458744.893544514
  9
$TDINDWG
 40
0.0000000116
  9
$TDUSRTIMER
 40
0.0000000116
  9
$USRTIMER
 70
     1
  9
$ANGBASE
 50
0.0
  9
$ANGDIR
 70
     0
  9
$PDMODE
 70
     2
  9
$PDSIZE
 40
0.1
  9
$PLINEWID
 40
0.0
  9
$SPLFRAME
 70
     0
  9
$SPLINETYPE
 70
     6
  9
$SPLINESEGS
 70
     8
  9
$HANDSEED
  5
363
  9
$SURFTAB1
 70
     6
  9
$SURFTAB2
 70
     6
  9
$SURFTYPE
 70
     6
  9
$SURFU
 70
     6
  9
$SURFV
 70
     6
  9
$UCSBASE
  2

  9
$UCSNAME
  2

  9
$UCSORG
 10
0.0
 20
0.0
 30
0.0
  9
$UCSXDIR
 10
1.0
 20
0.0
 30
0.0
  9
$UCSYDIR
 10
0.0
 20
1.0
 30
0.0
  9
$UCSORTHOREF
  2

  9
$UCSORTHOVIEW
 70
     0
  9
$UCSORGTOP
 10
0.0
 20
0.0
 30
0.0
  9
$UCSORGBOTTOM
 10
0.0
 20
0.0
 30
0.0
  9
$UCSORGLEFT
 10
0.0
 20
0.0
 30
0.0
  9
$UCSORGRIGHT
 10
0.0
 20
0.0
 30
0.0
  9
$UCSORGFRONT
 10
0.0
 20
0.0
 30
0.0
  9
$UCSORGBACK
 10
0.0
 20
0.0
 30
0.0
  9
$PUCSBASE
  2

  9
$PUCSNAME
  2

  9
$PUCSORG
 10
0.0
 20
0.0
 30
0.0
  9
$PUCSXDIR
 10
1.0
 20
0.0
 30
0.0
  9
$PUCSYDIR
 10
0.0
 20
1.0
 30
0.0
  9
$PUCSORTHOREF
  2

  9
$PUCSORTHOVIEW
 70
     0
  9
$PUCSORGTOP
 10
0.0
 20
0.0
 30
0.0
  9
$PUCSORGBOTTOM
 10
0.0
 20
0.0
 30
0.0
  9
$PUCSORGLEFT
 10
0.0
 20
0.0
 30
0.0
  9
$PUCSORGRIGHT
 10
0.0
 20
0.0
 30
0.0
  9
$PUCSORGFRONT
 10
0.0
 20
0.0
 30
0.0
  9
$PUCSORGBACK
 10
0.0
 20
0.0
 30
0.0
  9
$USERI1
 70
     0
  9
$USERI2
 70
     0
  9
$USERI3
 70
     0
  9
$USERI4
 70
     0
  9
$USERI5
 70
     0
  9
$USERR1
 40
0.0
  9
$USERR2
 40
0.0
  9
$USERR3
 40
0.0
  9
$USERR4
 40
0.0
  9
$USERR5
 40
0.0
  9
$WORLDVIEW
 70
     1
  9
$SHADEDGE
 70
     3
  9
$SHADEDIF
 70
    70
  9
$TILEMODE
 70
     1
  9
$MAXACTVP
 70
    64
  9
$PINSBASE
 10
0.0
 20
0.0
 30
0.0
  9
$PLIMCHECK
 70
     0
  9
$PEXTMIN
 10
0.0
 20
0.0
 30
0.0
  9
$PEXTMAX
 10
0.0
 20
0.0
 30
0.0
  9
$PLIMMIN
 10
-0.25
 20
-0.25
  9
$PLIMMAX
 10
10.75
 20
8.25
  9
$UNITMODE
 70
     0
  9
$VISRETAIN
 70
     1
  9
$PLINEGEN
 70
     0
  9
$PSLTSCALE
 70
     1
  9
$TREEDEPTH
 70
  3020
  9
$CMLSTYLE
  2
Standard
  9
$CMLJUST
 70
     0
  9
$CMLSCALE
 40
1.0
  9
$PROXYGRAPHICS
 70
     1
  9
$MEASUREMENT
 70
     0
  9
$CELWEIGHT
370
    -1
  9
$ENDCAPS
280
     0
  9
$JOINSTYLE
280
     0
  9
$LWDISPLAY
290
     0
  9
$INSUNITS
 70
     1
  9
$HYPERLINKBASE
  1

  9
$STYLESHEET
  1

  9
$XEDIT
290
     1
  9
$CEPSNTYPE
380
     0
  9
$PSTYLEMODE
290
     1
  9
$FINGERPRINTGUID
  2
{193C518A-0DFD-492B-A52D-A6D29D6994A4}
  9
$VERSIONGUID
  2
{FAEB1C32-E019-11D5-929B-00C0DF256EC4}
  9
$EXTNAMES
290
     1
  9
$PSVPSCALE
 40
0.0
  9
$OLESTARTUP
290
     0
  9
$SORTENTS
280
   127
  9
$INDEXCTL
280
     0
  9
$HIDETEXT
280
     1
  9
$XCLIPFRAME
290
     0
  9
$HALOGAP
280
     0
  9
$OBSCOLOR
 70
   257
  9
$OBSLTYPE
280
     0
  9
$INTERSECTIONDISPLAY
280
     0
  9
$INTERSECTIONCOLOR
 70
   257
  9
$DIMASSOC
280
     2
  9
$PROJECTNAME
  1

  0
ENDSEC
  0
SECTION
  2
CLASSES
  0
CLASS
  1
ACDBDICTIONARYWDFLT
  2
AcDbDictionaryWithDefault
  3
ObjectDBX Classes
 90
        0
 91
        4
280
     0
281
     0
  0
CLASS
  1
VISUALSTYLE
  2
AcDbVisualStyle
  3
ObjectDBX Classes
 90
     4095
 91
        4
280
     0
281
     0
  0
CLASS
  1
MATERIAL
  2
AcDbMaterial
  3
ObjectDBX Classes
 90
     1153
 91
        4
280
     0
281
     0
  0
CLASS
  1
SCALE
  2
AcDbScale
  3
ObjectDBX Classes
 90
     1153
 91
        4
280
     0
281
     0
  0
CLASS
  1
TABLESTYLE
  2
AcDbTableStyle
  3
ObjectDBX Classes
 90
     4095
 91
        4
280
     0
281
     0
  0
CLASS
  1
MLEADERSTYLE
  2
AcDbMLeaderStyle
  3
ACDB_MLEADERSTYLE_CLASS
 90
     4095
 91
        4
280
     0
281
     0
  0
CLASS
  1
SUN
  2
AcDbSun
  3
SCENEOE
 90
     1153
 91
        4
280
     0
281
     0
  0
CLASS
  1
DICTIONARYVAR
  2
AcDbDictionaryVar
  3
ObjectDBX Classes
 90
        0
 91
        4
280
     0
281
     0
  0
CLASS
  1
CELLSTYLEMAP
  2
AcDbCellStyleMap
  3
ObjectDBX Classes
 90
     1152
 91
        4
280
     0
281
     0
  0
ENDSEC
  0
SECTION
  2
TABLES
  0
TABLE
  2
VPORT
  5
8
102
{ACAD_XDICTIONARY
360
31C
102
}
330
0
100
AcDbSymbolTable
 70
     1
  0
VPORT
  5
29
330
8
100
AcDbSymbolTableRecord
100
AcDbViewportTableRecord
  2
*Active
 70
     0
 10
0.0
 20
0.0
 11
1.0
 21
1.0
 12
10.42990654205607
 22
4.5
 13
0.0
 23
0.0
 14
0.5
 24
0.5
 15
0.5
 25
0.5
 16
0.0
 26
0.0
 36
1.0
 17
0.0
 27
0.0
 37
0.0
 40
9.0
 41
1.972972972850329
 42
50.0
 43
0.0
 44
0.0
 50
0.0
 51
0.0
 71
     0
 72
   100
 73
     1
 74
     3
 75
     0
 76
     0
 77
     0
 78
     0
281
     0
 65
     1
110
0.0
120
0.0
130
0.0
111
1.0
121
0.0
131
0.0
112
0.0
122
1.0
132
0.0
 79
     0
146
0.0
  0
ENDTAB
  0
TABLE
  2
LTYPE
  5
5
330
0
100
AcDbSymbolTable
 70
     5
  0
LTYPE
  5
14
330
5
100
AcDbSymbolTableRecord
100
AcDbLinetypeTableRecord
  2
ByBlock
 70
     0
  3

 72
    65
 73
     0
 40
0.0
  0
LTYPE
  5
15
330
5
100
AcDbSymbolTableRecord
100
AcDbLinetypeTableRecord
  2
ByLayer
 70
     0
  3

 72
    65
 73
     0
 40
0.0
  0
LTYPE
  5
16
330
5
100
AcDbSymbolTableRecord
100
AcDbLinetypeTableRecord
  2
Continuous
 70
     0
  3
Solid line
 72
    65
 73
     0
 40
0.0
  0
LTYPE
  5
6F
330
5
100
AcDbSymbolTableRecord
100
AcDbLinetypeTableRecord
  2
Continuous2
 70
     0
  3
Solid Line
 72
    65
 73
     0
 40
0.0
  0
LTYPE
  5
70
330
5
100
AcDbSymbolTableRecord
100
AcDbLinetypeTableRecord
  2
DASHED
 70
     0
  3
__ __ __ __ __ __ __ __ __ __ __ __ __ __ __ __
 72
    83
 73
     2
 40
0.5
 49
0.375
 74
     0
 49
-0.125
 74
     0
  0
LTYPE
  5
71
330
5
100
AcDbSymbolTableRecord
100
AcDbLinetypeTableRecord
  2
CENTER
 70
     0
  3
____ _ ____ _ ____ _ ____ _ ____ _ ____ _ ____ _
 72
    83
 73
     4
 40
1.0
 49
0.625
 74
     0
 49
-0.125
 74
     0
 49
0.125
 74
     0
 49
-0.125
 74
     0
  0
LTYPE
  5
72
330
5
100
AcDbSymbolTableRecord
100
AcDbLinetypeTableRecord
  2
PHANTOM
 70
     0
  3
___ _ _ ___ _ _ ___ _ _ ___ _ _ ___ _ _ ___ _ _ 
 72
    83
 73
     6
 40
1.0
 49
0.5
 74
     0
 49
-0.1
 74
     0
 49
0.1
 74
     0
 49
-0.1
 74
     0
 49
0.1
 74
     0
 49
-0.1
 74
     0
  0
ENDTAB
  0
TABLE
  2
LAYER
  5
2
330
0
100
AcDbSymbolTable
 70
    18
  0
LAYER
  5
10
330
2
100
AcDbSymbolTableRecord
100
AcDbLayerTableRecord
  2
0
 70
     0
 62
     7
  6
Continuous
370
    -3
390
F
  0
LAYER
  5
73
330
2
100
AcDbSymbolTableRecord
100
AcDbLayerTableRecord
  2
10899_A_DRD
 70
     0
 62
     1
  6
Continuous
370
    -3
390
F
  0
LAYER
  5
74
330
2
100
AcDbSymbolTableRecord
100
AcDbLayerTableRecord
  2
10899_A_SMT
 70
     0
 62
     1
  6
Continuous
370
    -3
390
F
  0
LAYER
  5
75
330
2
100
AcDbSymbolTableRecord
100
AcDbLayerTableRecord
  2
898A1_AST
 70
     0
 62
     1
  6
Continuous
370
    -3
390
F
  0
LAYER
  5
76
330
2
100
AcDbSymbolTableRecord
100
AcDbLayerTableRecord
  2
898A1_DRD
 70
     0
 62
     1
  6
Continuous
370
    -3
390
F
  0
LAYER
  5
77
330
2
100
AcDbSymbolTableRecord
100
AcDbLayerTableRecord
  2
898A1_SMT
 70
     0
 62
     1
  6
Continuous
370
    -3
390
F
  0
LAYER
  5
78
330
2
100
AcDbSymbolTableRecord
100
AcDbLayerTableRecord
  2
Top_Copper
 70
     0
 62
     1
  6
Continuous
370
    -3
390
F
  0
LAYER
  5
79
330
2
100
AcDbSymbolTableRecord
100
AcDbLayerTableRecord
  2
Bottom_Copper
 70
     0
 62
     1
  6
Continuous
370
    -3
390
F
  0
LAYER
  5
7A
330
2
100
AcDbSymbolTableRecord
100
AcDbLayerTableRecord
  2
Top_Mask
 70
     0
 62
     1
  6
Continuous
370
    -3
390
F
  0
LAYER
  5
7B
330
2
100
AcDbSymbolTableRecord
100
AcDbLayerTableRecord
  2
Bottom_Mask
 70
     0
 62
     1
  6
Continuous
370
    -3
390
F
  0
LAYER
  5
7C
330
2
100
AcDbSymbolTableRecord
100
AcDbLayerTableRecord
  2
Top_Stencil
 70
     0
 62
     1
  6
Continuous
370
    -3
390
F
  0
LAYER
  5
7D
330
2
100
AcDbSymbolTableRecord
100
AcDbLayerTableRecord
  2
Bottom_Stencil
 70
     0
 62
     1
  6
Continuous
370
    -3
390
F
  0
LAYER
  5
7E
330
2
100
AcDbSymbolTableRecord
100
AcDbLayerTableRecord
  2
Layout_Lines
 70
     0
 62
     1
  6
Continuous
370
    -3
390
F
  0
LAYER
  5
7F
330
2
100
AcDbSymbolTableRecord
100
AcDbLayerTableRecord
  2
Board_Cutout
 70
     0
 62
     1
  6
Continuous
370
    -3
390
F
  0
LAYER
  5
80
330
2
100
AcDbSymbolTableRecord
100
AcDbLayerTableRecord
  2
Inside_Cutout
 70
     0
 62
     1
  6
Continuous
370
    -3
390
F
  0
LAYER
  5
81
330
2
100
AcDbSymbolTableRecord
100
AcDbLayerTableRecord
  2
Logo
 70
     0
 62
     1
  6
Continuous
370
    -3
390
F
  0
LAYER
  5
82
330
2
100
AcDbSymbolTableRecord
100
AcDbLayerTableRecord
  2
Parts
 70
     0
 62
     1
  6
Continuous
370
    -3
390
F
  0
LAYER
  5
83
330
2
100
AcDbSymbolTableRecord
100
AcDbLayerTableRecord
  2
Ratnest
 70
     0
 62
     1
  6
Continuous
370
    -3
390
F
  0
ENDTAB
  0
TABLE
  2
STYLE
  5
3
330
0
100
AcDbSymbolTable
 70
     2
  0
STYLE
  5
11
330
3
100
AcDbSymbolTableRecord
100
AcDbTextStyleTableRecord
  2
Standard
 70
     0
 40
0.0
 41
1.0
 50
0.0
 71
     0
 42
0.2
  3
txt
  4

  0
STYLE
  5
2B5
330
3
100
AcDbSymbolTableRecord
100
AcDbTextStyleTableRecord
  2
MCStick_A0.500000_S0.000000
 70
     0
 40
0.0
 41
0.5
 50
0.0
 71
     0
 42
0.2
  3
Simplex
  4

  0
ENDTAB
  0
TABLE
  2
VIEW
  5
6
330
0
100
AcDbSymbolTable
 70
     0
  0
ENDTAB
  0
TABLE
  2
UCS
  5
7
330
0
100
AcDbSymbolTable
 70
     0
  0
ENDTAB
  0
TABLE
  2
APPID
  5
9
330
0
100
AcDbSymbolTable
 70
     3
  0
APPID
  5
12
330
9
100
AcDbSymbolTableRecord
100
AcDbRegAppTableRecord
  2
ACAD
 70
     0
  0
APPID
  5
6E
330
9
100
AcDbSymbolTableRecord
100
AcDbRegAppTableRecord
  2
Mastercam 2017
 70
     0
  0
APPID
  5
35B
330
9
100
AcDbSymbolTableRecord
100
AcDbRegAppTableRecord
  2
ACAD_MLEADERVER
 70
     0
  0
ENDTAB
  0
TABLE
  2
DIMSTYLE
  5
A
330
0
100
AcDbSymbolTable
 70
     1
100
AcDbDimStyleTable
  0
DIMSTYLE
105
27
330
A
100
AcDbSymbolTableRecord
100
AcDbDimStyleTableRecord
  2
Standard
 70
     0
178
     0
340
11
  0
ENDTAB
  0
TABLE
  2
BLOCK_RECORD
  5
1
330
0
100
AcDbSymbolTable
 70
     1
  0
BLOCK_RECORD
  5
1F
330
1
100
AcDbSymbolTableRecord
100
AcDbBlockTableRecord
  2
*Model_Space
340
22
  0
BLOCK_RECORD
  5
23
330
1
100
AcDbSymbolTableRecord
100
AcDbBlockTableRecord
  2
*Paper_Space
340
26
  0
ENDTAB
  0
ENDSEC
  0
SECTION
  2
BLOCKS
  0
BLOCK
  5
20
330
1F
100
AcDbEntity
  8
0
100
AcDbBlockBegin
  2
*Model_Space
 70
     0
 10
0.0
 20
0.0
 30
0.0
  3
*Model_Space
  1

  0
ENDBLK
  5
21
330
1F
100
AcDbEntity
  8
0
100
AcDbBlockEnd
  0
BLOCK
  5
24
330
23
100
AcDbEntity
 67
     1
  8
0
100
AcDbBlockBegin
  2
*Paper_Space
 70
     0
 10
0.0
 20
0.0
 30
0.0
  3
*Paper_Space
  1

  0
ENDBLK
  5
25
330
23
100
AcDbEntity
 67
     1
  8
0
100
AcDbBlockEnd
  0
ENDSEC
  0
SECTION
  2
ENTITIES
  0
LINE
  5
84
330
1F
100
AcDbEntity
  8
10899_A_DRD
  6
Continuous2
 62
    98
420
    16384
370
   200
100
AcDbLine
 10
-3.799799999999999
 20
-1.945
 30
0.0
 11
-0.4597999999999995
 21
-1.945
 31
0.0
  0
LINE
  5
85
330
1F
100
AcDbEntity
  8
10899_A_DRD
  6
Continuous2
 62
    98
420
    16384
370
   200
100
AcDbLine
 10
-0.4597999999999995
 20
-1.945
 30
0.0
 11
-0.4597999999999995
 21
1.945
 31
0.0
  0
LINE
  5
86
330
1F
100
AcDbEntity
  8
10899_A_DRD
  6
Continuous2
 62
    98
420
    16384
370
   200
100
AcDbLine
 10
-0.4597999999999995
 20
1.945
 30
0.0
 11
-3.799799999999999
 21
1.945
 31
0.0
  0
LINE
  5
87
330
1F
100
AcDbEntity
  8
10899_A_DRD
  6
Continuous2
 62
    98
420
    16384
370
   200
100
AcDbLine
 10
-3.799799999999999
 20
1.945
 30
0.0
 11
-3.799799999999999
 21
-1.945
 31
0.0
  0
LINE
  5
88
330
1F
100
AcDbEntity
  8
10899_A_DRD
  6
Continuous2
 62
    98
420
    16384
370
   200
100
AcDbLine
 10
-3.324799999999999
 20
-1.52
 30
0.0
 11
-3.324799999999999
 21
-1.57
 31
0.0
  0
LINE
  5
89
330
1F
100
AcDbEntity
  8
10899_A_DRD
  6
Continuous2
 62
    98
420
    16384
370
   200
100
AcDbLine
 10
-3.274799999999999
 20
-1.52
 30
0.0
 11
-3.324799999999999
 21
-1.52
 31
0.0
  0
LINE
  5
8A
330
1F
100
AcDbEntity
  8
10899_A_DRD
  6
Continuous2
 62
    98
420
    16384
370
   200
100
AcDbLine
 10
-3.274799999999999
 20
-1.57
 30
0.0
 11
-3.274799999999999
 21
-1.52
 31
0.0
  0
LINE
  5
8B
330
1F
100
AcDbEntity
  8
10899_A_DRD
  6
Continuous2
 62
    98
420
    16384
370
   200
100
AcDbLine
 10
-3.324799999999999
 20
-1.57
 30
0.0
 11
-3.274799999999999
 21
-1.57
 31
0.0
  0
LINE
  5
8C
330
1F
100
AcDbEntity
  8
10899_A_DRD
  6
Continuous2
 62
    98
420
    16384
370
   200
100
AcDbLine
 10
-3.274799999999999
 20
-1.52
 30
0.0
 11
-3.324799999999999
 21
-1.57
 31
0.0
  0
LINE
  5
8D
330
1F
100
AcDbEntity
  8
10899_A_DRD
  6
Continuous2
 62
    98
420
    16384
370
   200
100
AcDbLine
 10
-3.274799999999999
 20
-1.57
 30
0.0
 11
-3.324799999999999
 21
-1.52
 31
0.0
  0
LINE
  5
8E
330
1F
100
AcDbEntity
  8
10899_A_DRD
  6
Continuous2
 62
    98
420
    16384
370
   200
100
AcDbLine
 10
-3.324799999999999
 20
1.57
 30
0.0
 11
-3.324799999999999
 21
1.52
 31
0.0
  0
LINE
  5
8F
330
1F
100
AcDbEntity
  8
10899_A_DRD
  6
Continuous2
 62
    98
420
    16384
370
   200
100
AcDbLine
 10
-3.274799999999999
 20
1.57
 30
0.0
 11
-3.324799999999999
 21
1.57
 31
0.0
  0
LINE
  5
90
330
1F
100
AcDbEntity
  8
10899_A_DRD
  6
Continuous2
 62
    98
420
    16384
370
   200
100
AcDbLine
 10
-3.274799999999999
 20
1.52
 30
0.0
 11
-3.274799999999999
 21
1.57
 31
0.0
  0
LINE
  5
91
330
1F
100
AcDbEntity
  8
10899_A_DRD
  6
Continuous2
 62
    98
420
    16384
370
   200
100
AcDbLine
 10
-3.324799999999999
 20
1.52
 30
0.0
 11
-3.274799999999999
 21
1.52
 31
0.0
  0
LINE
  5
92
330
1F
100
AcDbEntity
  8
10899_A_DRD
  6
Continuous2
 62
    98
420
    16384
370
   200
100
AcDbLine
 10
-3.274799999999999
 20
1.57
 30
0.0
 11
-3.324799999999999
 21
1.52
 31
0.0
  0
LINE
  5
93
330
1F
100
AcDbEntity
  8
10899_A_DRD
  6
Continuous2
 62
    98
420
    16384
370
   200
100
AcDbLine
 10
-3.274799999999999
 20
1.52
 30
0.0
 11
-3.324799999999999
 21
1.57
 31
0.0
  0
LINE
  5
94
330
1F
100
AcDbEntity
  8
10899_A_DRD
  6
Continuous2
 62
    98
420
    16384
370
   200
100
AcDbLine
 10
-1.683799999999999
 20
0.7750000000000001
 30
0.0
 11
-1.683799999999999
 21
0.7249999999999999
 31
0.0
  0
LINE
  5
95
330
1F
100
AcDbEntity
  8
10899_A_DRD
  6
Continuous2
 62
    98
420
    16384
370
   200
100
AcDbLine
 10
-1.633799999999999
 20
0.7750000000000001
 30
0.0
 11
-1.683799999999999
 21
0.7750000000000001
 31
0.0
  0
LINE
  5
96
330
1F
100
AcDbEntity
  8
10899_A_DRD
  6
Continuous2
 62
    98
420
    16384
370
   200
100
AcDbLine
 10
-1.633799999999999
 20
0.7249999999999999
 30
0.0
 11
-1.633799999999999
 21
0.7750000000000001
 31
0.0
  0
LINE
  5
97
330
1F
100
AcDbEntity
  8
10899_A_DRD
  6
Continuous2
 62
    98
420
    16384
370
   200
100
AcDbLine
 10
-1.683799999999999
 20
0.7249999999999999
 30
0.0
 11
-1.633799999999999
 21
0.7249999999999999
 31
0.0
  0
LINE
  5
98
330
1F
100
AcDbEntity
  8
10899_A_DRD
  6
Continuous2
 62
    98
420
    16384
370
   200
100
AcDbLine
 10
-1.633799999999999
 20
0.7750000000000001
 30
0.0
 11
-1.683799999999999
 21
0.7249999999999999
 31
0.0
  0
LINE
  5
99
330
1F
100
AcDbEntity
  8
10899_A_DRD
  6
Continuous2
 62
    98
420
    16384
370
   200
100
AcDbLine
 10
-1.633799999999999
 20
0.7249999999999999
 30
0.0
 11
-1.683799999999999
 21
0.7750000000000001
 31
0.0
  0
LINE
  5
9A
330
1F
100
AcDbEntity
  8
10899_A_DRD
  6
Continuous2
 62
    98
420
    16384
370
   200
100
AcDbLine
 10
-1.683799999999999
 20
-0.7250000000000001
 30
0.0
 11
-1.683799999999999
 21
-0.7750000000000001
 31
0.0
  0
LINE
  5
9B
330
1F
100
AcDbEntity
  8
10899_A_DRD
  6
Continuous2
 62
    98
420
    16384
370
   200
100
AcDbLine
 10
-1.633799999999999
 20
-0.7250000000000001
 30
0.0
 11
-1.683799999999999
 21
-0.7250000000000001
 31
0.0
  0
LINE
  5
9C
330
1F
100
AcDbEntity
  8
10899_A_DRD
  6
Continuous2
 62
    98
420
    16384
370
   200
100
AcDbLine
 10
-1.633799999999999
 20
-0.7750000000000001
 30
0.0
 11
-1.633799999999999
 21
-0.7250000000000001
 31
0.0
  0
LINE
  5
9D
330
1F
100
AcDbEntity
  8
10899_A_DRD
  6
Continuous2
 62
    98
420
    16384
370
   200
100
AcDbLine
 10
-1.683799999999999
 20
-0.7750000000000001
 30
0.0
 11
-1.633799999999999
 21
-0.7750000000000001
 31
0.0
  0
LINE
  5
9E
330
1F
100
AcDbEntity
  8
10899_A_DRD
  6
Continuous2
 62
    98
420
    16384
370
   200
100
AcDbLine
 10
-1.633799999999999
 20
-0.7250000000000001
 30
0.0
 11
-1.683799999999999
 21
-0.7750000000000001
 31
0.0
  0
LINE
  5
9F
330
1F
100
AcDbEntity
  8
10899_A_DRD
  6
Continuous2
 62
    98
420
    16384
370
   200
100
AcDbLine
 10
-1.633799999999999
 20
-0.7750000000000001
 30
0.0
 11
-1.683799999999999
 21
-0.7250000000000001
 31
0.0
  0
LINE
  5
A0
330
1F
100
AcDbEntity
  8
10899_A_SMT
  6
Continuous2
 62
     5
420
      255
370
    -3
100
AcDbLine
 10
-3.522799999999999
 20
1.062
 30
0.0
 11
-3.522799999999999
 21
0.962
 31
0.0
  0
LINE
  5
A1
330
1F
100
AcDbEntity
  8
10899_A_SMT
  6
Continuous2
 62
     5
420
      255
370
    -3
100
AcDbLine
 10
-3.772799999999999
 20
1.062
 30
0.0
 11
-3.772799999999999
 21
0.962
 31
0.0
  0
LINE
  5
A2
330
1F
100
AcDbEntity
  8
10899_A_SMT
  6
Continuous2
 62
     5
420
      255
370
    -3
100
AcDbLine
 10
-3.522799999999999
 20
1.062
 30
0.0
 11
-3.772799999999999
 21
1.062
 31
0.0
  0
LINE
  5
A3
330
1F
100
AcDbEntity
  8
10899_A_SMT
  6
Continuous2
 62
     5
420
      255
370
    -3
100
AcDbLine
 10
-3.522799999999999
 20
0.962
 30
0.0
 11
-3.772799999999999
 21
0.962
 31
0.0
  0
LINE
  5
A4
330
1F
100
AcDbEntity
  8
898A1_AST
  6
Continuous2
 62
   208
420
  4194368
370
   200
100
AcDbLine
 10
-0.0301999999999998
 20
-0.2979999999999989
 30
0.0
 11
-0.0301999999999998
 21
1.945000000000001
 31
0.0
  0
LINE
  5
A5
330
1F
100
AcDbEntity
  8
898A1_AST
  6
Continuous2
 62
   208
420
  4194368
370
   200
100
AcDbLine
 10
-0.0301999999999998
 20
1.945000000000001
 30
0.0
 11
3.799799999999999
 21
1.945000000000001
 31
0.0
  0
LINE
  5
A6
330
1F
100
AcDbEntity
  8
898A1_AST
  6
Continuous2
 62
   208
420
  4194368
370
   200
100
AcDbLine
 10
3.799799999999999
 20
1.945000000000001
 30
0.0
 11
3.799799999999999
 21
-1.944999999999999
 31
0.0
  0
LINE
  5
A7
330
1F
100
AcDbEntity
  8
898A1_AST
  6
Continuous2
 62
   208
420
  4194368
370
   200
100
AcDbLine
 10
3.799799999999999
 20
-1.944999999999999
 30
0.0
 11
-0.0301999999999998
 21
-1.944999999999999
 31
0.0
  0
LINE
  5
A8
330
1F
100
AcDbEntity
  8
898A1_AST
  6
Continuous2
 62
   208
420
  4194368
370
   200
100
AcDbLine
 10
-0.0301999999999998
 20
-1.944999999999999
 30
0.0
 11
-0.0301999999999998
 21
-0.2979999999999989
 31
0.0
  0
LINE
  5
A9
330
1F
100
AcDbEntity
  8
898A1_AST
  6
Continuous2
 62
   208
420
  4194368
370
   200
100
AcDbLine
 10
-0.2683
 20
0.1247000000000009
 30
0.0
 11
-0.2389000000000001
 21
0.2033000000000007
 31
0.0
  0
LINE
  5
AA
330
1F
100
AcDbEntity
  8
898A1_AST
  6
Continuous2
 62
   208
420
  4194368
370
   200
100
AcDbLine
 10
-0.2389000000000001
 20
0.2033000000000007
 30
0.0
 11
-0.2093999999999996
 21
0.1247000000000009
 31
0.0
  0
LINE
  5
AB
330
1F
100
AcDbEntity
  8
898A1_AST
  6
Continuous2
 62
   208
420
  4194368
370
   200
100
AcDbLine
 10
-0.2093999999999996
 20
0.1247000000000009
 30
0.0
 11
-0.2683
 21
0.1247000000000009
 31
0.0
  0
LINE
  5
AC
330
1F
100
AcDbEntity
  8
898A1_AST
  6
Continuous2
 62
   208
420
  4194368
370
   200
100
AcDbLine
 10
-0.2683
 20
0.1247000000000009
 30
0.0
 11
-0.2763999999999998
 21
0.1033000000000011
 31
0.0
  0
LINE
  5
AD
330
1F
100
AcDbEntity
  8
898A1_AST
  6
Continuous2
 62
   208
420
  4194368
370
   200
100
AcDbLine
 10
-0.2013999999999996
 20
0.1033000000000011
 30
0.0
 11
-0.2093999999999996
 21
0.1247000000000009
 31
0.0
  0
LINE
  5
AE
330
1F
100
AcDbEntity
  8
898A1_AST
  6
Continuous2
 62
   208
420
  4194368
370
   200
100
AcDbLine
 10
-0.0297999999999998
 20
1.899600000000001
 30
0.0
 11
-0.4597999999999995
 21
1.899600000000001
 31
0.0
  0
LINE
  5
AF
330
1F
100
AcDbEntity
  8
898A1_AST
  6
Continuous2
 62
   208
420
  4194368
370
   200
100
AcDbLine
 10
-0.4597999999999995
 20
1.899600000000001
 30
0.0
 11
-0.4597999999999995
 21
-1.900399999999999
 31
0.0
  0
LINE
  5
B0
330
1F
100
AcDbEntity
  8
898A1_AST
  6
Continuous2
 62
   208
420
  4194368
370
   200
100
AcDbLine
 10
-0.4597999999999995
 20
-1.900399999999999
 30
0.0
 11
-0.0297999999999998
 21
-1.900399999999999
 31
0.0
  0
LINE
  5
B1
330
1F
100
AcDbEntity
  8
898A1_AST
  6
Continuous2
 62
   208
420
  4194368
370
   200
100
AcDbLine
 10
-0.0297999999999998
 20
-1.900399999999999
 30
0.0
 11
-0.0297999999999998
 21
1.899600000000001
 31
0.0
  0
LINE
  5
B2
330
1F
100
AcDbEntity
  8
898A1_AST
  6
Continuous2
 62
   208
420
  4194368
370
   200
100
AcDbLine
 10
-0.0297999999999998
 20
1.899600000000001
 30
0.0
 11
-0.0297999999999998
 21
1.588600000000001
 31
0.0
  0
LINE
  5
B3
330
1F
100
AcDbEntity
  8
898A1_AST
  6
Continuous2
 62
   208
420
  4194368
370
   200
100
AcDbLine
 10
-0.0297999999999998
 20
1.588600000000001
 30
0.0
 11
-0.0297999999999998
 21
-1.900399999999999
 31
0.0
  0
LINE
  5
B4
330
1F
100
AcDbEntity
  8
898A1_AST
  6
Continuous2
 62
   208
420
  4194368
370
   200
100
AcDbLine
 10
-0.0297999999999998
 20
-1.900399999999999
 30
0.0
 11
-0.0297999999999998
 21
1.301400000000001
 31
0.0
  0
LINE
  5
B5
330
1F
100
AcDbEntity
  8
898A1_AST
  6
Continuous2
 62
   208
420
  4194368
370
   200
100
AcDbLine
 10
-0.0297999999999998
 20
1.301400000000001
 30
0.0
 11
-0.0297999999999998
 21
1.899600000000001
 31
0.0
  0
LINE
  5
B6
330
1F
100
AcDbEntity
  8
898A1_AST
  6
Continuous2
 62
   208
420
  4194368
370
   200
100
AcDbLine
 10
-0.2198000000000002
 20
-0.0003999999999988
 30
0.0
 11
-0.2698
 21
-0.0003999999999988
 31
0.0
  0
LINE
  5
B7
330
1F
100
AcDbEntity
  8
898A1_AST
  6
Continuous2
 62
   208
420
  4194368
370
   200
100
AcDbLine
 10
-0.4597999999999995
 20
-1.900399999999999
 30
0.0
 11
-0.4597999999999995
 21
1.899600000000001
 31
0.0
  0
LINE
  5
B8
330
1F
100
AcDbEntity
  8
898A1_AST
  6
Continuous2
 62
   208
420
  4194368
370
   200
100
AcDbLine
 10
-0.2447999999999997
 20
0.0246000000000006
 30
0.0
 11
-0.2447999999999997
 21
-0.0253999999999992
 31
0.0
  0
LINE
  5
B9
330
1F
100
AcDbEntity
  8
898A1_AST
  6
Continuous2
 62
   208
420
  4194368
370
   200
100
AcDbLine
 10
-0.2447999999999997
 20
-0.0253999999999992
 30
0.0
 11
-0.2698
 21
-0.0003999999999988
 31
0.0
  0
LINE
  5
BA
330
1F
100
AcDbEntity
  8
898A1_AST
  6
Continuous2
 62
   208
420
  4194368
370
   200
100
AcDbLine
 10
-0.2698
 20
-0.0003999999999988
 30
0.0
 11
-0.2447999999999997
 21
0.0246000000000006
 31
0.0
  0
LINE
  5
BB
330
1F
100
AcDbEntity
  8
898A1_AST
  6
Continuous2
 62
   208
420
  4194368
370
   200
100
AcDbLine
 10
-0.2447999999999997
 20
0.0246000000000006
 30
0.0
 11
-0.2198000000000002
 21
-0.0003999999999988
 31
0.0
  0
LINE
  5
BC
330
1F
100
AcDbEntity
  8
898A1_AST
  6
Continuous2
 62
   208
420
  4194368
370
   200
100
AcDbLine
 10
-0.2198000000000002
 20
-0.0003999999999988
 30
0.0
 11
-0.2447999999999997
 21
-0.0253999999999992
 31
0.0
  0
ARC
  5
BD
330
1F
100
AcDbEntity
  8
898A1_AST
  6
Continuous2
 62
   208
420
  4194368
370
   200
100
AcDbCircle
 10
-0.2448000000000143
 20
-0.0003999999999851
 30
0.0
 40
0.0780000000000141
100
AcDbArc
 50
270.0000000000108
 51
359.9999999999899
  0
ARC
  5
BE
330
1F
100
AcDbEntity
  8
898A1_AST
  6
Continuous2
 62
   208
420
  4194368
370
   200
100
AcDbCircle
 10
-0.2447999999999846
 20
-0.0003999999999846
 30
0.0
 40
0.0780000000000154
100
AcDbArc
 50
180.0000000000104
 51
269.9999999999889
  0
ARC
  5
BF
330
1F
100
AcDbEntity
  8
898A1_AST
  6
Continuous2
 62
   208
420
  4194368
370
   200
100
AcDbCircle
 10
-0.2447999999999881
 20
-0.0004000000000104
 30
0.0
 40
0.0780000000000109
100
AcDbArc
 50
90.00000000000851
 51
179.9999999999915
  0
ARC
  5
C0
330
1F
100
AcDbEntity
  8
898A1_AST
  6
Continuous2
 62
   208
420
  4194368
370
   200
100
AcDbCircle
 10
-0.2448000000000135
 20
-0.0004000000000126
 30
0.0
 40
0.0780000000000141
100
AcDbArc
 50
0.0000000000101125
 51
89.99999999998988
  0
LINE
  5
C1
330
1F
100
AcDbEntity
  8
898A1_DRD
  6
Continuous2
 62
     8
420
  8421504
370
   200
100
AcDbLine
 10
-0.0301999999999998
 20
-0.2979999999999989
 30
0.0
 11
-0.0301999999999998
 21
1.945000000000001
 31
0.0
  0
LINE
  5
C2
330
1F
100
AcDbEntity
  8
898A1_DRD
  6
Continuous2
 62
     8
420
  8421504
370
   200
100
AcDbLine
 10
-0.0301999999999998
 20
1.945000000000001
 30
0.0
 11
3.799799999999999
 21
1.945000000000001
 31
0.0
  0
LINE
  5
C3
330
1F
100
AcDbEntity
  8
898A1_DRD
  6
Continuous2
 62
     8
420
  8421504
370
   200
100
AcDbLine
 10
3.799799999999999
 20
1.945000000000001
 30
0.0
 11
3.799799999999999
 21
-1.944999999999999
 31
0.0
  0
LINE
  5
C4
330
1F
100
AcDbEntity
  8
898A1_DRD
  6
Continuous2
 62
     8
420
  8421504
370
   200
100
AcDbLine
 10
3.799799999999999
 20
-1.944999999999999
 30
0.0
 11
-0.0301999999999998
 21
-1.944999999999999
 31
0.0
  0
LINE
  5
C5
330
1F
100
AcDbEntity
  8
898A1_DRD
  6
Continuous2
 62
     8
420
  8421504
370
   200
100
AcDbLine
 10
-0.0301999999999998
 20
-1.944999999999999
 30
0.0
 11
-0.0301999999999998
 21
-0.2979999999999989
 31
0.0
  0
LINE
  5
C6
330
1F
100
AcDbEntity
  8
898A1_DRD
  6
Continuous2
 62
     8
420
  8421504
370
   200
100
AcDbLine
 10
3.594799999999999
 20
-1.079999999999999
 30
0.0
 11
3.594799999999999
 21
-1.129999999999999
 31
0.0
  0
LINE
  5
C7
330
1F
100
AcDbEntity
  8
898A1_DRD
  6
Continuous2
 62
     8
420
  8421504
370
   200
100
AcDbLine
 10
3.6448
 20
-1.079999999999999
 30
0.0
 11
3.594799999999999
 21
-1.079999999999999
 31
0.0
  0
LINE
  5
C8
330
1F
100
AcDbEntity
  8
898A1_DRD
  6
Continuous2
 62
     8
420
  8421504
370
   200
100
AcDbLine
 10
3.6448
 20
-1.129999999999999
 30
0.0
 11
3.6448
 21
-1.079999999999999
 31
0.0
  0
LINE
  5
C9
330
1F
100
AcDbEntity
  8
898A1_DRD
  6
Continuous2
 62
     8
420
  8421504
370
   200
100
AcDbLine
 10
3.594799999999999
 20
-1.129999999999999
 30
0.0
 11
3.6448
 21
-1.129999999999999
 31
0.0
  0
LINE
  5
CA
330
1F
100
AcDbEntity
  8
898A1_DRD
  6
Continuous2
 62
     8
420
  8421504
370
   200
100
AcDbLine
 10
3.6448
 20
-1.079999999999999
 30
0.0
 11
3.594799999999999
 21
-1.129999999999999
 31
0.0
  0
LINE
  5
CB
330
1F
100
AcDbEntity
  8
898A1_DRD
  6
Continuous2
 62
     8
420
  8421504
370
   200
100
AcDbLine
 10
3.6448
 20
-1.129999999999999
 30
0.0
 11
3.594799999999999
 21
-1.079999999999999
 31
0.0
  0
LINE
  5
CC
330
1F
100
AcDbEntity
  8
898A1_DRD
  6
Continuous2
 62
     8
420
  8421504
370
   200
100
AcDbLine
 10
3.594799999999999
 20
1.130000000000001
 30
0.0
 11
3.594799999999999
 21
1.08
 31
0.0
  0
LINE
  5
CD
330
1F
100
AcDbEntity
  8
898A1_DRD
  6
Continuous2
 62
     8
420
  8421504
370
   200
100
AcDbLine
 10
3.6448
 20
1.130000000000001
 30
0.0
 11
3.594799999999999
 21
1.130000000000001
 31
0.0
  0
LINE
  5
CE
330
1F
100
AcDbEntity
  8
898A1_DRD
  6
Continuous2
 62
     8
420
  8421504
370
   200
100
AcDbLine
 10
3.6448
 20
1.08
 30
0.0
 11
3.6448
 21
1.130000000000001
 31
0.0
  0
LINE
  5
CF
330
1F
100
AcDbEntity
  8
898A1_DRD
  6
Continuous2
 62
     8
420
  8421504
370
   200
100
AcDbLine
 10
3.594799999999999
 20
1.08
 30
0.0
 11
3.6448
 21
1.08
 31
0.0
  0
LINE
  5
D0
330
1F
100
AcDbEntity
  8
898A1_DRD
  6
Continuous2
 62
     8
420
  8421504
370
   200
100
AcDbLine
 10
3.6448
 20
1.130000000000001
 30
0.0
 11
3.594799999999999
 21
1.08
 31
0.0
  0
LINE
  5
D1
330
1F
100
AcDbEntity
  8
898A1_DRD
  6
Continuous2
 62
     8
420
  8421504
370
   200
100
AcDbLine
 10
3.6448
 20
1.08
 30
0.0
 11
3.594799999999999
 21
1.130000000000001
 31
0.0
  0
LINE
  5
D2
330
1F
100
AcDbEntity
  8
898A1_DRD
  6
Continuous2
 62
     8
420
  8421504
370
   200
100
AcDbLine
 10
1.069799999999999
 20
-1.654999999999999
 30
0.0
 11
1.069799999999999
 21
-1.704999999999999
 31
0.0
  0
LINE
  5
D3
330
1F
100
AcDbEntity
  8
898A1_DRD
  6
Continuous2
 62
     8
420
  8421504
370
   200
100
AcDbLine
 10
1.1198
 20
-1.654999999999999
 30
0.0
 11
1.069799999999999
 21
-1.654999999999999
 31
0.0
  0
LINE
  5
D4
330
1F
100
AcDbEntity
  8
898A1_DRD
  6
Continuous2
 62
     8
420
  8421504
370
   200
100
AcDbLine
 10
1.1198
 20
-1.704999999999999
 30
0.0
 11
1.1198
 21
-1.654999999999999
 31
0.0
  0
LINE
  5
D5
330
1F
100
AcDbEntity
  8
898A1_DRD
  6
Continuous2
 62
     8
420
  8421504
370
   200
100
AcDbLine
 10
1.069799999999999
 20
-1.704999999999999
 30
0.0
 11
1.1198
 21
-1.704999999999999
 31
0.0
  0
LINE
  5
D6
330
1F
100
AcDbEntity
  8
898A1_DRD
  6
Continuous2
 62
     8
420
  8421504
370
   200
100
AcDbLine
 10
1.1198
 20
-1.654999999999999
 30
0.0
 11
1.069799999999999
 21
-1.704999999999999
 31
0.0
  0
LINE
  5
D7
330
1F
100
AcDbEntity
  8
898A1_DRD
  6
Continuous2
 62
     8
420
  8421504
370
   200
100
AcDbLine
 10
1.1198
 20
-1.704999999999999
 30
0.0
 11
1.069799999999999
 21
-1.654999999999999
 31
0.0
  0
LINE
  5
D8
330
1F
100
AcDbEntity
  8
898A1_DRD
  6
Continuous2
 62
     8
420
  8421504
370
   200
100
AcDbLine
 10
1.069799999999999
 20
1.705
 30
0.0
 11
1.069799999999999
 21
1.655000000000001
 31
0.0
  0
LINE
  5
D9
330
1F
100
AcDbEntity
  8
898A1_DRD
  6
Continuous2
 62
     8
420
  8421504
370
   200
100
AcDbLine
 10
1.1198
 20
1.705
 30
0.0
 11
1.069799999999999
 21
1.705
 31
0.0
  0
LINE
  5
DA
330
1F
100
AcDbEntity
  8
898A1_DRD
  6
Continuous2
 62
     8
420
  8421504
370
   200
100
AcDbLine
 10
1.1198
 20
1.655000000000001
 30
0.0
 11
1.1198
 21
1.705
 31
0.0
  0
LINE
  5
DB
330
1F
100
AcDbEntity
  8
898A1_DRD
  6
Continuous2
 62
     8
420
  8421504
370
   200
100
AcDbLine
 10
1.069799999999999
 20
1.655000000000001
 30
0.0
 11
1.1198
 21
1.655000000000001
 31
0.0
  0
LINE
  5
DC
330
1F
100
AcDbEntity
  8
898A1_DRD
  6
Continuous2
 62
     8
420
  8421504
370
   200
100
AcDbLine
 10
1.1198
 20
1.705
 30
0.0
 11
1.069799999999999
 21
1.655000000000001
 31
0.0
  0
LINE
  5
DD
330
1F
100
AcDbEntity
  8
898A1_DRD
  6
Continuous2
 62
     8
420
  8421504
370
   200
100
AcDbLine
 10
1.1198
 20
1.655000000000001
 30
0.0
 11
1.069799999999999
 21
1.705
 31
0.0
  0
LINE
  5
DE
330
1F
100
AcDbEntity
  8
898A1_DRD
  6
Continuous2
 62
     8
420
  8421504
370
   200
100
AcDbLine
 10
0.7037999999999993
 20
0.0250000000000006
 30
0.0
 11
0.7037999999999993
 21
-0.0249999999999992
 31
0.0
  0
LINE
  5
DF
330
1F
100
AcDbEntity
  8
898A1_DRD
  6
Continuous2
 62
     8
420
  8421504
370
   200
100
AcDbLine
 10
0.7538
 20
0.0250000000000006
 30
0.0
 11
0.7037999999999993
 21
0.0250000000000006
 31
0.0
  0
LINE
  5
E0
330
1F
100
AcDbEntity
  8
898A1_DRD
  6
Continuous2
 62
     8
420
  8421504
370
   200
100
AcDbLine
 10
0.7538
 20
-0.0249999999999992
 30
0.0
 11
0.7538
 21
0.0250000000000006
 31
0.0
  0
LINE
  5
E1
330
1F
100
AcDbEntity
  8
898A1_DRD
  6
Continuous2
 62
     8
420
  8421504
370
   200
100
AcDbLine
 10
0.7037999999999993
 20
-0.0249999999999992
 30
0.0
 11
0.7538
 21
-0.0249999999999992
 31
0.0
  0
LINE
  5
E2
330
1F
100
AcDbEntity
  8
898A1_DRD
  6
Continuous2
 62
     8
420
  8421504
370
   200
100
AcDbLine
 10
0.7538
 20
0.0250000000000006
 30
0.0
 11
0.7037999999999993
 21
-0.0249999999999992
 31
0.0
  0
LINE
  5
E3
330
1F
100
AcDbEntity
  8
898A1_DRD
  6
Continuous2
 62
     8
420
  8421504
370
   200
100
AcDbLine
 10
0.7538
 20
-0.0249999999999992
 30
0.0
 11
0.7037999999999993
 21
0.0250000000000006
 31
0.0
  0
LINE
  5
E4
330
1F
100
AcDbEntity
  8
898A1_SMT
  6
Continuous2
 62
     9
420
 12632256
370
    -3
100
AcDbLine
 10
3.7758
 20
-0.2879999999999991
 30
0.0
 11
3.7758
 21
-0.3879999999999997
 31
0.0
  0
LINE
  5
E5
330
1F
100
AcDbEntity
  8
898A1_SMT
  6
Continuous2
 62
     9
420
 12632256
370
    -3
100
AcDbLine
 10
3.5258
 20
-0.2879999999999991
 30
0.0
 11
3.5258
 21
-0.3879999999999997
 31
0.0
  0
LINE
  5
E6
330
1F
100
AcDbEntity
  8
898A1_SMT
  6
Continuous2
 62
     9
420
 12632256
370
    -3
100
AcDbLine
 10
3.7758
 20
-0.2879999999999991
 30
0.0
 11
3.5258
 21
-0.2879999999999991
 31
0.0
  0
LINE
  5
E7
330
1F
100
AcDbEntity
  8
898A1_SMT
  6
Continuous2
 62
     9
420
 12632256
370
    -3
100
AcDbLine
 10
3.7758
 20
-0.3879999999999997
 30
0.0
 11
3.5258
 21
-0.3879999999999997
 31
0.0
  0
LINE
  5
E8
330
1F
100
AcDbEntity
  8
898A1_SMT
  6
Continuous2
 62
     9
420
 12632256
370
   200
100
AcDbLine
 10
2.076799999999999
 20
-0.0089999999999992
 30
0.0
 11
1.745799999999999
 21
-0.0089999999999992
 31
0.0
  0
LINE
  5
E9
330
1F
100
AcDbEntity
  8
898A1_SMT
  6
Continuous2
 62
     9
420
 12632256
370
   200
100
AcDbLine
 10
1.745799999999999
 20
-0.0089999999999992
 30
0.0
 11
1.701799999999999
 21
-0.0529999999999988
 31
0.0
  0
LINE
  5
EA
330
1F
100
AcDbEntity
  8
898A1_SMT
  6
Continuous2
 62
     9
420
 12632256
370
   200
100
AcDbLine
 10
1.701799999999999
 20
-0.0529999999999988
 30
0.0
 11
1.701799999999999
 21
-0.1829999999999996
 31
0.0
  0
LINE
  5
EB
330
1F
100
AcDbEntity
  8
898A1_SMT
  6
Continuous2
 62
     9
420
 12632256
370
   200
100
AcDbLine
 10
2.076799999999999
 20
-0.1829999999999996
 30
0.0
 11
1.701799999999999
 21
-0.1829999999999996
 31
0.0
  0
LINE
  5
EC
330
1F
100
AcDbEntity
  8
898A1_SMT
  6
Continuous2
 62
     9
420
 12632256
370
   200
100
AcDbLine
 10
2.076799999999999
 20
-0.0089999999999992
 30
0.0
 11
2.076799999999999
 21
-0.1829999999999996
 31
0.0
  0
LINE
  5
ED
330
1F
100
AcDbEntity
  8
898A1_SMT
  6
Continuous2
 62
     9
420
 12632256
370
   200
100
AcDbLine
 10
2.073
 20
-0.0089999999999992
 30
0.0
 11
2.073
 21
-0.1829999999999996
 31
0.0
  0
LINE
  5
EE
330
1F
100
AcDbEntity
  8
898A1_SMT
  6
Continuous2
 62
     9
420
 12632256
370
   200
100
AcDbLine
 10
2.0694
 20
-0.0089999999999992
 30
0.0
 11
2.0694
 21
-0.1829999999999996
 31
0.0
  0
LINE
  5
EF
330
1F
100
AcDbEntity
  8
898A1_SMT
  6
Continuous2
 62
     9
420
 12632256
370
   200
100
AcDbLine
 10
2.065799999999999
 20
-0.0089999999999992
 30
0.0
 11
2.065799999999999
 21
-0.1829999999999996
 31
0.0
  0
LINE
  5
F0
330
1F
100
AcDbEntity
  8
898A1_SMT
  6
Continuous2
 62
     9
420
 12632256
370
   200
100
AcDbLine
 10
2.062199999999999
 20
-0.0089999999999992
 30
0.0
 11
2.062199999999999
 21
-0.1829999999999996
 31
0.0
  0
LINE
  5
F1
330
1F
100
AcDbEntity
  8
898A1_SMT
  6
Continuous2
 62
     9
420
 12632256
370
   200
100
AcDbLine
 10
2.058599999999998
 20
-0.0089999999999992
 30
0.0
 11
2.058599999999998
 21
-0.1829999999999996
 31
0.0
  0
LINE
  5
F2
330
1F
100
AcDbEntity
  8
898A1_SMT
  6
Continuous2
 62
     9
420
 12632256
370
   200
100
AcDbLine
 10
2.055
 20
-0.0089999999999992
 30
0.0
 11
2.055
 21
-0.1829999999999996
 31
0.0
  0
LINE
  5
F3
330
1F
100
AcDbEntity
  8
898A1_SMT
  6
Continuous2
 62
     9
420
 12632256
370
   200
100
AcDbLine
 10
2.051399999999999
 20
-0.0089999999999992
 30
0.0
 11
2.051399999999999
 21
-0.1829999999999996
 31
0.0
  0
LINE
  5
F4
330
1F
100
AcDbEntity
  8
898A1_SMT
  6
Continuous2
 62
     9
420
 12632256
370
   200
100
AcDbLine
 10
2.047799999999999
 20
-0.0089999999999992
 30
0.0
 11
2.047799999999999
 21
-0.1829999999999996
 31
0.0
  0
LINE
  5
F5
330
1F
100
AcDbEntity
  8
898A1_SMT
  6
Continuous2
 62
     9
420
 12632256
370
   200
100
AcDbLine
 10
2.0442
 20
-0.0089999999999992
 30
0.0
 11
2.0442
 21
-0.1829999999999996
 31
0.0
  0
LINE
  5
F6
330
1F
100
AcDbEntity
  8
898A1_SMT
  6
Continuous2
 62
     9
420
 12632256
370
   200
100
AcDbLine
 10
2.0406
 20
-0.0089999999999992
 30
0.0
 11
2.0406
 21
-0.1829999999999996
 31
0.0
  0
LINE
  5
F7
330
1F
100
AcDbEntity
  8
898A1_SMT
  6
Continuous2
 62
     9
420
 12632256
370
   200
100
AcDbLine
 10
2.036999999999999
 20
-0.0089999999999992
 30
0.0
 11
2.036999999999999
 21
-0.1829999999999996
 31
0.0
  0
LINE
  5
F8
330
1F
100
AcDbEntity
  8
898A1_SMT
  6
Continuous2
 62
     9
420
 12632256
370
   200
100
AcDbLine
 10
2.0334
 20
-0.0089999999999992
 30
0.0
 11
2.0334
 21
-0.1829999999999996
 31
0.0
  0
LINE
  5
F9
330
1F
100
AcDbEntity
  8
898A1_SMT
  6
Continuous2
 62
     9
420
 12632256
370
   200
100
AcDbLine
 10
2.0298
 20
-0.0089999999999992
 30
0.0
 11
2.0298
 21
-0.1829999999999996
 31
0.0
  0
LINE
  5
FA
330
1F
100
AcDbEntity
  8
898A1_SMT
  6
Continuous2
 62
     9
420
 12632256
370
   200
100
AcDbLine
 10
2.026199999999999
 20
-0.0089999999999992
 30
0.0
 11
2.026199999999999
 21
-0.1829999999999996
 31
0.0
  0
LINE
  5
FB
330
1F
100
AcDbEntity
  8
898A1_SMT
  6
Continuous2
 62
     9
420
 12632256
370
   200
100
AcDbLine
 10
2.022599999999999
 20
-0.0089999999999992
 30
0.0
 11
2.022599999999999
 21
-0.1829999999999996
 31
0.0
  0
LINE
  5
FC
330
1F
100
AcDbEntity
  8
898A1_SMT
  6
Continuous2
 62
     9
420
 12632256
370
   200
100
AcDbLine
 10
2.018999999999998
 20
-0.0089999999999992
 30
0.0
 11
2.018999999999998
 21
-0.1829999999999996
 31
0.0
  0
LINE
  5
FD
330
1F
100
AcDbEntity
  8
898A1_SMT
  6
Continuous2
 62
     9
420
 12632256
370
   200
100
AcDbLine
 10
2.0154
 20
-0.0089999999999992
 30
0.0
 11
2.0154
 21
-0.1829999999999996
 31
0.0
  0
LINE
  5
FE
330
1F
100
AcDbEntity
  8
898A1_SMT
  6
Continuous2
 62
     9
420
 12632256
370
   200
100
AcDbLine
 10
2.011799999999999
 20
-0.0089999999999992
 30
0.0
 11
2.011799999999999
 21
-0.1829999999999996
 31
0.0
  0
LINE
  5
FF
330
1F
100
AcDbEntity
  8
898A1_SMT
  6
Continuous2
 62
     9
420
 12632256
370
   200
100
AcDbLine
 10
2.008199999999999
 20
-0.0089999999999992
 30
0.0
 11
2.008199999999999
 21
-0.1829999999999996
 31
0.0
  0
LINE
  5
100
330
1F
100
AcDbEntity
  8
898A1_SMT
  6
Continuous2
 62
     9
420
 12632256
370
   200
100
AcDbLine
 10
2.0046
 20
-0.0089999999999992
 30
0.0
 11
2.0046
 21
-0.1829999999999996
 31
0.0
  0
LINE
  5
101
330
1F
100
AcDbEntity
  8
898A1_SMT
  6
Continuous2
 62
     9
420
 12632256
370
   200
100
AcDbLine
 10
2.000999999999999
 20
-0.0089999999999992
 30
0.0
 11
2.000999999999999
 21
-0.1829999999999996
 31
0.0
  0
LINE
  5
102
330
1F
100
AcDbEntity
  8
898A1_SMT
  6
Continuous2
 62
     9
420
 12632256
370
   200
100
AcDbLine
 10
1.997399999999999
 20
-0.0089999999999992
 30
0.0
 11
1.997399999999999
 21
-0.1829999999999996
 31
0.0
  0
LINE
  5
103
330
1F
100
AcDbEntity
  8
898A1_SMT
  6
Continuous2
 62
     9
420
 12632256
370
   200
100
AcDbLine
 10
1.9938
 20
-0.0089999999999992
 30
0.0
 11
1.9938
 21
-0.1829999999999996
 31
0.0
  0
LINE
  5
104
330
1F
100
AcDbEntity
  8
898A1_SMT
  6
Continuous2
 62
     9
420
 12632256
370
   200
100
AcDbLine
 10
1.9902
 20
-0.0089999999999992
 30
0.0
 11
1.9902
 21
-0.1829999999999996
 31
0.0
  0
LINE
  5
105
330
1F
100
AcDbEntity
  8
898A1_SMT
  6
Continuous2
 62
     9
420
 12632256
370
   200
100
AcDbLine
 10
1.986599999999999
 20
-0.0089999999999992
 30
0.0
 11
1.986599999999999
 21
-0.1829999999999996
 31
0.0
  0
LINE
  5
106
330
1F
100
AcDbEntity
  8
898A1_SMT
  6
Continuous2
 62
     9
420
 12632256
370
   200
100
AcDbLine
 10
1.982999999999999
 20
-0.0089999999999992
 30
0.0
 11
1.982999999999999
 21
-0.1829999999999996
 31
0.0
  0
LINE
  5
107
330
1F
100
AcDbEntity
  8
898A1_SMT
  6
Continuous2
 62
     9
420
 12632256
370
   200
100
AcDbLine
 10
1.979399999999998
 20
-0.0089999999999992
 30
0.0
 11
1.979399999999998
 21
-0.1829999999999996
 31
0.0
  0
LINE
  5
108
330
1F
100
AcDbEntity
  8
898A1_SMT
  6
Continuous2
 62
     9
420
 12632256
370
   200
100
AcDbLine
 10
1.9758
 20
-0.0089999999999992
 30
0.0
 11
1.9758
 21
-0.1829999999999996
 31
0.0
  0
LINE
  5
109
330
1F
100
AcDbEntity
  8
898A1_SMT
  6
Continuous2
 62
     9
420
 12632256
370
   200
100
AcDbLine
 10
1.972199999999999
 20
-0.0089999999999992
 30
0.0
 11
1.972199999999999
 21
-0.1829999999999996
 31
0.0
  0
LINE
  5
10A
330
1F
100
AcDbEntity
  8
898A1_SMT
  6
Continuous2
 62
     9
420
 12632256
370
   200
100
AcDbLine
 10
1.968599999999999
 20
-0.0089999999999992
 30
0.0
 11
1.968599999999999
 21
-0.1829999999999996
 31
0.0
  0
LINE
  5
10B
330
1F
100
AcDbEntity
  8
898A1_SMT
  6
Continuous2
 62
     9
420
 12632256
370
   200
100
AcDbLine
 10
1.965
 20
-0.0089999999999992
 30
0.0
 11
1.965
 21
-0.1829999999999996
 31
0.0
  0
LINE
  5
10C
330
1F
100
AcDbEntity
  8
898A1_SMT
  6
Continuous2
 62
     9
420
 12632256
370
   200
100
AcDbLine
 10
1.961399999999999
 20
-0.0089999999999992
 30
0.0
 11
1.961399999999999
 21
-0.1829999999999996
 31
0.0
  0
LINE
  5
10D
330
1F
100
AcDbEntity
  8
898A1_SMT
  6
Continuous2
 62
     9
420
 12632256
370
   200
100
AcDbLine
 10
1.957799999999999
 20
-0.0089999999999992
 30
0.0
 11
1.957799999999999
 21
-0.1829999999999996
 31
0.0
  0
LINE
  5
10E
330
1F
100
AcDbEntity
  8
898A1_SMT
  6
Continuous2
 62
     9
420
 12632256
370
   200
100
AcDbLine
 10
1.9542
 20
-0.0089999999999992
 30
0.0
 11
1.9542
 21
-0.1829999999999996
 31
0.0
  0
LINE
  5
10F
330
1F
100
AcDbEntity
  8
898A1_SMT
  6
Continuous2
 62
     9
420
 12632256
370
   200
100
AcDbLine
 10
1.9506
 20
-0.0089999999999992
 30
0.0
 11
1.9506
 21
-0.1829999999999996
 31
0.0
  0
LINE
  5
110
330
1F
100
AcDbEntity
  8
898A1_SMT
  6
Continuous2
 62
     9
420
 12632256
370
   200
100
AcDbLine
 10
1.946999999999999
 20
-0.0089999999999992
 30
0.0
 11
1.946999999999999
 21
-0.1829999999999996
 31
0.0
  0
LINE
  5
111
330
1F
100
AcDbEntity
  8
898A1_SMT
  6
Continuous2
 62
     9
420
 12632256
370
   200
100
AcDbLine
 10
1.943399999999999
 20
-0.0089999999999992
 30
0.0
 11
1.943399999999999
 21
-0.1829999999999996
 31
0.0
  0
LINE
  5
112
330
1F
100
AcDbEntity
  8
898A1_SMT
  6
Continuous2
 62
     9
420
 12632256
370
   200
100
AcDbLine
 10
1.9398
 20
-0.0089999999999992
 30
0.0
 11
1.9398
 21
-0.1829999999999996
 31
0.0
  0
LINE
  5
113
330
1F
100
AcDbEntity
  8
898A1_SMT
  6
Continuous2
 62
     9
420
 12632256
370
   200
100
AcDbLine
 10
1.936199999999999
 20
-0.0089999999999992
 30
0.0
 11
1.936199999999999
 21
-0.1829999999999996
 31
0.0
  0
LINE
  5
114
330
1F
100
AcDbEntity
  8
898A1_SMT
  6
Continuous2
 62
     9
420
 12632256
370
   200
100
AcDbLine
 10
1.932599999999999
 20
-0.0089999999999992
 30
0.0
 11
1.932599999999999
 21
-0.1829999999999996
 31
0.0
  0
LINE
  5
115
330
1F
100
AcDbEntity
  8
898A1_SMT
  6
Continuous2
 62
     9
420
 12632256
370
   200
100
AcDbLine
 10
1.928999999999998
 20
-0.0089999999999992
 30
0.0
 11
1.928999999999998
 21
-0.1829999999999996
 31
0.0
  0
LINE
  5
116
330
1F
100
AcDbEntity
  8
898A1_SMT
  6
Continuous2
 62
     9
420
 12632256
370
   200
100
AcDbLine
 10
1.9254
 20
-0.0089999999999992
 30
0.0
 11
1.9254
 21
-0.1829999999999996
 31
0.0
  0
LINE
  5
117
330
1F
100
AcDbEntity
  8
898A1_SMT
  6
Continuous2
 62
     9
420
 12632256
370
   200
100
AcDbLine
 10
1.921799999999999
 20
-0.0089999999999992
 30
0.0
 11
1.921799999999999
 21
-0.1829999999999996
 31
0.0
  0
LINE
  5
118
330
1F
100
AcDbEntity
  8
898A1_SMT
  6
Continuous2
 62
     9
420
 12632256
370
   200
100
AcDbLine
 10
1.918199999999999
 20
-0.0089999999999992
 30
0.0
 11
1.918199999999999
 21
-0.1829999999999996
 31
0.0
  0
LINE
  5
119
330
1F
100
AcDbEntity
  8
898A1_SMT
  6
Continuous2
 62
     9
420
 12632256
370
   200
100
AcDbLine
 10
1.9146
 20
-0.0089999999999992
 30
0.0
 11
1.9146
 21
-0.1829999999999996
 31
0.0
  0
LINE
  5
11A
330
1F
100
AcDbEntity
  8
898A1_SMT
  6
Continuous2
 62
     9
420
 12632256
370
   200
100
AcDbLine
 10
1.911
 20
-0.0089999999999992
 30
0.0
 11
1.911
 21
-0.1829999999999996
 31
0.0
  0
LINE
  5
11B
330
1F
100
AcDbEntity
  8
898A1_SMT
  6
Continuous2
 62
     9
420
 12632256
370
   200
100
AcDbLine
 10
1.907399999999999
 20
-0.0089999999999992
 30
0.0
 11
1.907399999999999
 21
-0.1829999999999996
 31
0.0
  0
LINE
  5
11C
330
1F
100
AcDbEntity
  8
898A1_SMT
  6
Continuous2
 62
     9
420
 12632256
370
   200
100
AcDbLine
 10
1.903799999999999
 20
-0.0089999999999992
 30
0.0
 11
1.903799999999999
 21
-0.1829999999999996
 31
0.0
  0
LINE
  5
11D
330
1F
100
AcDbEntity
  8
898A1_SMT
  6
Continuous2
 62
     9
420
 12632256
370
   200
100
AcDbLine
 10
1.9002
 20
-0.0089999999999992
 30
0.0
 11
1.9002
 21
-0.1829999999999996
 31
0.0
  0
LINE
  5
11E
330
1F
100
AcDbEntity
  8
898A1_SMT
  6
Continuous2
 62
     9
420
 12632256
370
   200
100
AcDbLine
 10
1.896599999999999
 20
-0.0089999999999992
 30
0.0
 11
1.896599999999999
 21
-0.1829999999999996
 31
0.0
  0
LINE
  5
11F
330
1F
100
AcDbEntity
  8
898A1_SMT
  6
Continuous2
 62
     9
420
 12632256
370
   200
100
AcDbLine
 10
1.892999999999999
 20
-0.0089999999999992
 30
0.0
 11
1.892999999999999
 21
-0.1829999999999996
 31
0.0
  0
LINE
  5
120
330
1F
100
AcDbEntity
  8
898A1_SMT
  6
Continuous2
 62
     9
420
 12632256
370
   200
100
AcDbLine
 10
1.889399999999998
 20
-0.0089999999999992
 30
0.0
 11
1.889399999999998
 21
-0.1829999999999996
 31
0.0
  0
LINE
  5
121
330
1F
100
AcDbEntity
  8
898A1_SMT
  6
Continuous2
 62
     9
420
 12632256
370
   200
100
AcDbLine
 10
1.8858
 20
-0.0089999999999992
 30
0.0
 11
1.8858
 21
-0.1829999999999996
 31
0.0
  0
LINE
  5
122
330
1F
100
AcDbEntity
  8
898A1_SMT
  6
Continuous2
 62
     9
420
 12632256
370
   200
100
AcDbLine
 10
1.882199999999999
 20
-0.0089999999999992
 30
0.0
 11
1.882199999999999
 21
-0.1829999999999996
 31
0.0
  0
LINE
  5
123
330
1F
100
AcDbEntity
  8
898A1_SMT
  6
Continuous2
 62
     9
420
 12632256
370
   200
100
AcDbLine
 10
1.878599999999999
 20
-0.0089999999999992
 30
0.0
 11
1.878599999999999
 21
-0.1829999999999996
 31
0.0
  0
LINE
  5
124
330
1F
100
AcDbEntity
  8
898A1_SMT
  6
Continuous2
 62
     9
420
 12632256
370
   200
100
AcDbLine
 10
1.875
 20
-0.0089999999999992
 30
0.0
 11
1.875
 21
-0.1829999999999996
 31
0.0
  0
LINE
  5
125
330
1F
100
AcDbEntity
  8
898A1_SMT
  6
Continuous2
 62
     9
420
 12632256
370
   200
100
AcDbLine
 10
1.8714
 20
-0.0089999999999992
 30
0.0
 11
1.8714
 21
-0.1829999999999996
 31
0.0
  0
LINE
  5
126
330
1F
100
AcDbEntity
  8
898A1_SMT
  6
Continuous2
 62
     9
420
 12632256
370
   200
100
AcDbLine
 10
1.867799999999999
 20
-0.0089999999999992
 30
0.0
 11
1.867799999999999
 21
-0.1829999999999996
 31
0.0
  0
LINE
  5
127
330
1F
100
AcDbEntity
  8
898A1_SMT
  6
Continuous2
 62
     9
420
 12632256
370
   200
100
AcDbLine
 10
1.8642
 20
-0.0089999999999992
 30
0.0
 11
1.8642
 21
-0.1829999999999996
 31
0.0
  0
LINE
  5
128
330
1F
100
AcDbEntity
  8
898A1_SMT
  6
Continuous2
 62
     9
420
 12632256
370
   200
100
AcDbLine
 10
1.8606
 20
-0.0089999999999992
 30
0.0
 11
1.8606
 21
-0.1829999999999996
 31
0.0
  0
LINE
  5
129
330
1F
100
AcDbEntity
  8
898A1_SMT
  6
Continuous2
 62
     9
420
 12632256
370
   200
100
AcDbLine
 10
1.856999999999999
 20
-0.0089999999999992
 30
0.0
 11
1.856999999999999
 21
-0.1829999999999996
 31
0.0
  0
LINE
  5
12A
330
1F
100
AcDbEntity
  8
898A1_SMT
  6
Continuous2
 62
     9
420
 12632256
370
   200
100
AcDbLine
 10
1.853399999999999
 20
-0.0089999999999992
 30
0.0
 11
1.853399999999999
 21
-0.1829999999999996
 31
0.0
  0
LINE
  5
12B
330
1F
100
AcDbEntity
  8
898A1_SMT
  6
Continuous2
 62
     9
420
 12632256
370
   200
100
AcDbLine
 10
1.849799999999998
 20
-0.0089999999999992
 30
0.0
 11
1.849799999999998
 21
-0.1829999999999996
 31
0.0
  0
LINE
  5
12C
330
1F
100
AcDbEntity
  8
898A1_SMT
  6
Continuous2
 62
     9
420
 12632256
370
   200
100
AcDbLine
 10
1.8462
 20
-0.0089999999999992
 30
0.0
 11
1.8462
 21
-0.1829999999999996
 31
0.0
  0
LINE
  5
12D
330
1F
100
AcDbEntity
  8
898A1_SMT
  6
Continuous2
 62
     9
420
 12632256
370
   200
100
AcDbLine
 10
1.842599999999999
 20
-0.0089999999999992
 30
0.0
 11
1.842599999999999
 21
-0.1829999999999996
 31
0.0
  0
LINE
  5
12E
330
1F
100
AcDbEntity
  8
898A1_SMT
  6
Continuous2
 62
     9
420
 12632256
370
   200
100
AcDbLine
 10
1.838999999999999
 20
-0.0089999999999992
 30
0.0
 11
1.838999999999999
 21
-0.1829999999999996
 31
0.0
  0
LINE
  5
12F
330
1F
100
AcDbEntity
  8
898A1_SMT
  6
Continuous2
 62
     9
420
 12632256
370
   200
100
AcDbLine
 10
1.8354
 20
-0.0089999999999992
 30
0.0
 11
1.8354
 21
-0.1829999999999996
 31
0.0
  0
LINE
  5
130
330
1F
100
AcDbEntity
  8
898A1_SMT
  6
Continuous2
 62
     9
420
 12632256
370
   200
100
AcDbLine
 10
1.831799999999999
 20
-0.0089999999999992
 30
0.0
 11
1.831799999999999
 21
-0.1829999999999996
 31
0.0
  0
LINE
  5
131
330
1F
100
AcDbEntity
  8
898A1_SMT
  6
Continuous2
 62
     9
420
 12632256
370
   200
100
AcDbLine
 10
1.828199999999999
 20
-0.0089999999999992
 30
0.0
 11
1.828199999999999
 21
-0.1829999999999996
 31
0.0
  0
LINE
  5
132
330
1F
100
AcDbEntity
  8
898A1_SMT
  6
Continuous2
 62
     9
420
 12632256
370
   200
100
AcDbLine
 10
1.8246
 20
-0.0089999999999992
 30
0.0
 11
1.8246
 21
-0.1829999999999996
 31
0.0
  0
LINE
  5
133
330
1F
100
AcDbEntity
  8
898A1_SMT
  6
Continuous2
 62
     9
420
 12632256
370
   200
100
AcDbLine
 10
1.821
 20
-0.0089999999999992
 30
0.0
 11
1.821
 21
-0.1829999999999996
 31
0.0
  0
LINE
  5
134
330
1F
100
AcDbEntity
  8
898A1_SMT
  6
Continuous2
 62
     9
420
 12632256
370
   200
100
AcDbLine
 10
1.817399999999999
 20
-0.0089999999999992
 30
0.0
 11
1.817399999999999
 21
-0.1829999999999996
 31
0.0
  0
LINE
  5
135
330
1F
100
AcDbEntity
  8
898A1_SMT
  6
Continuous2
 62
     9
420
 12632256
370
   200
100
AcDbLine
 10
1.813799999999999
 20
-0.0089999999999992
 30
0.0
 11
1.813799999999999
 21
-0.1829999999999996
 31
0.0
  0
LINE
  5
136
330
1F
100
AcDbEntity
  8
898A1_SMT
  6
Continuous2
 62
     9
420
 12632256
370
   200
100
AcDbLine
 10
1.8102
 20
-0.0089999999999992
 30
0.0
 11
1.8102
 21
-0.1829999999999996
 31
0.0
  0
LINE
  5
137
330
1F
100
AcDbEntity
  8
898A1_SMT
  6
Continuous2
 62
     9
420
 12632256
370
   200
100
AcDbLine
 10
1.8066
 20
-0.0089999999999992
 30
0.0
 11
1.8066
 21
-0.1829999999999996
 31
0.0
  0
LINE
  5
138
330
1F
100
AcDbEntity
  8
898A1_SMT
  6
Continuous2
 62
     9
420
 12632256
370
   200
100
AcDbLine
 10
1.802999999999999
 20
-0.0089999999999992
 30
0.0
 11
1.802999999999999
 21
-0.1829999999999996
 31
0.0
  0
LINE
  5
139
330
1F
100
AcDbEntity
  8
898A1_SMT
  6
Continuous2
 62
     9
420
 12632256
370
   200
100
AcDbLine
 10
1.799399999999999
 20
-0.0089999999999992
 30
0.0
 11
1.799399999999999
 21
-0.1829999999999996
 31
0.0
  0
LINE
  5
13A
330
1F
100
AcDbEntity
  8
898A1_SMT
  6
Continuous2
 62
     9
420
 12632256
370
   200
100
AcDbLine
 10
1.7958
 20
-0.0089999999999992
 30
0.0
 11
1.7958
 21
-0.1829999999999996
 31
0.0
  0
LINE
  5
13B
330
1F
100
AcDbEntity
  8
898A1_SMT
  6
Continuous2
 62
     9
420
 12632256
370
   200
100
AcDbLine
 10
1.792199999999999
 20
-0.0089999999999992
 30
0.0
 11
1.792199999999999
 21
-0.1829999999999996
 31
0.0
  0
LINE
  5
13C
330
1F
100
AcDbEntity
  8
898A1_SMT
  6
Continuous2
 62
     9
420
 12632256
370
   200
100
AcDbLine
 10
1.788599999999999
 20
-0.0089999999999992
 30
0.0
 11
1.788599999999999
 21
-0.1829999999999996
 31
0.0
  0
LINE
  5
13D
330
1F
100
AcDbEntity
  8
898A1_SMT
  6
Continuous2
 62
     9
420
 12632256
370
   200
100
AcDbLine
 10
1.785
 20
-0.0089999999999992
 30
0.0
 11
1.785
 21
-0.1829999999999996
 31
0.0
  0
LINE
  5
13E
330
1F
100
AcDbEntity
  8
898A1_SMT
  6
Continuous2
 62
     9
420
 12632256
370
   200
100
AcDbLine
 10
1.7814
 20
-0.0089999999999992
 30
0.0
 11
1.7814
 21
-0.1829999999999996
 31
0.0
  0
LINE
  5
13F
330
1F
100
AcDbEntity
  8
898A1_SMT
  6
Continuous2
 62
     9
420
 12632256
370
   200
100
AcDbLine
 10
1.777799999999999
 20
-0.0089999999999992
 30
0.0
 11
1.777799999999999
 21
-0.1829999999999996
 31
0.0
  0
LINE
  5
140
330
1F
100
AcDbEntity
  8
898A1_SMT
  6
Continuous2
 62
     9
420
 12632256
370
   200
100
AcDbLine
 10
1.774199999999999
 20
-0.0089999999999992
 30
0.0
 11
1.774199999999999
 21
-0.1829999999999996
 31
0.0
  0
LINE
  5
141
330
1F
100
AcDbEntity
  8
898A1_SMT
  6
Continuous2
 62
     9
420
 12632256
370
   200
100
AcDbLine
 10
1.7706
 20
-0.0089999999999992
 30
0.0
 11
1.7706
 21
-0.1829999999999996
 31
0.0
  0
LINE
  5
142
330
1F
100
AcDbEntity
  8
898A1_SMT
  6
Continuous2
 62
     9
420
 12632256
370
   200
100
AcDbLine
 10
1.766999999999999
 20
-0.0089999999999992
 30
0.0
 11
1.766999999999999
 21
-0.1829999999999996
 31
0.0
  0
LINE
  5
143
330
1F
100
AcDbEntity
  8
898A1_SMT
  6
Continuous2
 62
     9
420
 12632256
370
   200
100
AcDbLine
 10
1.763399999999999
 20
-0.0089999999999992
 30
0.0
 11
1.763399999999999
 21
-0.1829999999999996
 31
0.0
  0
LINE
  5
144
330
1F
100
AcDbEntity
  8
898A1_SMT
  6
Continuous2
 62
     9
420
 12632256
370
   200
100
AcDbLine
 10
1.759799999999998
 20
-0.0089999999999992
 30
0.0
 11
1.759799999999998
 21
-0.1829999999999996
 31
0.0
  0
LINE
  5
145
330
1F
100
AcDbEntity
  8
898A1_SMT
  6
Continuous2
 62
     9
420
 12632256
370
   200
100
AcDbLine
 10
1.7562
 20
-0.0089999999999992
 30
0.0
 11
1.7562
 21
-0.1829999999999996
 31
0.0
  0
LINE
  5
146
330
1F
100
AcDbEntity
  8
898A1_SMT
  6
Continuous2
 62
     9
420
 12632256
370
   200
100
AcDbLine
 10
1.752599999999999
 20
-0.0089999999999992
 30
0.0
 11
1.752599999999999
 21
-0.1829999999999996
 31
0.0
  0
LINE
  5
147
330
1F
100
AcDbEntity
  8
898A1_SMT
  6
Continuous2
 62
     9
420
 12632256
370
   200
100
AcDbLine
 10
1.748999999999999
 20
-0.0089999999999992
 30
0.0
 11
1.748999999999999
 21
-0.1829999999999996
 31
0.0
  0
LINE
  5
148
330
1F
100
AcDbEntity
  8
898A1_SMT
  6
Continuous2
 62
     9
420
 12632256
370
   200
100
AcDbLine
 10
1.7454
 20
-0.0093999999999992
 30
0.0
 11
1.7454
 21
-0.1829999999999996
 31
0.0
  0
LINE
  5
149
330
1F
100
AcDbEntity
  8
898A1_SMT
  6
Continuous2
 62
     9
420
 12632256
370
   200
100
AcDbLine
 10
1.7418
 20
-0.0129999999999997
 30
0.0
 11
1.7418
 21
-0.1829999999999996
 31
0.0
  0
LINE
  5
14A
330
1F
100
AcDbEntity
  8
898A1_SMT
  6
Continuous2
 62
     9
420
 12632256
370
   200
100
AcDbLine
 10
1.738199999999999
 20
-0.0165999999999993
 30
0.0
 11
1.738199999999999
 21
-0.1829999999999996
 31
0.0
  0
LINE
  5
14B
330
1F
100
AcDbEntity
  8
898A1_SMT
  6
Continuous2
 62
     9
420
 12632256
370
   200
100
AcDbLine
 10
1.734599999999999
 20
-0.0201999999999989
 30
0.0
 11
1.734599999999999
 21
-0.1829999999999996
 31
0.0
  0
LINE
  5
14C
330
1F
100
AcDbEntity
  8
898A1_SMT
  6
Continuous2
 62
     9
420
 12632256
370
   200
100
AcDbLine
 10
1.731
 20
-0.0237999999999994
 30
0.0
 11
1.731
 21
-0.1829999999999996
 31
0.0
  0
LINE
  5
14D
330
1F
100
AcDbEntity
  8
898A1_SMT
  6
Continuous2
 62
     9
420
 12632256
370
   200
100
AcDbLine
 10
1.727399999999999
 20
-0.027399999999999
 30
0.0
 11
1.727399999999999
 21
-0.1829999999999996
 31
0.0
  0
LINE
  5
14E
330
1F
100
AcDbEntity
  8
898A1_SMT
  6
Continuous2
 62
     9
420
 12632256
370
   200
100
AcDbLine
 10
1.723799999999999
 20
-0.0309999999999995
 30
0.0
 11
1.723799999999999
 21
-0.1829999999999996
 31
0.0
  0
LINE
  5
14F
330
1F
100
AcDbEntity
  8
898A1_SMT
  6
Continuous2
 62
     9
420
 12632256
370
   200
100
AcDbLine
 10
1.720199999999998
 20
-0.0345999999999991
 30
0.0
 11
1.720199999999998
 21
-0.1829999999999996
 31
0.0
  0
LINE
  5
150
330
1F
100
AcDbEntity
  8
898A1_SMT
  6
Continuous2
 62
     9
420
 12632256
370
   200
100
AcDbLine
 10
1.7166
 20
-0.0381999999999996
 30
0.0
 11
1.7166
 21
-0.1829999999999996
 31
0.0
  0
LINE
  5
151
330
1F
100
AcDbEntity
  8
898A1_SMT
  6
Continuous2
 62
     9
420
 12632256
370
   200
100
AcDbLine
 10
1.712999999999999
 20
-0.0417999999999992
 30
0.0
 11
1.712999999999999
 21
-0.1829999999999996
 31
0.0
  0
LINE
  5
152
330
1F
100
AcDbEntity
  8
898A1_SMT
  6
Continuous2
 62
     9
420
 12632256
370
   200
100
AcDbLine
 10
1.709399999999999
 20
-0.0453999999999988
 30
0.0
 11
1.709399999999999
 21
-0.1829999999999996
 31
0.0
  0
LINE
  5
153
330
1F
100
AcDbEntity
  8
898A1_SMT
  6
Continuous2
 62
     9
420
 12632256
370
   200
100
AcDbLine
 10
1.7058
 20
-0.0489999999999993
 30
0.0
 11
1.7058
 21
-0.1829999999999996
 31
0.0
  0
LINE
  5
154
330
1F
100
AcDbEntity
  8
898A1_SMT
  6
Continuous2
 62
     9
420
 12632256
370
   200
100
AcDbLine
 10
2.076799999999999
 20
-0.0097999999999991
 30
0.0
 11
1.744999999999999
 21
-0.0097999999999991
 31
0.0
  0
LINE
  5
155
330
1F
100
AcDbEntity
  8
898A1_SMT
  6
Continuous2
 62
     9
420
 12632256
370
   200
100
AcDbLine
 10
2.076799999999999
 20
-0.0133999999999987
 30
0.0
 11
1.741399999999999
 21
-0.0133999999999987
 31
0.0
  0
LINE
  5
156
330
1F
100
AcDbEntity
  8
898A1_SMT
  6
Continuous2
 62
     9
420
 12632256
370
   200
100
AcDbLine
 10
2.076799999999999
 20
-0.0169999999999992
 30
0.0
 11
1.7378
 21
-0.0169999999999992
 31
0.0
  0
LINE
  5
157
330
1F
100
AcDbEntity
  8
898A1_SMT
  6
Continuous2
 62
     9
420
 12632256
370
   200
100
AcDbLine
 10
2.076799999999999
 20
-0.0205999999999988
 30
0.0
 11
1.7342
 21
-0.0205999999999988
 31
0.0
  0
LINE
  5
158
330
1F
100
AcDbEntity
  8
898A1_SMT
  6
Continuous2
 62
     9
420
 12632256
370
   200
100
AcDbLine
 10
2.076799999999999
 20
-0.0241999999999993
 30
0.0
 11
1.730599999999999
 21
-0.0241999999999993
 31
0.0
  0
LINE
  5
159
330
1F
100
AcDbEntity
  8
898A1_SMT
  6
Continuous2
 62
     9
420
 12632256
370
   200
100
AcDbLine
 10
2.076799999999999
 20
-0.0277999999999989
 30
0.0
 11
1.727
 21
-0.0277999999999989
 31
0.0
  0
LINE
  5
15A
330
1F
100
AcDbEntity
  8
898A1_SMT
  6
Continuous2
 62
     9
420
 12632256
370
   200
100
AcDbLine
 10
2.076799999999999
 20
-0.0313999999999994
 30
0.0
 11
1.7234
 21
-0.0313999999999994
 31
0.0
  0
LINE
  5
15B
330
1F
100
AcDbEntity
  8
898A1_SMT
  6
Continuous2
 62
     9
420
 12632256
370
   200
100
AcDbLine
 10
2.076799999999999
 20
-0.034999999999999
 30
0.0
 11
1.719799999999999
 21
-0.034999999999999
 31
0.0
  0
LINE
  5
15C
330
1F
100
AcDbEntity
  8
898A1_SMT
  6
Continuous2
 62
     9
420
 12632256
370
   200
100
AcDbLine
 10
2.076799999999999
 20
-0.0385999999999986
 30
0.0
 11
1.716199999999999
 21
-0.0385999999999986
 31
0.0
  0
LINE
  5
15D
330
1F
100
AcDbEntity
  8
898A1_SMT
  6
Continuous2
 62
     9
420
 12632256
370
   200
100
AcDbLine
 10
2.076799999999999
 20
-0.0421999999999991
 30
0.0
 11
1.712599999999998
 21
-0.0421999999999991
 31
0.0
  0
LINE
  5
15E
330
1F
100
AcDbEntity
  8
898A1_SMT
  6
Continuous2
 62
     9
420
 12632256
370
   200
100
AcDbLine
 10
2.076799999999999
 20
-0.0457999999999996
 30
0.0
 11
1.709
 21
-0.0457999999999996
 31
0.0
  0
LINE
  5
15F
330
1F
100
AcDbEntity
  8
898A1_SMT
  6
Continuous2
 62
     9
420
 12632256
370
   200
100
AcDbLine
 10
2.076799999999999
 20
-0.0493999999999992
 30
0.0
 11
1.705399999999999
 21
-0.0493999999999992
 31
0.0
  0
LINE
  5
160
330
1F
100
AcDbEntity
  8
898A1_SMT
  6
Continuous2
 62
     9
420
 12632256
370
   200
100
AcDbLine
 10
2.076799999999999
 20
-0.0529999999999988
 30
0.0
 11
1.701799999999999
 21
-0.0529999999999988
 31
0.0
  0
LINE
  5
161
330
1F
100
AcDbEntity
  8
898A1_SMT
  6
Continuous2
 62
     9
420
 12632256
370
   200
100
AcDbLine
 10
2.076799999999999
 20
-0.0565999999999993
 30
0.0
 11
1.701799999999999
 21
-0.0565999999999993
 31
0.0
  0
LINE
  5
162
330
1F
100
AcDbEntity
  8
898A1_SMT
  6
Continuous2
 62
     9
420
 12632256
370
   200
100
AcDbLine
 10
2.076799999999999
 20
-0.0601999999999989
 30
0.0
 11
1.701799999999999
 21
-0.0601999999999989
 31
0.0
  0
LINE
  5
163
330
1F
100
AcDbEntity
  8
898A1_SMT
  6
Continuous2
 62
     9
420
 12632256
370
   200
100
AcDbLine
 10
2.076799999999999
 20
-0.0637999999999994
 30
0.0
 11
1.701799999999999
 21
-0.0637999999999994
 31
0.0
  0
LINE
  5
164
330
1F
100
AcDbEntity
  8
898A1_SMT
  6
Continuous2
 62
     9
420
 12632256
370
   200
100
AcDbLine
 10
2.076799999999999
 20
-0.067399999999999
 30
0.0
 11
1.701799999999999
 21
-0.067399999999999
 31
0.0
  0
LINE
  5
165
330
1F
100
AcDbEntity
  8
898A1_SMT
  6
Continuous2
 62
     9
420
 12632256
370
   200
100
AcDbLine
 10
2.076799999999999
 20
-0.0709999999999995
 30
0.0
 11
1.701799999999999
 21
-0.0709999999999995
 31
0.0
  0
LINE
  5
166
330
1F
100
AcDbEntity
  8
898A1_SMT
  6
Continuous2
 62
     9
420
 12632256
370
   200
100
AcDbLine
 10
2.076799999999999
 20
-0.0745999999999991
 30
0.0
 11
1.701799999999999
 21
-0.0745999999999991
 31
0.0
  0
LINE
  5
167
330
1F
100
AcDbEntity
  8
898A1_SMT
  6
Continuous2
 62
     9
420
 12632256
370
   200
100
AcDbLine
 10
2.076799999999999
 20
-0.0781999999999987
 30
0.0
 11
1.701799999999999
 21
-0.0781999999999987
 31
0.0
  0
LINE
  5
168
330
1F
100
AcDbEntity
  8
898A1_SMT
  6
Continuous2
 62
     9
420
 12632256
370
   200
100
AcDbLine
 10
2.076799999999999
 20
-0.0817999999999992
 30
0.0
 11
1.701799999999999
 21
-0.0817999999999992
 31
0.0
  0
LINE
  5
169
330
1F
100
AcDbEntity
  8
898A1_SMT
  6
Continuous2
 62
     9
420
 12632256
370
   200
100
AcDbLine
 10
2.076799999999999
 20
-0.0853999999999997
 30
0.0
 11
1.701799999999999
 21
-0.0853999999999997
 31
0.0
  0
LINE
  5
16A
330
1F
100
AcDbEntity
  8
898A1_SMT
  6
Continuous2
 62
     9
420
 12632256
370
   200
100
AcDbLine
 10
2.076799999999999
 20
-0.0889999999999993
 30
0.0
 11
1.701799999999999
 21
-0.0889999999999993
 31
0.0
  0
LINE
  5
16B
330
1F
100
AcDbEntity
  8
898A1_SMT
  6
Continuous2
 62
     9
420
 12632256
370
   200
100
AcDbLine
 10
2.076799999999999
 20
-0.0925999999999989
 30
0.0
 11
1.701799999999999
 21
-0.0925999999999989
 31
0.0
  0
LINE
  5
16C
330
1F
100
AcDbEntity
  8
898A1_SMT
  6
Continuous2
 62
     9
420
 12632256
370
   200
100
AcDbLine
 10
2.076799999999999
 20
-0.0961999999999994
 30
0.0
 11
1.701799999999999
 21
-0.0961999999999994
 31
0.0
  0
LINE
  5
16D
330
1F
100
AcDbEntity
  8
898A1_SMT
  6
Continuous2
 62
     9
420
 12632256
370
   200
100
AcDbLine
 10
2.076799999999999
 20
-0.099799999999999
 30
0.0
 11
1.701799999999999
 21
-0.099799999999999
 31
0.0
  0
LINE
  5
16E
330
1F
100
AcDbEntity
  8
898A1_SMT
  6
Continuous2
 62
     9
420
 12632256
370
   200
100
AcDbLine
 10
2.076799999999999
 20
-0.1033999999999995
 30
0.0
 11
1.701799999999999
 21
-0.1033999999999995
 31
0.0
  0
LINE
  5
16F
330
1F
100
AcDbEntity
  8
898A1_SMT
  6
Continuous2
 62
     9
420
 12632256
370
   200
100
AcDbLine
 10
2.076799999999999
 20
-0.1069999999999991
 30
0.0
 11
1.701799999999999
 21
-0.1069999999999991
 31
0.0
  0
LINE
  5
170
330
1F
100
AcDbEntity
  8
898A1_SMT
  6
Continuous2
 62
     9
420
 12632256
370
   200
100
AcDbLine
 10
2.076799999999999
 20
-0.1105999999999996
 30
0.0
 11
1.701799999999999
 21
-0.1105999999999996
 31
0.0
  0
LINE
  5
171
330
1F
100
AcDbEntity
  8
898A1_SMT
  6
Continuous2
 62
     9
420
 12632256
370
   200
100
AcDbLine
 10
2.076799999999999
 20
-0.1141999999999992
 30
0.0
 11
1.701799999999999
 21
-0.1141999999999992
 31
0.0
  0
LINE
  5
172
330
1F
100
AcDbEntity
  8
898A1_SMT
  6
Continuous2
 62
     9
420
 12632256
370
   200
100
AcDbLine
 10
2.076799999999999
 20
-0.1177999999999988
 30
0.0
 11
1.701799999999999
 21
-0.1177999999999988
 31
0.0
  0
LINE
  5
173
330
1F
100
AcDbEntity
  8
898A1_SMT
  6
Continuous2
 62
     9
420
 12632256
370
   200
100
AcDbLine
 10
2.076799999999999
 20
-0.1213999999999993
 30
0.0
 11
1.701799999999999
 21
-0.1213999999999993
 31
0.0
  0
LINE
  5
174
330
1F
100
AcDbEntity
  8
898A1_SMT
  6
Continuous2
 62
     9
420
 12632256
370
   200
100
AcDbLine
 10
2.076799999999999
 20
-0.1249999999999989
 30
0.0
 11
1.701799999999999
 21
-0.1249999999999989
 31
0.0
  0
LINE
  5
175
330
1F
100
AcDbEntity
  8
898A1_SMT
  6
Continuous2
 62
     9
420
 12632256
370
   200
100
AcDbLine
 10
2.076799999999999
 20
-0.1285999999999994
 30
0.0
 11
1.701799999999999
 21
-0.1285999999999994
 31
0.0
  0
LINE
  5
176
330
1F
100
AcDbEntity
  8
898A1_SMT
  6
Continuous2
 62
     9
420
 12632256
370
   200
100
AcDbLine
 10
2.076799999999999
 20
-0.132199999999999
 30
0.0
 11
1.701799999999999
 21
-0.132199999999999
 31
0.0
  0
LINE
  5
177
330
1F
100
AcDbEntity
  8
898A1_SMT
  6
Continuous2
 62
     9
420
 12632256
370
   200
100
AcDbLine
 10
2.076799999999999
 20
-0.1357999999999995
 30
0.0
 11
1.701799999999999
 21
-0.1357999999999995
 31
0.0
  0
LINE
  5
178
330
1F
100
AcDbEntity
  8
898A1_SMT
  6
Continuous2
 62
     9
420
 12632256
370
   200
100
AcDbLine
 10
2.076799999999999
 20
-0.1393999999999991
 30
0.0
 11
1.701799999999999
 21
-0.1393999999999991
 31
0.0
  0
LINE
  5
179
330
1F
100
AcDbEntity
  8
898A1_SMT
  6
Continuous2
 62
     9
420
 12632256
370
   200
100
AcDbLine
 10
2.076799999999999
 20
-0.1429999999999987
 30
0.0
 11
1.701799999999999
 21
-0.1429999999999987
 31
0.0
  0
LINE
  5
17A
330
1F
100
AcDbEntity
  8
898A1_SMT
  6
Continuous2
 62
     9
420
 12632256
370
   200
100
AcDbLine
 10
2.076799999999999
 20
-0.1465999999999992
 30
0.0
 11
1.701799999999999
 21
-0.1465999999999992
 31
0.0
  0
LINE
  5
17B
330
1F
100
AcDbEntity
  8
898A1_SMT
  6
Continuous2
 62
     9
420
 12632256
370
   200
100
AcDbLine
 10
2.076799999999999
 20
-0.1501999999999997
 30
0.0
 11
1.701799999999999
 21
-0.1501999999999997
 31
0.0
  0
LINE
  5
17C
330
1F
100
AcDbEntity
  8
898A1_SMT
  6
Continuous2
 62
     9
420
 12632256
370
   200
100
AcDbLine
 10
2.076799999999999
 20
-0.1537999999999993
 30
0.0
 11
1.701799999999999
 21
-0.1537999999999993
 31
0.0
  0
LINE
  5
17D
330
1F
100
AcDbEntity
  8
898A1_SMT
  6
Continuous2
 62
     9
420
 12632256
370
   200
100
AcDbLine
 10
2.076799999999999
 20
-0.1573999999999989
 30
0.0
 11
1.701799999999999
 21
-0.1573999999999989
 31
0.0
  0
LINE
  5
17E
330
1F
100
AcDbEntity
  8
898A1_SMT
  6
Continuous2
 62
     9
420
 12632256
370
   200
100
AcDbLine
 10
2.076799999999999
 20
-0.1609999999999994
 30
0.0
 11
1.701799999999999
 21
-0.1609999999999994
 31
0.0
  0
LINE
  5
17F
330
1F
100
AcDbEntity
  8
898A1_SMT
  6
Continuous2
 62
     9
420
 12632256
370
   200
100
AcDbLine
 10
2.076799999999999
 20
-0.164599999999999
 30
0.0
 11
1.701799999999999
 21
-0.164599999999999
 31
0.0
  0
LINE
  5
180
330
1F
100
AcDbEntity
  8
898A1_SMT
  6
Continuous2
 62
     9
420
 12632256
370
   200
100
AcDbLine
 10
2.076799999999999
 20
-0.1681999999999995
 30
0.0
 11
1.701799999999999
 21
-0.1681999999999995
 31
0.0
  0
LINE
  5
181
330
1F
100
AcDbEntity
  8
898A1_SMT
  6
Continuous2
 62
     9
420
 12632256
370
   200
100
AcDbLine
 10
2.076799999999999
 20
-0.1717999999999991
 30
0.0
 11
1.701799999999999
 21
-0.1717999999999991
 31
0.0
  0
LINE
  5
182
330
1F
100
AcDbEntity
  8
898A1_SMT
  6
Continuous2
 62
     9
420
 12632256
370
   200
100
AcDbLine
 10
2.076799999999999
 20
-0.1753999999999996
 30
0.0
 11
1.701799999999999
 21
-0.1753999999999996
 31
0.0
  0
LINE
  5
183
330
1F
100
AcDbEntity
  8
898A1_SMT
  6
Continuous2
 62
     9
420
 12632256
370
   200
100
AcDbLine
 10
2.076799999999999
 20
-0.1789999999999992
 30
0.0
 11
1.701799999999999
 21
-0.1789999999999992
 31
0.0
  0
LINE
  5
184
330
1F
100
AcDbEntity
  8
898A1_SMT
  6
Continuous2
 62
     9
420
 12632256
370
   200
100
AcDbLine
 10
2.076799999999999
 20
0.1830000000000009
 30
0.0
 11
2.076799999999999
 21
0.0080000000000011
 31
0.0
  0
LINE
  5
185
330
1F
100
AcDbEntity
  8
898A1_SMT
  6
Continuous2
 62
     9
420
 12632256
370
   200
100
AcDbLine
 10
2.076799999999999
 20
0.0080000000000011
 30
0.0
 11
1.749799999999999
 21
0.0080000000000011
 31
0.0
  0
LINE
  5
186
330
1F
100
AcDbEntity
  8
898A1_SMT
  6
Continuous2
 62
     9
420
 12632256
370
   200
100
AcDbLine
 10
1.701799999999999
 20
0.0560000000000012
 30
0.0
 11
1.749799999999999
 21
0.0080000000000011
 31
0.0
  0
LINE
  5
187
330
1F
100
AcDbEntity
  8
898A1_SMT
  6
Continuous2
 62
     9
420
 12632256
370
   200
100
AcDbLine
 10
1.701799999999999
 20
0.1830000000000009
 30
0.0
 11
1.701799999999999
 21
0.0560000000000012
 31
0.0
  0
LINE
  5
188
330
1F
100
AcDbEntity
  8
898A1_SMT
  6
Continuous2
 62
     9
420
 12632256
370
   200
100
AcDbLine
 10
2.076799999999999
 20
0.1830000000000009
 30
0.0
 11
1.701799999999999
 21
0.1830000000000009
 31
0.0
  0
LINE
  5
189
330
1F
100
AcDbEntity
  8
898A1_SMT
  6
Continuous2
 62
     9
420
 12632256
370
   200
100
AcDbLine
 10
2.073
 20
0.1830000000000009
 30
0.0
 11
2.073
 21
0.0080000000000011
 31
0.0
  0
LINE
  5
18A
330
1F
100
AcDbEntity
  8
898A1_SMT
  6
Continuous2
 62
     9
420
 12632256
370
   200
100
AcDbLine
 10
2.0694
 20
0.1830000000000009
 30
0.0
 11
2.0694
 21
0.0080000000000011
 31
0.0
  0
LINE
  5
18B
330
1F
100
AcDbEntity
  8
898A1_SMT
  6
Continuous2
 62
     9
420
 12632256
370
   200
100
AcDbLine
 10
2.065799999999999
 20
0.1830000000000009
 30
0.0
 11
2.065799999999999
 21
0.0080000000000011
 31
0.0
  0
LINE
  5
18C
330
1F
100
AcDbEntity
  8
898A1_SMT
  6
Continuous2
 62
     9
420
 12632256
370
   200
100
AcDbLine
 10
2.062199999999999
 20
0.1830000000000009
 30
0.0
 11
2.062199999999999
 21
0.0080000000000011
 31
0.0
  0
LINE
  5
18D
330
1F
100
AcDbEntity
  8
898A1_SMT
  6
Continuous2
 62
     9
420
 12632256
370
   200
100
AcDbLine
 10
2.058599999999998
 20
0.1830000000000009
 30
0.0
 11
2.058599999999998
 21
0.0080000000000011
 31
0.0
  0
LINE
  5
18E
330
1F
100
AcDbEntity
  8
898A1_SMT
  6
Continuous2
 62
     9
420
 12632256
370
   200
100
AcDbLine
 10
2.055
 20
0.1830000000000009
 30
0.0
 11
2.055
 21
0.0080000000000011
 31
0.0
  0
LINE
  5
18F
330
1F
100
AcDbEntity
  8
898A1_SMT
  6
Continuous2
 62
     9
420
 12632256
370
   200
100
AcDbLine
 10
2.051399999999999
 20
0.1830000000000009
 30
0.0
 11
2.051399999999999
 21
0.0080000000000011
 31
0.0
  0
LINE
  5
190
330
1F
100
AcDbEntity
  8
898A1_SMT
  6
Continuous2
 62
     9
420
 12632256
370
   200
100
AcDbLine
 10
2.047799999999999
 20
0.1830000000000009
 30
0.0
 11
2.047799999999999
 21
0.0080000000000011
 31
0.0
  0
LINE
  5
191
330
1F
100
AcDbEntity
  8
898A1_SMT
  6
Continuous2
 62
     9
420
 12632256
370
   200
100
AcDbLine
 10
2.0442
 20
0.1830000000000009
 30
0.0
 11
2.0442
 21
0.0080000000000011
 31
0.0
  0
LINE
  5
192
330
1F
100
AcDbEntity
  8
898A1_SMT
  6
Continuous2
 62
     9
420
 12632256
370
   200
100
AcDbLine
 10
2.0406
 20
0.1830000000000009
 30
0.0
 11
2.0406
 21
0.0080000000000011
 31
0.0
  0
LINE
  5
193
330
1F
100
AcDbEntity
  8
898A1_SMT
  6
Continuous2
 62
     9
420
 12632256
370
   200
100
AcDbLine
 10
2.036999999999999
 20
0.1830000000000009
 30
0.0
 11
2.036999999999999
 21
0.0080000000000011
 31
0.0
  0
LINE
  5
194
330
1F
100
AcDbEntity
  8
898A1_SMT
  6
Continuous2
 62
     9
420
 12632256
370
   200
100
AcDbLine
 10
2.0334
 20
0.1830000000000009
 30
0.0
 11
2.0334
 21
0.0080000000000011
 31
0.0
  0
LINE
  5
195
330
1F
100
AcDbEntity
  8
898A1_SMT
  6
Continuous2
 62
     9
420
 12632256
370
   200
100
AcDbLine
 10
2.0298
 20
0.1830000000000009
 30
0.0
 11
2.0298
 21
0.0080000000000011
 31
0.0
  0
LINE
  5
196
330
1F
100
AcDbEntity
  8
898A1_SMT
  6
Continuous2
 62
     9
420
 12632256
370
   200
100
AcDbLine
 10
2.026199999999999
 20
0.1830000000000009
 30
0.0
 11
2.026199999999999
 21
0.0080000000000011
 31
0.0
  0
LINE
  5
197
330
1F
100
AcDbEntity
  8
898A1_SMT
  6
Continuous2
 62
     9
420
 12632256
370
   200
100
AcDbLine
 10
2.022599999999999
 20
0.1830000000000009
 30
0.0
 11
2.022599999999999
 21
0.0080000000000011
 31
0.0
  0
LINE
  5
198
330
1F
100
AcDbEntity
  8
898A1_SMT
  6
Continuous2
 62
     9
420
 12632256
370
   200
100
AcDbLine
 10
2.018999999999998
 20
0.1830000000000009
 30
0.0
 11
2.018999999999998
 21
0.0080000000000011
 31
0.0
  0
LINE
  5
199
330
1F
100
AcDbEntity
  8
898A1_SMT
  6
Continuous2
 62
     9
420
 12632256
370
   200
100
AcDbLine
 10
2.0154
 20
0.1830000000000009
 30
0.0
 11
2.0154
 21
0.0080000000000011
 31
0.0
  0
LINE
  5
19A
330
1F
100
AcDbEntity
  8
898A1_SMT
  6
Continuous2
 62
     9
420
 12632256
370
   200
100
AcDbLine
 10
2.011799999999999
 20
0.1830000000000009
 30
0.0
 11
2.011799999999999
 21
0.0080000000000011
 31
0.0
  0
LINE
  5
19B
330
1F
100
AcDbEntity
  8
898A1_SMT
  6
Continuous2
 62
     9
420
 12632256
370
   200
100
AcDbLine
 10
2.008199999999999
 20
0.1830000000000009
 30
0.0
 11
2.008199999999999
 21
0.0080000000000011
 31
0.0
  0
LINE
  5
19C
330
1F
100
AcDbEntity
  8
898A1_SMT
  6
Continuous2
 62
     9
420
 12632256
370
   200
100
AcDbLine
 10
2.0046
 20
0.1830000000000009
 30
0.0
 11
2.0046
 21
0.0080000000000011
 31
0.0
  0
LINE
  5
19D
330
1F
100
AcDbEntity
  8
898A1_SMT
  6
Continuous2
 62
     9
420
 12632256
370
   200
100
AcDbLine
 10
2.000999999999999
 20
0.1830000000000009
 30
0.0
 11
2.000999999999999
 21
0.0080000000000011
 31
0.0
  0
LINE
  5
19E
330
1F
100
AcDbEntity
  8
898A1_SMT
  6
Continuous2
 62
     9
420
 12632256
370
   200
100
AcDbLine
 10
1.997399999999999
 20
0.1830000000000009
 30
0.0
 11
1.997399999999999
 21
0.0080000000000011
 31
0.0
  0
LINE
  5
19F
330
1F
100
AcDbEntity
  8
898A1_SMT
  6
Continuous2
 62
     9
420
 12632256
370
   200
100
AcDbLine
 10
1.9938
 20
0.1830000000000009
 30
0.0
 11
1.9938
 21
0.0080000000000011
 31
0.0
  0
LINE
  5
1A0
330
1F
100
AcDbEntity
  8
898A1_SMT
  6
Continuous2
 62
     9
420
 12632256
370
   200
100
AcDbLine
 10
1.9902
 20
0.1830000000000009
 30
0.0
 11
1.9902
 21
0.0080000000000011
 31
0.0
  0
LINE
  5
1A1
330
1F
100
AcDbEntity
  8
898A1_SMT
  6
Continuous2
 62
     9
420
 12632256
370
   200
100
AcDbLine
 10
1.986599999999999
 20
0.1830000000000009
 30
0.0
 11
1.986599999999999
 21
0.0080000000000011
 31
0.0
  0
LINE
  5
1A2
330
1F
100
AcDbEntity
  8
898A1_SMT
  6
Continuous2
 62
     9
420
 12632256
370
   200
100
AcDbLine
 10
1.982999999999999
 20
0.1830000000000009
 30
0.0
 11
1.982999999999999
 21
0.0080000000000011
 31
0.0
  0
LINE
  5
1A3
330
1F
100
AcDbEntity
  8
898A1_SMT
  6
Continuous2
 62
     9
420
 12632256
370
   200
100
AcDbLine
 10
1.979399999999998
 20
0.1830000000000009
 30
0.0
 11
1.979399999999998
 21
0.0080000000000011
 31
0.0
  0
LINE
  5
1A4
330
1F
100
AcDbEntity
  8
898A1_SMT
  6
Continuous2
 62
     9
420
 12632256
370
   200
100
AcDbLine
 10
1.9758
 20
0.1830000000000009
 30
0.0
 11
1.9758
 21
0.0080000000000011
 31
0.0
  0
LINE
  5
1A5
330
1F
100
AcDbEntity
  8
898A1_SMT
  6
Continuous2
 62
     9
420
 12632256
370
   200
100
AcDbLine
 10
1.972199999999999
 20
0.1830000000000009
 30
0.0
 11
1.972199999999999
 21
0.0080000000000011
 31
0.0
  0
LINE
  5
1A6
330
1F
100
AcDbEntity
  8
898A1_SMT
  6
Continuous2
 62
     9
420
 12632256
370
   200
100
AcDbLine
 10
1.968599999999999
 20
0.1830000000000009
 30
0.0
 11
1.968599999999999
 21
0.0080000000000011
 31
0.0
  0
LINE
  5
1A7
330
1F
100
AcDbEntity
  8
898A1_SMT
  6
Continuous2
 62
     9
420
 12632256
370
   200
100
AcDbLine
 10
1.965
 20
0.1830000000000009
 30
0.0
 11
1.965
 21
0.0080000000000011
 31
0.0
  0
LINE
  5
1A8
330
1F
100
AcDbEntity
  8
898A1_SMT
  6
Continuous2
 62
     9
420
 12632256
370
   200
100
AcDbLine
 10
1.961399999999999
 20
0.1830000000000009
 30
0.0
 11
1.961399999999999
 21
0.0080000000000011
 31
0.0
  0
LINE
  5
1A9
330
1F
100
AcDbEntity
  8
898A1_SMT
  6
Continuous2
 62
     9
420
 12632256
370
   200
100
AcDbLine
 10
1.957799999999999
 20
0.1830000000000009
 30
0.0
 11
1.957799999999999
 21
0.0080000000000011
 31
0.0
  0
LINE
  5
1AA
330
1F
100
AcDbEntity
  8
898A1_SMT
  6
Continuous2
 62
     9
420
 12632256
370
   200
100
AcDbLine
 10
1.9542
 20
0.1830000000000009
 30
0.0
 11
1.9542
 21
0.0080000000000011
 31
0.0
  0
LINE
  5
1AB
330
1F
100
AcDbEntity
  8
898A1_SMT
  6
Continuous2
 62
     9
420
 12632256
370
   200
100
AcDbLine
 10
1.9506
 20
0.1830000000000009
 30
0.0
 11
1.9506
 21
0.0080000000000011
 31
0.0
  0
LINE
  5
1AC
330
1F
100
AcDbEntity
  8
898A1_SMT
  6
Continuous2
 62
     9
420
 12632256
370
   200
100
AcDbLine
 10
1.946999999999999
 20
0.1830000000000009
 30
0.0
 11
1.946999999999999
 21
0.0080000000000011
 31
0.0
  0
LINE
  5
1AD
330
1F
100
AcDbEntity
  8
898A1_SMT
  6
Continuous2
 62
     9
420
 12632256
370
   200
100
AcDbLine
 10
1.943399999999999
 20
0.1830000000000009
 30
0.0
 11
1.943399999999999
 21
0.0080000000000011
 31
0.0
  0
LINE
  5
1AE
330
1F
100
AcDbEntity
  8
898A1_SMT
  6
Continuous2
 62
     9
420
 12632256
370
   200
100
AcDbLine
 10
1.9398
 20
0.1830000000000009
 30
0.0
 11
1.9398
 21
0.0080000000000011
 31
0.0
  0
LINE
  5
1AF
330
1F
100
AcDbEntity
  8
898A1_SMT
  6
Continuous2
 62
     9
420
 12632256
370
   200
100
AcDbLine
 10
1.936199999999999
 20
0.1830000000000009
 30
0.0
 11
1.936199999999999
 21
0.0080000000000011
 31
0.0
  0
LINE
  5
1B0
330
1F
100
AcDbEntity
  8
898A1_SMT
  6
Continuous2
 62
     9
420
 12632256
370
   200
100
AcDbLine
 10
1.932599999999999
 20
0.1830000000000009
 30
0.0
 11
1.932599999999999
 21
0.0080000000000011
 31
0.0
  0
LINE
  5
1B1
330
1F
100
AcDbEntity
  8
898A1_SMT
  6
Continuous2
 62
     9
420
 12632256
370
   200
100
AcDbLine
 10
1.928999999999998
 20
0.1830000000000009
 30
0.0
 11
1.928999999999998
 21
0.0080000000000011
 31
0.0
  0
LINE
  5
1B2
330
1F
100
AcDbEntity
  8
898A1_SMT
  6
Continuous2
 62
     9
420
 12632256
370
   200
100
AcDbLine
 10
1.9254
 20
0.1830000000000009
 30
0.0
 11
1.9254
 21
0.0080000000000011
 31
0.0
  0
LINE
  5
1B3
330
1F
100
AcDbEntity
  8
898A1_SMT
  6
Continuous2
 62
     9
420
 12632256
370
   200
100
AcDbLine
 10
1.921799999999999
 20
0.1830000000000009
 30
0.0
 11
1.921799999999999
 21
0.0080000000000011
 31
0.0
  0
LINE
  5
1B4
330
1F
100
AcDbEntity
  8
898A1_SMT
  6
Continuous2
 62
     9
420
 12632256
370
   200
100
AcDbLine
 10
1.918199999999999
 20
0.1830000000000009
 30
0.0
 11
1.918199999999999
 21
0.0080000000000011
 31
0.0
  0
LINE
  5
1B5
330
1F
100
AcDbEntity
  8
898A1_SMT
  6
Continuous2
 62
     9
420
 12632256
370
   200
100
AcDbLine
 10
1.9146
 20
0.1830000000000009
 30
0.0
 11
1.9146
 21
0.0080000000000011
 31
0.0
  0
LINE
  5
1B6
330
1F
100
AcDbEntity
  8
898A1_SMT
  6
Continuous2
 62
     9
420
 12632256
370
   200
100
AcDbLine
 10
1.911
 20
0.1830000000000009
 30
0.0
 11
1.911
 21
0.0080000000000011
 31
0.0
  0
LINE
  5
1B7
330
1F
100
AcDbEntity
  8
898A1_SMT
  6
Continuous2
 62
     9
420
 12632256
370
   200
100
AcDbLine
 10
1.907399999999999
 20
0.1830000000000009
 30
0.0
 11
1.907399999999999
 21
0.0080000000000011
 31
0.0
  0
LINE
  5
1B8
330
1F
100
AcDbEntity
  8
898A1_SMT
  6
Continuous2
 62
     9
420
 12632256
370
   200
100
AcDbLine
 10
1.903799999999999
 20
0.1830000000000009
 30
0.0
 11
1.903799999999999
 21
0.0080000000000011
 31
0.0
  0
LINE
  5
1B9
330
1F
100
AcDbEntity
  8
898A1_SMT
  6
Continuous2
 62
     9
420
 12632256
370
   200
100
AcDbLine
 10
1.9002
 20
0.1830000000000009
 30
0.0
 11
1.9002
 21
0.0080000000000011
 31
0.0
  0
LINE
  5
1BA
330
1F
100
AcDbEntity
  8
898A1_SMT
  6
Continuous2
 62
     9
420
 12632256
370
   200
100
AcDbLine
 10
1.896599999999999
 20
0.1830000000000009
 30
0.0
 11
1.896599999999999
 21
0.0080000000000011
 31
0.0
  0
LINE
  5
1BB
330
1F
100
AcDbEntity
  8
898A1_SMT
  6
Continuous2
 62
     9
420
 12632256
370
   200
100
AcDbLine
 10
1.892999999999999
 20
0.1830000000000009
 30
0.0
 11
1.892999999999999
 21
0.0080000000000011
 31
0.0
  0
LINE
  5
1BC
330
1F
100
AcDbEntity
  8
898A1_SMT
  6
Continuous2
 62
     9
420
 12632256
370
   200
100
AcDbLine
 10
1.889399999999998
 20
0.1830000000000009
 30
0.0
 11
1.889399999999998
 21
0.0080000000000011
 31
0.0
  0
LINE
  5
1BD
330
1F
100
AcDbEntity
  8
898A1_SMT
  6
Continuous2
 62
     9
420
 12632256
370
   200
100
AcDbLine
 10
1.8858
 20
0.1830000000000009
 30
0.0
 11
1.8858
 21
0.0080000000000011
 31
0.0
  0
LINE
  5
1BE
330
1F
100
AcDbEntity
  8
898A1_SMT
  6
Continuous2
 62
     9
420
 12632256
370
   200
100
AcDbLine
 10
1.882199999999999
 20
0.1830000000000009
 30
0.0
 11
1.882199999999999
 21
0.0080000000000011
 31
0.0
  0
LINE
  5
1BF
330
1F
100
AcDbEntity
  8
898A1_SMT
  6
Continuous2
 62
     9
420
 12632256
370
   200
100
AcDbLine
 10
1.878599999999999
 20
0.1830000000000009
 30
0.0
 11
1.878599999999999
 21
0.0080000000000011
 31
0.0
  0
LINE
  5
1C0
330
1F
100
AcDbEntity
  8
898A1_SMT
  6
Continuous2
 62
     9
420
 12632256
370
   200
100
AcDbLine
 10
1.875
 20
0.1830000000000009
 30
0.0
 11
1.875
 21
0.0080000000000011
 31
0.0
  0
LINE
  5
1C1
330
1F
100
AcDbEntity
  8
898A1_SMT
  6
Continuous2
 62
     9
420
 12632256
370
   200
100
AcDbLine
 10
1.8714
 20
0.1830000000000009
 30
0.0
 11
1.8714
 21
0.0080000000000011
 31
0.0
  0
LINE
  5
1C2
330
1F
100
AcDbEntity
  8
898A1_SMT
  6
Continuous2
 62
     9
420
 12632256
370
   200
100
AcDbLine
 10
1.867799999999999
 20
0.1830000000000009
 30
0.0
 11
1.867799999999999
 21
0.0080000000000011
 31
0.0
  0
LINE
  5
1C3
330
1F
100
AcDbEntity
  8
898A1_SMT
  6
Continuous2
 62
     9
420
 12632256
370
   200
100
AcDbLine
 10
1.8642
 20
0.1830000000000009
 30
0.0
 11
1.8642
 21
0.0080000000000011
 31
0.0
  0
LINE
  5
1C4
330
1F
100
AcDbEntity
  8
898A1_SMT
  6
Continuous2
 62
     9
420
 12632256
370
   200
100
AcDbLine
 10
1.8606
 20
0.1830000000000009
 30
0.0
 11
1.8606
 21
0.0080000000000011
 31
0.0
  0
LINE
  5
1C5
330
1F
100
AcDbEntity
  8
898A1_SMT
  6
Continuous2
 62
     9
420
 12632256
370
   200
100
AcDbLine
 10
1.856999999999999
 20
0.1830000000000009
 30
0.0
 11
1.856999999999999
 21
0.0080000000000011
 31
0.0
  0
LINE
  5
1C6
330
1F
100
AcDbEntity
  8
898A1_SMT
  6
Continuous2
 62
     9
420
 12632256
370
   200
100
AcDbLine
 10
1.853399999999999
 20
0.1830000000000009
 30
0.0
 11
1.853399999999999
 21
0.0080000000000011
 31
0.0
  0
LINE
  5
1C7
330
1F
100
AcDbEntity
  8
898A1_SMT
  6
Continuous2
 62
     9
420
 12632256
370
   200
100
AcDbLine
 10
1.849799999999998
 20
0.1830000000000009
 30
0.0
 11
1.849799999999998
 21
0.0080000000000011
 31
0.0
  0
LINE
  5
1C8
330
1F
100
AcDbEntity
  8
898A1_SMT
  6
Continuous2
 62
     9
420
 12632256
370
   200
100
AcDbLine
 10
1.8462
 20
0.1830000000000009
 30
0.0
 11
1.8462
 21
0.0080000000000011
 31
0.0
  0
LINE
  5
1C9
330
1F
100
AcDbEntity
  8
898A1_SMT
  6
Continuous2
 62
     9
420
 12632256
370
   200
100
AcDbLine
 10
1.842599999999999
 20
0.1830000000000009
 30
0.0
 11
1.842599999999999
 21
0.0080000000000011
 31
0.0
  0
LINE
  5
1CA
330
1F
100
AcDbEntity
  8
898A1_SMT
  6
Continuous2
 62
     9
420
 12632256
370
   200
100
AcDbLine
 10
1.838999999999999
 20
0.1830000000000009
 30
0.0
 11
1.838999999999999
 21
0.0080000000000011
 31
0.0
  0
LINE
  5
1CB
330
1F
100
AcDbEntity
  8
898A1_SMT
  6
Continuous2
 62
     9
420
 12632256
370
   200
100
AcDbLine
 10
1.8354
 20
0.1830000000000009
 30
0.0
 11
1.8354
 21
0.0080000000000011
 31
0.0
  0
LINE
  5
1CC
330
1F
100
AcDbEntity
  8
898A1_SMT
  6
Continuous2
 62
     9
420
 12632256
370
   200
100
AcDbLine
 10
1.831799999999999
 20
0.1830000000000009
 30
0.0
 11
1.831799999999999
 21
0.0080000000000011
 31
0.0
  0
LINE
  5
1CD
330
1F
100
AcDbEntity
  8
898A1_SMT
  6
Continuous2
 62
     9
420
 12632256
370
   200
100
AcDbLine
 10
1.828199999999999
 20
0.1830000000000009
 30
0.0
 11
1.828199999999999
 21
0.0080000000000011
 31
0.0
  0
LINE
  5
1CE
330
1F
100
AcDbEntity
  8
898A1_SMT
  6
Continuous2
 62
     9
420
 12632256
370
   200
100
AcDbLine
 10
1.8246
 20
0.1830000000000009
 30
0.0
 11
1.8246
 21
0.0080000000000011
 31
0.0
  0
LINE
  5
1CF
330
1F
100
AcDbEntity
  8
898A1_SMT
  6
Continuous2
 62
     9
420
 12632256
370
   200
100
AcDbLine
 10
1.821
 20
0.1830000000000009
 30
0.0
 11
1.821
 21
0.0080000000000011
 31
0.0
  0
LINE
  5
1D0
330
1F
100
AcDbEntity
  8
898A1_SMT
  6
Continuous2
 62
     9
420
 12632256
370
   200
100
AcDbLine
 10
1.817399999999999
 20
0.1830000000000009
 30
0.0
 11
1.817399999999999
 21
0.0080000000000011
 31
0.0
  0
LINE
  5
1D1
330
1F
100
AcDbEntity
  8
898A1_SMT
  6
Continuous2
 62
     9
420
 12632256
370
   200
100
AcDbLine
 10
1.813799999999999
 20
0.1830000000000009
 30
0.0
 11
1.813799999999999
 21
0.0080000000000011
 31
0.0
  0
LINE
  5
1D2
330
1F
100
AcDbEntity
  8
898A1_SMT
  6
Continuous2
 62
     9
420
 12632256
370
   200
100
AcDbLine
 10
1.8102
 20
0.1830000000000009
 30
0.0
 11
1.8102
 21
0.0080000000000011
 31
0.0
  0
LINE
  5
1D3
330
1F
100
AcDbEntity
  8
898A1_SMT
  6
Continuous2
 62
     9
420
 12632256
370
   200
100
AcDbLine
 10
1.8066
 20
0.1830000000000009
 30
0.0
 11
1.8066
 21
0.0080000000000011
 31
0.0
  0
LINE
  5
1D4
330
1F
100
AcDbEntity
  8
898A1_SMT
  6
Continuous2
 62
     9
420
 12632256
370
   200
100
AcDbLine
 10
1.802999999999999
 20
0.1830000000000009
 30
0.0
 11
1.802999999999999
 21
0.0080000000000011
 31
0.0
  0
LINE
  5
1D5
330
1F
100
AcDbEntity
  8
898A1_SMT
  6
Continuous2
 62
     9
420
 12632256
370
   200
100
AcDbLine
 10
1.799399999999999
 20
0.1830000000000009
 30
0.0
 11
1.799399999999999
 21
0.0080000000000011
 31
0.0
  0
LINE
  5
1D6
330
1F
100
AcDbEntity
  8
898A1_SMT
  6
Continuous2
 62
     9
420
 12632256
370
   200
100
AcDbLine
 10
1.7958
 20
0.1830000000000009
 30
0.0
 11
1.7958
 21
0.0080000000000011
 31
0.0
  0
LINE
  5
1D7
330
1F
100
AcDbEntity
  8
898A1_SMT
  6
Continuous2
 62
     9
420
 12632256
370
   200
100
AcDbLine
 10
1.792199999999999
 20
0.1830000000000009
 30
0.0
 11
1.792199999999999
 21
0.0080000000000011
 31
0.0
  0
LINE
  5
1D8
330
1F
100
AcDbEntity
  8
898A1_SMT
  6
Continuous2
 62
     9
420
 12632256
370
   200
100
AcDbLine
 10
1.788599999999999
 20
0.1830000000000009
 30
0.0
 11
1.788599999999999
 21
0.0080000000000011
 31
0.0
  0
LINE
  5
1D9
330
1F
100
AcDbEntity
  8
898A1_SMT
  6
Continuous2
 62
     9
420
 12632256
370
   200
100
AcDbLine
 10
1.785
 20
0.1830000000000009
 30
0.0
 11
1.785
 21
0.0080000000000011
 31
0.0
  0
LINE
  5
1DA
330
1F
100
AcDbEntity
  8
898A1_SMT
  6
Continuous2
 62
     9
420
 12632256
370
   200
100
AcDbLine
 10
1.7814
 20
0.1830000000000009
 30
0.0
 11
1.7814
 21
0.0080000000000011
 31
0.0
  0
LINE
  5
1DB
330
1F
100
AcDbEntity
  8
898A1_SMT
  6
Continuous2
 62
     9
420
 12632256
370
   200
100
AcDbLine
 10
1.777799999999999
 20
0.1830000000000009
 30
0.0
 11
1.777799999999999
 21
0.0080000000000011
 31
0.0
  0
LINE
  5
1DC
330
1F
100
AcDbEntity
  8
898A1_SMT
  6
Continuous2
 62
     9
420
 12632256
370
   200
100
AcDbLine
 10
1.774199999999999
 20
0.1830000000000009
 30
0.0
 11
1.774199999999999
 21
0.0080000000000011
 31
0.0
  0
LINE
  5
1DD
330
1F
100
AcDbEntity
  8
898A1_SMT
  6
Continuous2
 62
     9
420
 12632256
370
   200
100
AcDbLine
 10
1.7706
 20
0.1830000000000009
 30
0.0
 11
1.7706
 21
0.0080000000000011
 31
0.0
  0
LINE
  5
1DE
330
1F
100
AcDbEntity
  8
898A1_SMT
  6
Continuous2
 62
     9
420
 12632256
370
   200
100
AcDbLine
 10
1.766999999999999
 20
0.1830000000000009
 30
0.0
 11
1.766999999999999
 21
0.0080000000000011
 31
0.0
  0
LINE
  5
1DF
330
1F
100
AcDbEntity
  8
898A1_SMT
  6
Continuous2
 62
     9
420
 12632256
370
   200
100
AcDbLine
 10
1.763399999999999
 20
0.1830000000000009
 30
0.0
 11
1.763399999999999
 21
0.0080000000000011
 31
0.0
  0
LINE
  5
1E0
330
1F
100
AcDbEntity
  8
898A1_SMT
  6
Continuous2
 62
     9
420
 12632256
370
   200
100
AcDbLine
 10
1.759799999999998
 20
0.1830000000000009
 30
0.0
 11
1.759799999999998
 21
0.0080000000000011
 31
0.0
  0
LINE
  5
1E1
330
1F
100
AcDbEntity
  8
898A1_SMT
  6
Continuous2
 62
     9
420
 12632256
370
   200
100
AcDbLine
 10
1.7562
 20
0.1830000000000009
 30
0.0
 11
1.7562
 21
0.0080000000000011
 31
0.0
  0
LINE
  5
1E2
330
1F
100
AcDbEntity
  8
898A1_SMT
  6
Continuous2
 62
     9
420
 12632256
370
   200
100
AcDbLine
 10
1.752599999999999
 20
0.1830000000000009
 30
0.0
 11
1.752599999999999
 21
0.0080000000000011
 31
0.0
  0
LINE
  5
1E3
330
1F
100
AcDbEntity
  8
898A1_SMT
  6
Continuous2
 62
     9
420
 12632256
370
   200
100
AcDbLine
 10
1.748999999999999
 20
0.1830000000000009
 30
0.0
 11
1.748999999999999
 21
0.008800000000001
 31
0.0
  0
LINE
  5
1E4
330
1F
100
AcDbEntity
  8
898A1_SMT
  6
Continuous2
 62
     9
420
 12632256
370
   200
100
AcDbLine
 10
1.7454
 20
0.1830000000000009
 30
0.0
 11
1.7454
 21
0.0124000000000006
 31
0.0
  0
LINE
  5
1E5
330
1F
100
AcDbEntity
  8
898A1_SMT
  6
Continuous2
 62
     9
420
 12632256
370
   200
100
AcDbLine
 10
1.7418
 20
0.1830000000000009
 30
0.0
 11
1.7418
 21
0.0160000000000011
 31
0.0
  0
LINE
  5
1E6
330
1F
100
AcDbEntity
  8
898A1_SMT
  6
Continuous2
 62
     9
420
 12632256
370
   200
100
AcDbLine
 10
1.738199999999999
 20
0.1830000000000009
 30
0.0
 11
1.738199999999999
 21
0.0196000000000007
 31
0.0
  0
LINE
  5
1E7
330
1F
100
AcDbEntity
  8
898A1_SMT
  6
Continuous2
 62
     9
420
 12632256
370
   200
100
AcDbLine
 10
1.734599999999999
 20
0.1830000000000009
 30
0.0
 11
1.734599999999999
 21
0.0232000000000012
 31
0.0
  0
LINE
  5
1E8
330
1F
100
AcDbEntity
  8
898A1_SMT
  6
Continuous2
 62
     9
420
 12632256
370
   200
100
AcDbLine
 10
1.731
 20
0.1830000000000009
 30
0.0
 11
1.731
 21
0.0268000000000008
 31
0.0
  0
LINE
  5
1E9
330
1F
100
AcDbEntity
  8
898A1_SMT
  6
Continuous2
 62
     9
420
 12632256
370
   200
100
AcDbLine
 10
1.727399999999999
 20
0.1830000000000009
 30
0.0
 11
1.727399999999999
 21
0.0304000000000004
 31
0.0
  0
LINE
  5
1EA
330
1F
100
AcDbEntity
  8
898A1_SMT
  6
Continuous2
 62
     9
420
 12632256
370
   200
100
AcDbLine
 10
1.723799999999999
 20
0.1830000000000009
 30
0.0
 11
1.723799999999999
 21
0.0340000000000009
 31
0.0
  0
LINE
  5
1EB
330
1F
100
AcDbEntity
  8
898A1_SMT
  6
Continuous2
 62
     9
420
 12632256
370
   200
100
AcDbLine
 10
1.720199999999998
 20
0.1830000000000009
 30
0.0
 11
1.720199999999998
 21
0.0376000000000005
 31
0.0
  0
LINE
  5
1EC
330
1F
100
AcDbEntity
  8
898A1_SMT
  6
Continuous2
 62
     9
420
 12632256
370
   200
100
AcDbLine
 10
1.7166
 20
0.1830000000000009
 30
0.0
 11
1.7166
 21
0.041200000000001
 31
0.0
  0
LINE
  5
1ED
330
1F
100
AcDbEntity
  8
898A1_SMT
  6
Continuous2
 62
     9
420
 12632256
370
   200
100
AcDbLine
 10
1.712999999999999
 20
0.1830000000000009
 30
0.0
 11
1.712999999999999
 21
0.0448000000000006
 31
0.0
  0
LINE
  5
1EE
330
1F
100
AcDbEntity
  8
898A1_SMT
  6
Continuous2
 62
     9
420
 12632256
370
   200
100
AcDbLine
 10
1.709399999999999
 20
0.1830000000000009
 30
0.0
 11
1.709399999999999
 21
0.0484000000000011
 31
0.0
  0
LINE
  5
1EF
330
1F
100
AcDbEntity
  8
898A1_SMT
  6
Continuous2
 62
     9
420
 12632256
370
   200
100
AcDbLine
 10
1.7058
 20
0.1830000000000009
 30
0.0
 11
1.7058
 21
0.0520000000000007
 31
0.0
  0
LINE
  5
1F0
330
1F
100
AcDbEntity
  8
898A1_SMT
  6
Continuous2
 62
     9
420
 12632256
370
   200
100
AcDbLine
 10
2.076799999999999
 20
0.1812000000000007
 30
0.0
 11
1.701799999999999
 21
0.1812000000000007
 31
0.0
  0
LINE
  5
1F1
330
1F
100
AcDbEntity
  8
898A1_SMT
  6
Continuous2
 62
     9
420
 12632256
370
   200
100
AcDbLine
 10
2.076799999999999
 20
0.1776000000000002
 30
0.0
 11
1.701799999999999
 21
0.1776000000000002
 31
0.0
  0
LINE
  5
1F2
330
1F
100
AcDbEntity
  8
898A1_SMT
  6
Continuous2
 62
     9
420
 12632256
370
   200
100
AcDbLine
 10
2.076799999999999
 20
0.1740000000000015
 30
0.0
 11
1.701799999999999
 21
0.1740000000000015
 31
0.0
  0
LINE
  5
1F3
330
1F
100
AcDbEntity
  8
898A1_SMT
  6
Continuous2
 62
     9
420
 12632256
370
   200
100
AcDbLine
 10
2.076799999999999
 20
0.170400000000001
 30
0.0
 11
1.701799999999999
 21
0.170400000000001
 31
0.0
  0
LINE
  5
1F4
330
1F
100
AcDbEntity
  8
898A1_SMT
  6
Continuous2
 62
     9
420
 12632256
370
   200
100
AcDbLine
 10
2.076799999999999
 20
0.1668000000000005
 30
0.0
 11
1.701799999999999
 21
0.1668000000000005
 31
0.0
  0
LINE
  5
1F5
330
1F
100
AcDbEntity
  8
898A1_SMT
  6
Continuous2
 62
     9
420
 12632256
370
   200
100
AcDbLine
 10
2.076799999999999
 20
0.1632000000000009
 30
0.0
 11
1.701799999999999
 21
0.1632000000000009
 31
0.0
  0
LINE
  5
1F6
330
1F
100
AcDbEntity
  8
898A1_SMT
  6
Continuous2
 62
     9
420
 12632256
370
   200
100
AcDbLine
 10
2.076799999999999
 20
0.1596000000000013
 30
0.0
 11
1.701799999999999
 21
0.1596000000000013
 31
0.0
  0
LINE
  5
1F7
330
1F
100
AcDbEntity
  8
898A1_SMT
  6
Continuous2
 62
     9
420
 12632256
370
   200
100
AcDbLine
 10
2.076799999999999
 20
0.1560000000000008
 30
0.0
 11
1.701799999999999
 21
0.1560000000000008
 31
0.0
  0
LINE
  5
1F8
330
1F
100
AcDbEntity
  8
898A1_SMT
  6
Continuous2
 62
     9
420
 12632256
370
   200
100
AcDbLine
 10
2.076799999999999
 20
0.1524000000000003
 30
0.0
 11
1.701799999999999
 21
0.1524000000000003
 31
0.0
  0
LINE
  5
1F9
330
1F
100
AcDbEntity
  8
898A1_SMT
  6
Continuous2
 62
     9
420
 12632256
370
   200
100
AcDbLine
 10
2.076799999999999
 20
0.1488000000000007
 30
0.0
 11
1.701799999999999
 21
0.1488000000000007
 31
0.0
  0
LINE
  5
1FA
330
1F
100
AcDbEntity
  8
898A1_SMT
  6
Continuous2
 62
     9
420
 12632256
370
   200
100
AcDbLine
 10
2.076799999999999
 20
0.1452000000000011
 30
0.0
 11
1.701799999999999
 21
0.1452000000000011
 31
0.0
  0
LINE
  5
1FB
330
1F
100
AcDbEntity
  8
898A1_SMT
  6
Continuous2
 62
     9
420
 12632256
370
   200
100
AcDbLine
 10
2.076799999999999
 20
0.1416000000000006
 30
0.0
 11
1.701799999999999
 21
0.1416000000000006
 31
0.0
  0
LINE
  5
1FC
330
1F
100
AcDbEntity
  8
898A1_SMT
  6
Continuous2
 62
     9
420
 12632256
370
   200
100
AcDbLine
 10
2.076799999999999
 20
0.138000000000001
 30
0.0
 11
1.701799999999999
 21
0.138000000000001
 31
0.0
  0
LINE
  5
1FD
330
1F
100
AcDbEntity
  8
898A1_SMT
  6
Continuous2
 62
     9
420
 12632256
370
   200
100
AcDbLine
 10
2.076799999999999
 20
0.1344000000000014
 30
0.0
 11
1.701799999999999
 21
0.1344000000000014
 31
0.0
  0
LINE
  5
1FE
330
1F
100
AcDbEntity
  8
898A1_SMT
  6
Continuous2
 62
     9
420
 12632256
370
   200
100
AcDbLine
 10
2.076799999999999
 20
0.1308000000000009
 30
0.0
 11
1.701799999999999
 21
0.1308000000000009
 31
0.0
  0
LINE
  5
1FF
330
1F
100
AcDbEntity
  8
898A1_SMT
  6
Continuous2
 62
     9
420
 12632256
370
   200
100
AcDbLine
 10
2.076799999999999
 20
0.1272000000000004
 30
0.0
 11
1.701799999999999
 21
0.1272000000000004
 31
0.0
  0
LINE
  5
200
330
1F
100
AcDbEntity
  8
898A1_SMT
  6
Continuous2
 62
     9
420
 12632256
370
   200
100
AcDbLine
 10
2.076799999999999
 20
0.1236000000000008
 30
0.0
 11
1.701799999999999
 21
0.1236000000000008
 31
0.0
  0
LINE
  5
201
330
1F
100
AcDbEntity
  8
898A1_SMT
  6
Continuous2
 62
     9
420
 12632256
370
   200
100
AcDbLine
 10
2.076799999999999
 20
0.1200000000000012
 30
0.0
 11
1.701799999999999
 21
0.1200000000000012
 31
0.0
  0
LINE
  5
202
330
1F
100
AcDbEntity
  8
898A1_SMT
  6
Continuous2
 62
     9
420
 12632256
370
   200
100
AcDbLine
 10
2.076799999999999
 20
0.1164000000000007
 30
0.0
 11
1.701799999999999
 21
0.1164000000000007
 31
0.0
  0
LINE
  5
203
330
1F
100
AcDbEntity
  8
898A1_SMT
  6
Continuous2
 62
     9
420
 12632256
370
   200
100
AcDbLine
 10
2.076799999999999
 20
0.1128000000000002
 30
0.0
 11
1.701799999999999
 21
0.1128000000000002
 31
0.0
  0
LINE
  5
204
330
1F
100
AcDbEntity
  8
898A1_SMT
  6
Continuous2
 62
     9
420
 12632256
370
   200
100
AcDbLine
 10
2.076799999999999
 20
0.1092000000000006
 30
0.0
 11
1.701799999999999
 21
0.1092000000000006
 31
0.0
  0
LINE
  5
205
330
1F
100
AcDbEntity
  8
898A1_SMT
  6
Continuous2
 62
     9
420
 12632256
370
   200
100
AcDbLine
 10
2.076799999999999
 20
0.105600000000001
 30
0.0
 11
1.701799999999999
 21
0.105600000000001
 31
0.0
  0
LINE
  5
206
330
1F
100
AcDbEntity
  8
898A1_SMT
  6
Continuous2
 62
     9
420
 12632256
370
   200
100
AcDbLine
 10
2.076799999999999
 20
0.1020000000000005
 30
0.0
 11
1.701799999999999
 21
0.1020000000000005
 31
0.0
  0
LINE
  5
207
330
1F
100
AcDbEntity
  8
898A1_SMT
  6
Continuous2
 62
     9
420
 12632256
370
   200
100
AcDbLine
 10
2.076799999999999
 20
0.0984000000000009
 30
0.0
 11
1.701799999999999
 21
0.0984000000000009
 31
0.0
  0
LINE
  5
208
330
1F
100
AcDbEntity
  8
898A1_SMT
  6
Continuous2
 62
     9
420
 12632256
370
   200
100
AcDbLine
 10
2.076799999999999
 20
0.0948000000000013
 30
0.0
 11
1.701799999999999
 21
0.0948000000000013
 31
0.0
  0
LINE
  5
209
330
1F
100
AcDbEntity
  8
898A1_SMT
  6
Continuous2
 62
     9
420
 12632256
370
   200
100
AcDbLine
 10
2.076799999999999
 20
0.0912000000000008
 30
0.0
 11
1.701799999999999
 21
0.0912000000000008
 31
0.0
  0
LINE
  5
20A
330
1F
100
AcDbEntity
  8
898A1_SMT
  6
Continuous2
 62
     9
420
 12632256
370
   200
100
AcDbLine
 10
2.076799999999999
 20
0.0876000000000003
 30
0.0
 11
1.701799999999999
 21
0.0876000000000003
 31
0.0
  0
LINE
  5
20B
330
1F
100
AcDbEntity
  8
898A1_SMT
  6
Continuous2
 62
     9
420
 12632256
370
   200
100
AcDbLine
 10
2.076799999999999
 20
0.0840000000000007
 30
0.0
 11
1.701799999999999
 21
0.0840000000000007
 31
0.0
  0
LINE
  5
20C
330
1F
100
AcDbEntity
  8
898A1_SMT
  6
Continuous2
 62
     9
420
 12632256
370
   200
100
AcDbLine
 10
2.076799999999999
 20
0.0804000000000011
 30
0.0
 11
1.701799999999999
 21
0.0804000000000011
 31
0.0
  0
LINE
  5
20D
330
1F
100
AcDbEntity
  8
898A1_SMT
  6
Continuous2
 62
     9
420
 12632256
370
   200
100
AcDbLine
 10
2.076799999999999
 20
0.0768000000000006
 30
0.0
 11
1.701799999999999
 21
0.0768000000000006
 31
0.0
  0
LINE
  5
20E
330
1F
100
AcDbEntity
  8
898A1_SMT
  6
Continuous2
 62
     9
420
 12632256
370
   200
100
AcDbLine
 10
2.076799999999999
 20
0.073200000000001
 30
0.0
 11
1.701799999999999
 21
0.073200000000001
 31
0.0
  0
LINE
  5
20F
330
1F
100
AcDbEntity
  8
898A1_SMT
  6
Continuous2
 62
     9
420
 12632256
370
   200
100
AcDbLine
 10
2.076799999999999
 20
0.0696000000000014
 30
0.0
 11
1.701799999999999
 21
0.0696000000000014
 31
0.0
  0
LINE
  5
210
330
1F
100
AcDbEntity
  8
898A1_SMT
  6
Continuous2
 62
     9
420
 12632256
370
   200
100
AcDbLine
 10
2.076799999999999
 20
0.0660000000000009
 30
0.0
 11
1.701799999999999
 21
0.0660000000000009
 31
0.0
  0
LINE
  5
211
330
1F
100
AcDbEntity
  8
898A1_SMT
  6
Continuous2
 62
     9
420
 12632256
370
   200
100
AcDbLine
 10
2.076799999999999
 20
0.0624000000000005
 30
0.0
 11
1.701799999999999
 21
0.0624000000000005
 31
0.0
  0
LINE
  5
212
330
1F
100
AcDbEntity
  8
898A1_SMT
  6
Continuous2
 62
     9
420
 12632256
370
   200
100
AcDbLine
 10
2.076799999999999
 20
0.0588000000000009
 30
0.0
 11
1.701799999999999
 21
0.0588000000000009
 31
0.0
  0
LINE
  5
213
330
1F
100
AcDbEntity
  8
898A1_SMT
  6
Continuous2
 62
     9
420
 12632256
370
   200
100
AcDbLine
 10
2.076799999999999
 20
0.0552000000000012
 30
0.0
 11
1.702599999999999
 21
0.0552000000000012
 31
0.0
  0
LINE
  5
214
330
1F
100
AcDbEntity
  8
898A1_SMT
  6
Continuous2
 62
     9
420
 12632256
370
   200
100
AcDbLine
 10
2.076799999999999
 20
0.0516000000000008
 30
0.0
 11
1.706199999999999
 21
0.0516000000000008
 31
0.0
  0
LINE
  5
215
330
1F
100
AcDbEntity
  8
898A1_SMT
  6
Continuous2
 62
     9
420
 12632256
370
   200
100
AcDbLine
 10
2.076799999999999
 20
0.0480000000000012
 30
0.0
 11
1.7098
 21
0.0480000000000012
 31
0.0
  0
LINE
  5
216
330
1F
100
AcDbEntity
  8
898A1_SMT
  6
Continuous2
 62
     9
420
 12632256
370
   200
100
AcDbLine
 10
2.076799999999999
 20
0.0444000000000007
 30
0.0
 11
1.7134
 21
0.0444000000000007
 31
0.0
  0
LINE
  5
217
330
1F
100
AcDbEntity
  8
898A1_SMT
  6
Continuous2
 62
     9
420
 12632256
370
   200
100
AcDbLine
 10
2.076799999999999
 20
0.0408000000000011
 30
0.0
 11
1.716999999999999
 21
0.0408000000000011
 31
0.0
  0
LINE
  5
218
330
1F
100
AcDbEntity
  8
898A1_SMT
  6
Continuous2
 62
     9
420
 12632256
370
   200
100
AcDbLine
 10
2.076799999999999
 20
0.0372000000000006
 30
0.0
 11
1.720599999999999
 21
0.0372000000000006
 31
0.0
  0
LINE
  5
219
330
1F
100
AcDbEntity
  8
898A1_SMT
  6
Continuous2
 62
     9
420
 12632256
370
   200
100
AcDbLine
 10
2.076799999999999
 20
0.033600000000001
 30
0.0
 11
1.7242
 21
0.033600000000001
 31
0.0
  0
LINE
  5
21A
330
1F
100
AcDbEntity
  8
898A1_SMT
  6
Continuous2
 62
     9
420
 12632256
370
   200
100
AcDbLine
 10
2.076799999999999
 20
0.0300000000000014
 30
0.0
 11
1.727799999999998
 21
0.0300000000000014
 31
0.0
  0
LINE
  5
21B
330
1F
100
AcDbEntity
  8
898A1_SMT
  6
Continuous2
 62
     9
420
 12632256
370
   200
100
AcDbLine
 10
2.076799999999999
 20
0.0264000000000009
 30
0.0
 11
1.731399999999999
 21
0.0264000000000009
 31
0.0
  0
LINE
  5
21C
330
1F
100
AcDbEntity
  8
898A1_SMT
  6
Continuous2
 62
     9
420
 12632256
370
   200
100
AcDbLine
 10
2.076799999999999
 20
0.0228000000000004
 30
0.0
 11
1.734999999999999
 21
0.0228000000000004
 31
0.0
  0
LINE
  5
21D
330
1F
100
AcDbEntity
  8
898A1_SMT
  6
Continuous2
 62
     9
420
 12632256
370
   200
100
AcDbLine
 10
2.076799999999999
 20
0.0192000000000008
 30
0.0
 11
1.7386
 21
0.0192000000000008
 31
0.0
  0
LINE
  5
21E
330
1F
100
AcDbEntity
  8
898A1_SMT
  6
Continuous2
 62
     9
420
 12632256
370
   200
100
AcDbLine
 10
2.076799999999999
 20
0.0156000000000012
 30
0.0
 11
1.742199999999999
 21
0.0156000000000012
 31
0.0
  0
LINE
  5
21F
330
1F
100
AcDbEntity
  8
898A1_SMT
  6
Continuous2
 62
     9
420
 12632256
370
   200
100
AcDbLine
 10
2.076799999999999
 20
0.0120000000000007
 30
0.0
 11
1.745799999999999
 21
0.0120000000000007
 31
0.0
  0
LINE
  5
220
330
1F
100
AcDbEntity
  8
0
  6
Continuous2
 62
   176
420
      128
370
    -3
100
AcDbLine
 10
2.154349411900885
 20
-0.0704340120391533
 30
0.0
 11
2.154349411900885
 21
-0.0990054410363294
 31
0.0
  0
LINE
  5
221
330
1F
100
AcDbEntity
  8
0
  6
Continuous2
 62
   176
420
      128
370
    -3
100
AcDbLine
 10
2.154349411900885
 20
-0.1275768700335054
 30
0.0
 11
2.154349411900885
 21
-0.0990054410363294
 31
0.0
  0
LINE
  5
222
330
1F
100
AcDbEntity
  8
0
  6
Continuous2
 62
   176
420
      128
370
    -3
100
AcDbLine
 10
2.182920840898062
 20
-0.0990054410363294
 30
0.0
 11
2.154349411900885
 21
-0.0990054410363294
 31
0.0
  0
LINE
  5
223
330
1F
100
AcDbEntity
  8
0
  6
Continuous2
 62
   176
420
      128
370
    -3
100
AcDbLine
 10
2.125777982903709
 20
-0.0990054410363294
 30
0.0
 11
2.154349411900885
 21
-0.0990054410363294
 31
0.0
  0
LINE
  5
224
330
1F
100
AcDbEntity
  8
0
  6
Continuous2
 62
   176
420
      128
370
    -3
100
AcDbLine
 10
2.263380595145863
 20
-0.0490054418878243
 30
0.0
 11
2.202920840046566
 21
-0.0490054418878243
 31
0.0
  0
LINE
  5
225
330
1F
100
AcDbEntity
  8
0
  6
Continuous2
 62
   176
420
      128
370
    -3
100
AcDbLine
 10
2.202920840046566
 20
-0.0490054418878243
 30
0.0
 11
2.202920840046566
 21
-0.0932928643218248
 31
0.0
  0
ARC
  5
226
330
1F
100
AcDbEntity
  8
0
  6
Continuous2
 62
   176
420
      128
370
    -3
100
AcDbCircle
 10
2.231492269043744
 20
-0.1225340275772277
 30
0.0
 40
0.0378143021038549
100
AcDbArc
 50
63.4349379541957
 51
90.00000250448001
  0
ARC
  5
227
330
1F
100
AcDbEntity
  8
0
  6
Continuous2
 62
   176
420
      128
370
    -3
100
AcDbCircle
 10
2.234852998176118
 20
-0.115812569312478
 30
0.0
 40
0.030299484729773
100
AcDbArc
 50
33.69007200563115
 51
63.43493795419438
  0
ARC
  5
228
330
1F
100
AcDbEntity
  8
0
  6
Continuous2
 62
   176
420
      128
370
    -3
100
AcDbCircle
 10
2.232919376667387
 20
-0.1171016474799799
 30
0.0
 40
0.0326234080961775
100
AcDbArc
 50
330.2551099183979
 51
33.69008202354049
  0
ARC
  5
229
330
1F
100
AcDbEntity
  8
0
  6
Continuous2
 62
   176
420
      128
370
    -3
100
AcDbCircle
 10
2.233988162454017
 20
-0.1177123843439346
 30
0.0
 40
0.0313924359423763
100
AcDbArc
 50
270.0160417407854
 51
330.2551918806687
  0
ARC
  5
22A
330
1F
100
AcDbEntity
  8
0
  6
Continuous2
 62
   176
420
      128
370
    -3
100
AcDbCircle
 10
2.229474459164555
 20
-0.1172876834854198
 30
0.0
 40
0.0318184005362668
100
AcDbArc
 50
228.8140965918537
 51
270.0160417407849
  0
ARC
  5
22B
330
1F
100
AcDbEntity
  8
0
  6
Continuous2
 62
   176
420
      128
370
    -3
100
AcDbCircle
 10
2.229474465550778
 20
-0.1172876685842503
 30
0.0
 40
0.0318184133087038
100
AcDbArc
 50
213.4332813667368
 51
228.8140965918494
  0
ARC
  5
22C
330
1F
100
AcDbEntity
  8
0
  6
Continuous2
 62
   176
420
      128
370
    -3
100
AcDbCircle
 10
2.2297585767884
 20
-0.1308380232177664
 30
0.0
 40
0.0461508729055636
100
AcDbArc
 50
87.8471364468061
 51
125.5576463144293
  0
LINE
  5
22D
330
1F
100
AcDbEntity
  8
0
  6
Continuous2
 62
   176
420
      128
370
    -3
100
AcDbLine
 10
2.229483367718227
 20
-0.149106082774573
 30
0.0
 11
2.233996951745614
 21
-0.1491048190558926
 31
0.0
  0
ARC
  5
22E
330
1F
100
AcDbEntity
  8
0
  6
Continuous2
 62
   176
420
      128
370
    -3
100
AcDbCircle
 10
2.314827984393825
 20
-0.1243808242785276
 30
0.0
 40
0.0247867705223559
100
AcDbArc
 50
199.5939984602043
 51
340.4060015398107
  0
ARC
  5
22F
330
1F
100
AcDbEntity
  8
0
  6
Continuous2
 62
   176
420
      128
370
    -3
100
AcDbCircle
 10
2.314827984393825
 20
-0.0736300572528871
 30
0.0
 40
0.0247867705328562
100
AcDbArc
 50
19.59399974531537
 51
160.406000254675
  0
ARC
  5
230
330
1F
100
AcDbEntity
  8
0
  6
Continuous2
 62
   176
420
      128
370
    -3
100
AcDbCircle
 10
2.384128462246885
 20
-0.0990054407448487
 30
0.0
 40
0.0985861936288903
100
AcDbArc
 50
160.0190261174773
 51
199.9809735822488
  0
ARC
  5
231
330
1F
100
AcDbEntity
  8
0
  6
Continuous2
 62
   176
420
      128
370
    -3
100
AcDbCircle
 10
2.245527506540768
 20
-0.0990054407448484
 30
0.0
 40
0.0985861936288872
100
AcDbArc
 50
340.0190264177539
 51
19.98097388252075
  0
LINE
  5
232
330
1F
100
AcDbEntity
  8
0
  6
Continuous2
 62
   176
420
      128
370
    -3
100
AcDbLine
 10
2.364113697189424
 20
-0.0490054418878243
 30
0.0
 11
2.400542268617995
 21
-0.1490054401848344
 31
0.0
  0
LINE
  5
233
330
1F
100
AcDbEntity
  8
0
  6
Continuous2
 62
   176
420
      128
370
    -3
100
AcDbLine
 10
2.400542268617995
 20
-0.1490054401848344
 30
0.0
 11
2.436970840046567
 21
-0.0490054418878243
 31
0.0
  0
LINE
  5
234
330
1F
100
AcDbEntity
  8
0
  6
Continuous2
 62
   176
420
      128
370
    -3
100
AcDbLine
 10
2.151793716312397
 20
0.1174069351104667
 30
0.0
 11
2.151793716312397
 21
0.0888355061132907
 31
0.0
  0
LINE
  5
235
330
1F
100
AcDbEntity
  8
0
  6
Continuous2
 62
   176
420
      128
370
    -3
100
AcDbLine
 10
2.151793716312397
 20
0.0602640771161147
 30
0.0
 11
2.151793716312397
 21
0.0888355061132907
 31
0.0
  0
LINE
  5
236
330
1F
100
AcDbEntity
  8
0
  6
Continuous2
 62
   176
420
      128
370
    -3
100
AcDbLine
 10
2.180365145309574
 20
0.0888355061132907
 30
0.0
 11
2.151793716312397
 21
0.0888355061132907
 31
0.0
  0
LINE
  5
237
330
1F
100
AcDbEntity
  8
0
  6
Continuous2
 62
   176
420
      128
370
    -3
100
AcDbLine
 10
2.123222287315222
 20
0.0888355061132907
 30
0.0
 11
2.151793716312397
 21
0.0888355061132907
 31
0.0
  0
LINE
  5
238
330
1F
100
AcDbEntity
  8
0
  6
Continuous2
 62
   176
420
      128
370
    -3
100
AcDbLine
 10
2.260824899557376
 20
0.1388355052617958
 30
0.0
 11
2.200365144458079
 21
0.1388355052617958
 31
0.0
  0
LINE
  5
239
330
1F
100
AcDbEntity
  8
0
  6
Continuous2
 62
   176
420
      128
370
    -3
100
AcDbLine
 10
2.200365144458079
 20
0.1388355052617958
 30
0.0
 11
2.200365144458079
 21
0.0945480828277953
 31
0.0
  0
ARC
  5
23A
330
1F
100
AcDbEntity
  8
0
  6
Continuous2
 62
   176
420
      128
370
    -3
100
AcDbCircle
 10
2.228936573455255
 20
0.0653069195723906
 30
0.0
 40
0.0378143021038568
100
AcDbArc
 50
63.43493795419634
 51
90.00000250447933
  0
ARC
  5
23B
330
1F
100
AcDbEntity
  8
0
  6
Continuous2
 62
   176
420
      128
370
    -3
100
AcDbCircle
 10
2.232297302587629
 20
0.0720283778371403
 30
0.0
 40
0.0302994847297755
100
AcDbArc
 50
33.69007200563222
 51
63.43493795419293
  0
ARC
  5
23C
330
1F
100
AcDbEntity
  8
0
  6
Continuous2
 62
   176
420
      128
370
    -3
100
AcDbCircle
 10
2.230363681078899
 20
0.0707392996696402
 30
0.0
 40
0.0326234080961779
100
AcDbArc
 50
330.2551099183984
 51
33.69008202354014
  0
ARC
  5
23D
330
1F
100
AcDbEntity
  8
0
  6
Continuous2
 62
   176
420
      128
370
    -3
100
AcDbCircle
 10
2.231432466865529
 20
0.0701285628056855
 30
0.0
 40
0.0313924359423762
100
AcDbArc
 50
270.0160417407846
 51
330.2551918806683
  0
ARC
  5
23E
330
1F
100
AcDbEntity
  8
0
  6
Continuous2
 62
   176
420
      128
370
    -3
100
AcDbCircle
 10
2.226918763576068
 20
0.0705532636641992
 30
0.0
 40
0.031818400536266
100
AcDbArc
 50
228.8140965918524
 51
270.0160417407849
  0
ARC
  5
23F
330
1F
100
AcDbEntity
  8
0
  6
Continuous2
 62
   176
420
      128
370
    -3
100
AcDbCircle
 10
2.226918769962277
 20
0.0705532785653558
 30
0.0
 40
0.0318184133086847
100
AcDbArc
 50
213.4332813667295
 51
228.8140965918509
  0
ARC
  5
240
330
1F
100
AcDbEntity
  8
0
  6
Continuous2
 62
   176
420
      128
370
    -3
100
AcDbCircle
 10
2.227202881199913
 20
0.0570029239318524
 30
0.0
 40
0.0461508729055649
100
AcDbArc
 50
87.8471364468067
 51
125.5576463144289
  0
LINE
  5
241
330
1F
100
AcDbEntity
  8
0
  6
Continuous2
 62
   176
420
      128
370
    -3
100
AcDbLine
 10
2.226927672129739
 20
0.0387348643750471
 30
0.0
 11
2.231441256157126
 21
0.0387361280937274
 31
0.0
  0
ARC
  5
242
330
1F
100
AcDbEntity
  8
0
  6
Continuous2
 62
   176
420
      128
370
    -3
100
AcDbCircle
 10
2.312272288805338
 20
0.0634601228710921
 30
0.0
 40
0.0247867705223558
100
AcDbArc
 50
199.5939984602036
 51
340.4060015398114
  0
ARC
  5
243
330
1F
100
AcDbEntity
  8
0
  6
Continuous2
 62
   176
420
      128
370
    -3
100
AcDbCircle
 10
2.312272288805338
 20
0.1142108898967333
 30
0.0
 40
0.0247867705328561
100
AcDbArc
 50
19.59399974531468
 51
160.4060002546758
  0
ARC
  5
244
330
1F
100
AcDbEntity
  8
0
  6
Continuous2
 62
   176
420
      128
370
    -3
100
AcDbCircle
 10
2.381572766658398
 20
0.0888355064047712
 30
0.0
 40
0.0985861936288908
100
AcDbArc
 50
160.0190261174773
 51
199.9809735822487
  0
ARC
  5
245
330
1F
100
AcDbEntity
  8
0
  6
Continuous2
 62
   176
420
      128
370
    -3
100
AcDbCircle
 10
2.242971810952282
 20
0.0888355064047717
 30
0.0
 40
0.0985861936288863
100
AcDbArc
 50
340.0190264177538
 51
19.98097388252091
  0
LINE
  5
246
330
1F
100
AcDbEntity
  8
0
  6
Continuous2
 62
   176
420
      128
370
    -3
100
AcDbLine
 10
2.361558001600936
 20
0.1388355052617958
 30
0.0
 11
2.397986573029507
 21
0.0388355069647856
 31
0.0
  0
LINE
  5
247
330
1F
100
AcDbEntity
  8
0
  6
Continuous2
 62
   176
420
      128
370
    -3
100
AcDbLine
 10
2.397986573029507
 20
0.0388355069647856
 30
0.0
 11
2.434415144458079
 21
0.1388355052617958
 31
0.0
  0
LINE
  5
248
330
1F
100
AcDbEntity
  8
0
  6
Continuous2
 62
   176
420
      128
370
    -3
100
AcDbLine
 10
3.260924785574367
 20
-0.3410824616625343
 30
0.0
 11
3.279065712509158
 21
-0.3410824616625343
 31
0.0
  0
LINE
  5
249
330
1F
100
AcDbEntity
  8
0
  6
Continuous2
 62
   176
420
      128
370
    -3
100
AcDbLine
 10
3.260924785574367
 20
-0.3160824620882818
 30
0.0
 11
3.279067642930098
 21
-0.3160824620882818
 31
0.0
  0
LINE
  5
24A
330
1F
100
AcDbEntity
  8
0
  6
Continuous2
 62
   176
420
      128
370
    -3
100
AcDbLine
 10
3.260924785574367
 20
-0.3660824612367868
 30
0.0
 11
3.260924785574367
 21
-0.3410824616625343
 31
0.0
  0
LINE
  5
24B
330
1F
100
AcDbEntity
  8
0
  6
Continuous2
 62
   176
420
      128
370
    -3
100
AcDbLine
 10
3.260924785574367
 20
-0.3160824620882818
 30
0.0
 11
3.260924785574367
 21
-0.3410824616625343
 31
0.0
  0
ARC
  5
24C
330
1F
100
AcDbEntity
  8
0
  6
Continuous2
 62
   176
420
      128
370
    -3
100
AcDbCircle
 10
3.279067642930098
 20
-0.3285824620244689
 30
0.0
 40
0.0124999997871264
100
AcDbArc
 50
269.9911516020106
 51
90.0
  0
LINE
  5
24D
330
1F
100
AcDbEntity
  8
0
  6
Continuous2
 62
   176
420
      128
370
    -3
100
AcDbLine
 10
3.279065712509158
 20
-0.3410824616625343
 30
0.0
 11
3.29156764267996
 21
-0.3660824612367868
 31
0.0
  0
LINE
  5
24E
330
1F
100
AcDbEntity
  8
0
  6
Continuous2
 62
   176
420
      128
370
    -3
100
AcDbLine
 10
3.301567642717225
 20
-0.3410824616625343
 30
0.0
 11
3.324460499860082
 21
-0.3410824616625343
 31
0.0
  0
LINE
  5
24F
330
1F
100
AcDbEntity
  8
0
  6
Continuous2
 62
   176
420
      128
370
    -3
100
AcDbLine
 10
3.301567642717225
 20
-0.3160824620882818
 30
0.0
 11
3.330889071288653
 21
-0.3160824620882818
 31
0.0
  0
LINE
  5
250
330
1F
100
AcDbEntity
  8
0
  6
Continuous2
 62
   176
420
      128
370
    -3
100
AcDbLine
 10
3.301567642717225
 20
-0.3160824620882818
 30
0.0
 11
3.301567642717225
 21
-0.3410824616625343
 31
0.0
  0
LINE
  5
251
330
1F
100
AcDbEntity
  8
0
  6
Continuous2
 62
   176
420
      128
370
    -3
100
AcDbLine
 10
3.301567642717225
 20
-0.3660824612367868
 30
0.0
 11
3.301567642717225
 21
-0.3410824616625343
 31
0.0
  0
ARC
  5
252
330
1F
100
AcDbEntity
  8
0
  6
Continuous2
 62
   176
420
      128
370
    -3
100
AcDbCircle
 10
3.424004521566467
 20
-0.3410824625862
 30
0.0
 40
0.0445440217063849
100
AcDbArc
 50
161.2941285932232
 51
198.7058732343473
  0
ARC
  5
253
330
1F
100
AcDbEntity
  8
0
  6
Continuous2
 62
   176
420
      128
370
    -3
100
AcDbCircle
 10
3.368223276823718
 20
-0.3410824625861999
 30
0.0
 40
0.0445440217063857
100
AcDbArc
 50
341.2941267656529
 51
18.70587140677635
  0
ARC
  5
254
330
1F
100
AcDbEntity
  8
0
  6
Continuous2
 62
   176
420
      128
370
    -3
100
AcDbCircle
 10
3.396113899195093
 20
-0.330870883703254
 30
0.0
 40
0.0148694991988688
100
AcDbArc
 50
15.90200475289913
 51
164.0979952471007
  0
ARC
  5
255
330
1F
100
AcDbEntity
  8
0
  6
Continuous2
 62
   176
420
      128
370
    -3
100
AcDbCircle
 10
3.396113899195093
 20
-0.3512940386403846
 30
0.0
 40
0.014869499904427
100
AcDbArc
 50
195.9020207039133
 51
344.0979792960865
  0
ARC
  5
256
330
1F
100
AcDbEntity
  8
0
  6
Continuous2
 62
   176
420
      128
370
    -3
100
AcDbCircle
 10
3.43741224202794
 20
-0.3517610372482484
 30
0.0
 40
0.0146446428571433
100
AcDbArc
 50
179.9999837355726
 51
0.0000162644274101
  0
LINE
  5
257
330
1F
100
AcDbEntity
  8
0
  6
Continuous2
 62
   176
420
      128
370
    -3
100
AcDbLine
 10
3.452056928431511
 20
-0.3160824620875343
 30
0.0
 11
3.452056928431511
 21
-0.3517610330911057
 31
0.0
  0
LINE
  5
258
330
1F
100
AcDbEntity
  8
0
  6
Continuous2
 62
   176
420
      128
370
    -3
100
AcDbLine
 10
3.422767642717225
 20
-0.3160824620875343
 30
0.0
 11
3.422767642717225
 21
-0.3517610330911057
 31
0.0
  0
LINE
  5
259
330
1F
100
AcDbEntity
  8
0
  6
Continuous2
 62
   176
420
      128
370
    -3
100
AcDbLine
 10
3.462053357002939
 20
-0.3160824620882818
 30
0.0
 11
3.478035499860082
 21
-0.3160824620882818
 31
0.0
  0
LINE
  5
25A
330
1F
100
AcDbEntity
  8
0
  6
Continuous2
 62
   176
420
      128
370
    -3
100
AcDbLine
 10
3.478035503053188
 20
-0.3660824612367868
 30
0.0
 11
3.478035499860082
 21
-0.3160824620882818
 31
0.0
  0
LINE
  5
25B
330
1F
100
AcDbEntity
  8
0
  6
Continuous2
 62
   176
420
      128
370
    -3
100
AcDbLine
 10
3.478035499860082
 20
-0.3160824620882818
 30
0.0
 11
3.494017642717225
 21
-0.3160824620882818
 31
0.0
  0
LINE
  5
25C
330
1F
100
AcDbEntity
  8
0
  6
Continuous2
 62
   176
420
      128
370
    -3
100
AcDbLine
 10
3.5258
 20
-0.2879999999999991
 30
0.0
 11
3.7758
 21
-0.3879999999999997
 31
0.0
  0
LINE
  5
25D
330
1F
100
AcDbEntity
  8
0
  6
Continuous2
 62
   176
420
      128
370
    -3
100
AcDbLine
 10
3.7758
 20
-0.2879999999999991
 30
0.0
 11
3.5258
 21
-0.3879999999999997
 31
0.0
  0
LINE
  5
25E
330
1F
100
AcDbEntity
  8
0
  6
Continuous2
 62
   176
420
      128
370
    -3
100
AcDbLine
 10
-3.772799999999999
 20
1.062
 30
0.0
 11
-3.522799999999999
 21
0.962
 31
0.0
  0
LINE
  5
25F
330
1F
100
AcDbEntity
  8
0
  6
Continuous2
 62
   176
420
      128
370
    -3
100
AcDbLine
 10
-3.522799999999999
 20
1.062
 30
0.0
 11
-3.772799999999999
 21
0.962
 31
0.0
  0
LINE
  5
260
330
1F
100
AcDbEntity
  8
0
  6
Continuous2
 62
   176
420
      128
370
    -3
100
AcDbLine
 10
-3.496940751239722
 20
1.012553010698977
 30
0.0
 11
-3.478799824304931
 21
1.012553010698977
 31
0.0
  0
LINE
  5
261
330
1F
100
AcDbEntity
  8
0
  6
Continuous2
 62
   176
420
      128
370
    -3
100
AcDbLine
 10
-3.496940751239722
 20
1.03755301027323
 30
0.0
 11
-3.478797893883991
 21
1.03755301027323
 31
0.0
  0
LINE
  5
262
330
1F
100
AcDbEntity
  8
0
  6
Continuous2
 62
   176
420
      128
370
    -3
100
AcDbLine
 10
-3.496940751239722
 20
0.9875530111247247
 30
0.0
 11
-3.496940751239722
 21
1.012553010698977
 31
0.0
  0
LINE
  5
263
330
1F
100
AcDbEntity
  8
0
  6
Continuous2
 62
   176
420
      128
370
    -3
100
AcDbLine
 10
-3.496940751239722
 20
1.03755301027323
 30
0.0
 11
-3.496940751239722
 21
1.012553010698977
 31
0.0
  0
ARC
  5
264
330
1F
100
AcDbEntity
  8
0
  6
Continuous2
 62
   176
420
      128
370
    -3
100
AcDbCircle
 10
-3.478797893883991
 20
1.025053010337043
 30
0.0
 40
0.0124999997871263
100
AcDbArc
 50
269.9911516020106
 51
90.0
  0
LINE
  5
265
330
1F
100
AcDbEntity
  8
0
  6
Continuous2
 62
   176
420
      128
370
    -3
100
AcDbLine
 10
-3.478799824304931
 20
1.012553010698977
 30
0.0
 11
-3.46629789413413
 21
0.9875530111247247
 31
0.0
  0
LINE
  5
266
330
1F
100
AcDbEntity
  8
0
  6
Continuous2
 62
   176
420
      128
370
    -3
100
AcDbLine
 10
-3.456297894096865
 20
1.012553010698977
 30
0.0
 11
-3.433405036954007
 21
1.012553010698977
 31
0.0
  0
LINE
  5
267
330
1F
100
AcDbEntity
  8
0
  6
Continuous2
 62
   176
420
      128
370
    -3
100
AcDbLine
 10
-3.456297894096865
 20
1.03755301027323
 30
0.0
 11
-3.426976465525436
 21
1.03755301027323
 31
0.0
  0
LINE
  5
268
330
1F
100
AcDbEntity
  8
0
  6
Continuous2
 62
   176
420
      128
370
    -3
100
AcDbLine
 10
-3.456297894096865
 20
1.03755301027323
 30
0.0
 11
-3.456297894096865
 21
1.012553010698977
 31
0.0
  0
LINE
  5
269
330
1F
100
AcDbEntity
  8
0
  6
Continuous2
 62
   176
420
      128
370
    -3
100
AcDbLine
 10
-3.456297894096865
 20
0.9875530111247247
 30
0.0
 11
-3.456297894096865
 21
1.012553010698977
 31
0.0
  0
LINE
  5
26A
330
1F
100
AcDbEntity
  8
0
  6
Continuous2
 62
   176
420
      128
370
    -3
100
AcDbLine
 10
-3.371262176511607
 20
0.9875530111247247
 30
0.0
 11
-3.371262179704713
 21
1.03755301027323
 31
0.0
  0
LINE
  5
26B
330
1F
100
AcDbEntity
  8
0
  6
Continuous2
 62
   176
420
      128
370
    -3
100
AcDbLine
 10
-3.378405030035611
 20
0.9875530111247247
 30
0.0
 11
-3.371262176511607
 21
0.9875530111247247
 31
0.0
  0
LINE
  5
26C
330
1F
100
AcDbEntity
  8
0
  6
Continuous2
 62
   176
420
      128
370
    -3
100
AcDbLine
 10
-3.364119319262313
 20
0.9875530111247247
 30
0.0
 11
-3.371262176511607
 21
0.9875530111247247
 31
0.0
  0
LINE
  5
26D
330
1F
100
AcDbEntity
  8
0
  6
Continuous2
 62
   176
420
      128
370
    -3
100
AcDbLine
 10
-3.378405030035611
 20
1.03755301027323
 30
0.0
 11
-3.371262176511607
 21
1.03755301027323
 31
0.0
  0
LINE
  5
26E
330
1F
100
AcDbEntity
  8
0
  6
Continuous2
 62
   176
420
      128
370
    -3
100
AcDbLine
 10
-3.364119319262313
 20
1.03755301027323
 30
0.0
 11
-3.371262176511607
 21
1.03755301027323
 31
0.0
  0
LINE
  5
26F
330
1F
100
AcDbEntity
  8
0
  6
Continuous2
 62
   176
420
      128
370
    -3
100
AcDbLine
 10
-3.354119322668293
 20
0.9875530111247247
 30
0.0
 11
-3.354119322668293
 21
1.03755301027323
 31
0.0
  0
LINE
  5
270
330
1F
100
AcDbEntity
  8
0
  6
Continuous2
 62
   176
420
      128
370
    -3
100
AcDbLine
 10
-3.323476465525436
 20
0.9875530111247247
 30
0.0
 11
-3.323476465525436
 21
1.03755301027323
 31
0.0
  0
LINE
  5
271
330
1F
100
AcDbEntity
  8
0
  6
Continuous2
 62
   176
420
      128
370
    -3
100
AcDbLine
 10
-3.354119322668293
 20
1.03755301027323
 30
0.0
 11
-3.323476465525436
 21
0.9875530111247247
 31
0.0
  0
LINE
  5
272
330
1F
100
AcDbEntity
  8
0
  6
Continuous2
 62
   176
420
      128
370
    -3
100
AcDbLine
 10
-3.313476465525436
 20
1.012553010698977
 30
0.0
 11
-3.295335538590645
 21
1.012553010698977
 31
0.0
  0
LINE
  5
273
330
1F
100
AcDbEntity
  8
0
  6
Continuous2
 62
   176
420
      128
370
    -3
100
AcDbLine
 10
-3.313476465525436
 20
1.03755301027323
 30
0.0
 11
-3.295333608169705
 21
1.03755301027323
 31
0.0
  0
LINE
  5
274
330
1F
100
AcDbEntity
  8
0
  6
Continuous2
 62
   176
420
      128
370
    -3
100
AcDbLine
 10
-3.313476465525436
 20
0.9875530111247247
 30
0.0
 11
-3.313476465525436
 21
1.012553010698977
 31
0.0
  0
LINE
  5
275
330
1F
100
AcDbEntity
  8
0
  6
Continuous2
 62
   176
420
      128
370
    -3
100
AcDbLine
 10
-3.313476465525436
 20
1.03755301027323
 30
0.0
 11
-3.313476465525436
 21
1.012553010698977
 31
0.0
  0
ARC
  5
276
330
1F
100
AcDbEntity
  8
0
  6
Continuous2
 62
   176
420
      128
370
    -3
100
AcDbCircle
 10
-3.295333608169705
 20
1.025053010337043
 30
0.0
 40
0.0124999997871265
100
AcDbArc
 50
269.9911516020106
 51
90.0
  0
ARC
  5
277
330
1F
100
AcDbEntity
  8
0
  6
Continuous2
 62
   176
420
      128
370
    -3
100
AcDbCircle
 10
-3.258189009071864
 20
1.001874435113263
 30
0.0
 40
0.0146446428571433
100
AcDbArc
 50
179.999983735571
 51
0.0000162644289368
  0
LINE
  5
278
330
1F
100
AcDbEntity
  8
0
  6
Continuous2
 62
   176
420
      128
370
    -3
100
AcDbLine
 10
-3.243544322668293
 20
1.037553010273977
 30
0.0
 11
-3.243544322668293
 21
1.001874439270406
 31
0.0
  0
LINE
  5
279
330
1F
100
AcDbEntity
  8
0
  6
Continuous2
 62
   176
420
      128
370
    -3
100
AcDbLine
 10
-3.272833608382578
 20
1.037553010273977
 30
0.0
 11
-3.272833608382578
 21
1.001874439270406
 31
0.0
  0
LINE
  5
27A
330
1F
100
AcDbEntity
  8
0
  6
Continuous2
 62
   176
420
      128
370
    -3
100
AcDbLine
 10
-3.233547894096864
 20
1.03755301027323
 30
0.0
 11
-3.217565751239722
 21
1.03755301027323
 31
0.0
  0
LINE
  5
27B
330
1F
100
AcDbEntity
  8
0
  6
Continuous2
 62
   176
420
      128
370
    -3
100
AcDbLine
 10
-3.217565748046615
 20
0.9875530111247247
 30
0.0
 11
-3.217565751239722
 21
1.03755301027323
 31
0.0
  0
LINE
  5
27C
330
1F
100
AcDbEntity
  8
0
  6
Continuous2
 62
   176
420
      128
370
    -3
100
AcDbLine
 10
-3.217565751239722
 20
1.03755301027323
 30
0.0
 11
-3.201583608382578
 21
1.03755301027323
 31
0.0
  0
LINE
  5
27D
330
1F
100
AcDbEntity
  8
898A1_AST
  6
Continuous2
 62
   208
420
  4194368
370
   200
100
AcDbLine
 10
0.6991874016434008
 20
0.0668179204703794
 30
0.0
 11
0.7285874016434006
 21
0.1454179204703793
 31
0.0
  0
LINE
  5
27E
330
1F
100
AcDbEntity
  8
898A1_AST
  6
Continuous2
 62
   208
420
  4194368
370
   200
100
AcDbLine
 10
0.7285874016434006
 20
0.1454179204703793
 30
0.0
 11
0.7580874016434012
 21
0.0668179204703794
 31
0.0
  0
LINE
  5
27F
330
1F
100
AcDbEntity
  8
898A1_AST
  6
Continuous2
 62
   208
420
  4194368
370
   200
100
AcDbLine
 10
0.7580874016434012
 20
0.0668179204703794
 30
0.0
 11
0.6991874016434008
 21
0.0668179204703794
 31
0.0
  0
LINE
  5
280
330
1F
100
AcDbEntity
  8
898A1_AST
  6
Continuous2
 62
   208
420
  4194368
370
   200
100
AcDbLine
 10
0.6991874016434008
 20
0.0668179204703794
 30
0.0
 11
0.691087401643401
 21
0.0454179204703797
 31
0.0
  0
LINE
  5
281
330
1F
100
AcDbEntity
  8
898A1_AST
  6
Continuous2
 62
   208
420
  4194368
370
   200
100
AcDbLine
 10
0.7660874016434012
 20
0.0454179204703797
 30
0.0
 11
0.7580874016434012
 21
0.0668179204703794
 31
0.0
  0
LINE
  5
282
330
1F
100
AcDbEntity
  8
898A1_AST
  6
Continuous2
 62
   208
420
  4194368
370
   200
100
AcDbLine
 10
1.06353469203601
 20
1.750403840463186
 30
0.0
 11
1.092934692036009
 21
1.829003840463186
 31
0.0
  0
LINE
  5
283
330
1F
100
AcDbEntity
  8
898A1_AST
  6
Continuous2
 62
   208
420
  4194368
370
   200
100
AcDbLine
 10
1.092934692036009
 20
1.829003840463186
 30
0.0
 11
1.12243469203601
 21
1.750403840463186
 31
0.0
  0
LINE
  5
284
330
1F
100
AcDbEntity
  8
898A1_AST
  6
Continuous2
 62
   208
420
  4194368
370
   200
100
AcDbLine
 10
1.12243469203601
 20
1.750403840463186
 30
0.0
 11
1.06353469203601
 21
1.750403840463186
 31
0.0
  0
LINE
  5
285
330
1F
100
AcDbEntity
  8
898A1_AST
  6
Continuous2
 62
   208
420
  4194368
370
   200
100
AcDbLine
 10
1.06353469203601
 20
1.750403840463186
 30
0.0
 11
1.05543469203601
 21
1.729003840463186
 31
0.0
  0
LINE
  5
286
330
1F
100
AcDbEntity
  8
898A1_AST
  6
Continuous2
 62
   208
420
  4194368
370
   200
100
AcDbLine
 10
1.13043469203601
 20
1.729003840463186
 30
0.0
 11
1.12243469203601
 21
1.750403840463186
 31
0.0
  0
LINE
  5
287
330
1F
100
AcDbEntity
  8
898A1_AST
  6
Continuous2
 62
   208
420
  4194368
370
   200
100
AcDbLine
 10
3.589972501932494
 20
1.184533273834583
 30
0.0
 11
3.619372501932494
 21
1.263133273834583
 31
0.0
  0
LINE
  5
288
330
1F
100
AcDbEntity
  8
898A1_AST
  6
Continuous2
 62
   208
420
  4194368
370
   200
100
AcDbLine
 10
3.619372501932494
 20
1.263133273834583
 30
0.0
 11
3.648872501932494
 21
1.184533273834583
 31
0.0
  0
LINE
  5
289
330
1F
100
AcDbEntity
  8
898A1_AST
  6
Continuous2
 62
   208
420
  4194368
370
   200
100
AcDbLine
 10
3.648872501932494
 20
1.184533273834583
 30
0.0
 11
3.589972501932494
 21
1.184533273834583
 31
0.0
  0
LINE
  5
28A
330
1F
100
AcDbEntity
  8
898A1_AST
  6
Continuous2
 62
   208
420
  4194368
370
   200
100
AcDbLine
 10
3.589972501932494
 20
1.184533273834583
 30
0.0
 11
3.581872501932494
 21
1.163133273834584
 31
0.0
  0
LINE
  5
28B
330
1F
100
AcDbEntity
  8
898A1_AST
  6
Continuous2
 62
   208
420
  4194368
370
   200
100
AcDbLine
 10
3.656872501932494
 20
1.163133273834584
 30
0.0
 11
3.648872501932494
 21
1.184533273834583
 31
0.0
  0
LINE
  5
28C
330
1F
100
AcDbEntity
  8
898A1_AST
  6
Continuous2
 62
   208
420
  4194368
370
   200
100
AcDbLine
 10
1.063116235599628
 20
-1.613277306917023
 30
0.0
 11
1.092516235599628
 21
-1.534677306917023
 31
0.0
  0
LINE
  5
28D
330
1F
100
AcDbEntity
  8
898A1_AST
  6
Continuous2
 62
   208
420
  4194368
370
   200
100
AcDbLine
 10
1.092516235599628
 20
-1.534677306917023
 30
0.0
 11
1.122016235599628
 21
-1.613277306917023
 31
0.0
  0
LINE
  5
28E
330
1F
100
AcDbEntity
  8
898A1_AST
  6
Continuous2
 62
   208
420
  4194368
370
   200
100
AcDbLine
 10
1.122016235599628
 20
-1.613277306917023
 30
0.0
 11
1.063116235599628
 21
-1.613277306917023
 31
0.0
  0
LINE
  5
28F
330
1F
100
AcDbEntity
  8
898A1_AST
  6
Continuous2
 62
   208
420
  4194368
370
   200
100
AcDbLine
 10
1.063116235599628
 20
-1.613277306917023
 30
0.0
 11
1.055016235599628
 21
-1.634677306917023
 31
0.0
  0
LINE
  5
290
330
1F
100
AcDbEntity
  8
898A1_AST
  6
Continuous2
 62
   208
420
  4194368
370
   200
100
AcDbLine
 10
1.130016235599628
 20
-1.634677306917023
 30
0.0
 11
1.122016235599628
 21
-1.613277306917023
 31
0.0
  0
LINE
  5
291
330
1F
100
AcDbEntity
  8
898A1_AST
  6
Continuous2
 62
   208
420
  4194368
370
   200
100
AcDbLine
 10
3.593850448432981
 20
-1.238819554281829
 30
0.0
 11
3.623250448432981
 21
-1.160219554281829
 31
0.0
  0
LINE
  5
292
330
1F
100
AcDbEntity
  8
898A1_AST
  6
Continuous2
 62
   208
420
  4194368
370
   200
100
AcDbLine
 10
3.623250448432981
 20
-1.160219554281829
 30
0.0
 11
3.652750448432981
 21
-1.238819554281829
 31
0.0
  0
LINE
  5
293
330
1F
100
AcDbEntity
  8
898A1_AST
  6
Continuous2
 62
   208
420
  4194368
370
   200
100
AcDbLine
 10
3.652750448432981
 20
-1.238819554281829
 30
0.0
 11
3.593850448432981
 21
-1.238819554281829
 31
0.0
  0
LINE
  5
294
330
1F
100
AcDbEntity
  8
898A1_AST
  6
Continuous2
 62
   208
420
  4194368
370
   200
100
AcDbLine
 10
3.593850448432981
 20
-1.238819554281829
 30
0.0
 11
3.585750448432981
 21
-1.260219554281829
 31
0.0
  0
LINE
  5
295
330
1F
100
AcDbEntity
  8
898A1_AST
  6
Continuous2
 62
   208
420
  4194368
370
   200
100
AcDbLine
 10
3.660750448432981
 20
-1.260219554281829
 30
0.0
 11
3.652750448432981
 21
-1.238819554281829
 31
0.0
  0
LINE
  5
296
330
1F
100
AcDbEntity
  8
898A1_AST
  6
Continuous2
 62
   208
420
  4194368
370
   200
100
AcDbLine
 10
-3.238883725526348
 20
1.514788150695677
 30
0.0
 11
-3.209483725526348
 21
1.593388150695677
 31
0.0
  0
LINE
  5
297
330
1F
100
AcDbEntity
  8
898A1_AST
  6
Continuous2
 62
   208
420
  4194368
370
   200
100
AcDbLine
 10
-3.209483725526348
 20
1.593388150695677
 30
0.0
 11
-3.179983725526348
 21
1.514788150695677
 31
0.0
  0
LINE
  5
298
330
1F
100
AcDbEntity
  8
898A1_AST
  6
Continuous2
 62
   208
420
  4194368
370
   200
100
AcDbLine
 10
-3.179983725526348
 20
1.514788150695677
 30
0.0
 11
-3.238883725526348
 21
1.514788150695677
 31
0.0
  0
LINE
  5
299
330
1F
100
AcDbEntity
  8
898A1_AST
  6
Continuous2
 62
   208
420
  4194368
370
   200
100
AcDbLine
 10
-3.238883725526348
 20
1.514788150695677
 30
0.0
 11
-3.246983725526348
 21
1.493388150695678
 31
0.0
  0
LINE
  5
29A
330
1F
100
AcDbEntity
  8
898A1_AST
  6
Continuous2
 62
   208
420
  4194368
370
   200
100
AcDbLine
 10
-3.171983725526348
 20
1.493388150695678
 30
0.0
 11
-3.179983725526348
 21
1.514788150695677
 31
0.0
  0
LINE
  5
29B
330
1F
100
AcDbEntity
  8
898A1_AST
  6
Continuous2
 62
   208
420
  4194368
370
   200
100
AcDbLine
 10
-1.689415126248525
 20
0.8164876862018344
 30
0.0
 11
-1.660015126248525
 21
0.8950876862018344
 31
0.0
  0
LINE
  5
29C
330
1F
100
AcDbEntity
  8
898A1_AST
  6
Continuous2
 62
   208
420
  4194368
370
   200
100
AcDbLine
 10
-1.660015126248525
 20
0.8950876862018344
 30
0.0
 11
-1.630515126248524
 21
0.8164876862018344
 31
0.0
  0
LINE
  5
29D
330
1F
100
AcDbEntity
  8
898A1_AST
  6
Continuous2
 62
   208
420
  4194368
370
   200
100
AcDbLine
 10
-1.630515126248524
 20
0.8164876862018344
 30
0.0
 11
-1.689415126248525
 21
0.8164876862018344
 31
0.0
  0
LINE
  5
29E
330
1F
100
AcDbEntity
  8
898A1_AST
  6
Continuous2
 62
   208
420
  4194368
370
   200
100
AcDbLine
 10
-1.689415126248525
 20
0.8164876862018344
 30
0.0
 11
-1.697515126248524
 21
0.7950876862018348
 31
0.0
  0
LINE
  5
29F
330
1F
100
AcDbEntity
  8
898A1_AST
  6
Continuous2
 62
   208
420
  4194368
370
   200
100
AcDbLine
 10
-1.622515126248524
 20
0.7950876862018348
 30
0.0
 11
-1.630515126248524
 21
0.8164876862018344
 31
0.0
  0
LINE
  5
2A0
330
1F
100
AcDbEntity
  8
898A1_AST
  6
Continuous2
 62
   208
420
  4194368
370
   200
100
AcDbLine
 10
-1.68418590706007
 20
-0.8804118361366452
 30
0.0
 11
-1.65478590706007
 21
-0.8018118361366452
 31
0.0
  0
LINE
  5
2A1
330
1F
100
AcDbEntity
  8
898A1_AST
  6
Continuous2
 62
   208
420
  4194368
370
   200
100
AcDbLine
 10
-1.65478590706007
 20
-0.8018118361366452
 30
0.0
 11
-1.625285907060069
 21
-0.8804118361366452
 31
0.0
  0
LINE
  5
2A2
330
1F
100
AcDbEntity
  8
898A1_AST
  6
Continuous2
 62
   208
420
  4194368
370
   200
100
AcDbLine
 10
-1.625285907060069
 20
-0.8804118361366452
 30
0.0
 11
-1.68418590706007
 21
-0.8804118361366452
 31
0.0
  0
LINE
  5
2A3
330
1F
100
AcDbEntity
  8
898A1_AST
  6
Continuous2
 62
   208
420
  4194368
370
   200
100
AcDbLine
 10
-1.68418590706007
 20
-0.8804118361366452
 30
0.0
 11
-1.69228590706007
 21
-0.9018118361366448
 31
0.0
  0
LINE
  5
2A4
330
1F
100
AcDbEntity
  8
898A1_AST
  6
Continuous2
 62
   208
420
  4194368
370
   200
100
AcDbLine
 10
-1.617285907060069
 20
-0.9018118361366448
 30
0.0
 11
-1.625285907060069
 21
-0.8804118361366452
 31
0.0
  0
LINE
  5
2A5
330
1F
100
AcDbEntity
  8
898A1_AST
  6
Continuous2
 62
   208
420
  4194368
370
   200
100
AcDbLine
 10
-3.330282520363844
 20
-1.477820985599597
 30
0.0
 11
-3.300882520363845
 21
-1.399220985599597
 31
0.0
  0
LINE
  5
2A6
330
1F
100
AcDbEntity
  8
898A1_AST
  6
Continuous2
 62
   208
420
  4194368
370
   200
100
AcDbLine
 10
-3.300882520363845
 20
-1.399220985599597
 30
0.0
 11
-3.271382520363844
 21
-1.477820985599597
 31
0.0
  0
LINE
  5
2A7
330
1F
100
AcDbEntity
  8
898A1_AST
  6
Continuous2
 62
   208
420
  4194368
370
   200
100
AcDbLine
 10
-3.271382520363844
 20
-1.477820985599597
 30
0.0
 11
-3.330282520363844
 21
-1.477820985599597
 31
0.0
  0
LINE
  5
2A8
330
1F
100
AcDbEntity
  8
898A1_AST
  6
Continuous2
 62
   208
420
  4194368
370
   200
100
AcDbLine
 10
-3.330282520363844
 20
-1.477820985599597
 30
0.0
 11
-3.338382520363844
 21
-1.499220985599596
 31
0.0
  0
LINE
  5
2A9
330
1F
100
AcDbEntity
  8
898A1_AST
  6
Continuous2
 62
   208
420
  4194368
370
   200
100
AcDbLine
 10
-3.263382520363844
 20
-1.499220985599596
 30
0.0
 11
-3.271382520363844
 21
-1.477820985599597
 31
0.0
  0
LINE
  5
2AA
330
1F
100
AcDbEntity
  8
0
  6
Continuous2
 62
   176
420
      128
370
    -3
100
AcDbLine
 10
-3.799799999999999
 20
2.391278668575255
 30
0.0
 11
-3.799799999999999
 21
2.03875
 31
0.0
  0
LINE
  5
2AB
330
1F
100
AcDbEntity
  8
0
  6
Continuous2
 62
   176
420
      128
370
    -3
100
AcDbLine
 10
-3.549799999999999
 20
2.307903668575254
 30
0.0
 11
-3.799799999999999
 21
2.266278668575255
 31
0.0
  0
LINE
  5
2AC
330
1F
100
AcDbEntity
  8
0
  6
Continuous2
 62
   176
420
      128
370
    -3
100
AcDbLine
 10
-3.549799999999999
 20
2.224653668575254
 30
0.0
 11
-3.799799999999999
 21
2.266278668575255
 31
0.0
  0
LINE
  5
2AD
330
1F
100
AcDbEntity
  8
0
  6
Continuous2
 62
   176
420
      128
370
    -3
100
AcDbLine
 10
3.549799999999999
 20
2.224653668575255
 30
0.0
 11
3.799799999999999
 21
2.266278668575255
 31
0.0
  0
LINE
  5
2AE
330
1F
100
AcDbEntity
  8
0
  6
Continuous2
 62
   176
420
      128
370
    -3
100
AcDbLine
 10
3.549799999999999
 20
2.307903668575254
 30
0.0
 11
3.799799999999999
 21
2.266278668575255
 31
0.0
  0
LINE
  5
2AF
330
1F
100
AcDbEntity
  8
0
  6
Continuous2
 62
   176
420
      128
370
    -3
100
AcDbLine
 10
-0.4169186274509804
 20
2.266278668575255
 30
0.0
 11
-3.799799999999999
 21
2.266278668575255
 31
0.0
  0
LINE
  5
2B0
330
1F
100
AcDbEntity
  8
0
  6
Continuous2
 62
   176
420
      128
370
    -3
100
AcDbLine
 10
-3.549799999999999
 20
2.307903668575254
 30
0.0
 11
-3.799799999999999
 21
2.266278668575255
 31
0.0
  0
LINE
  5
2B1
330
1F
100
AcDbEntity
  8
0
  6
Continuous2
 62
   176
420
      128
370
    -3
100
AcDbLine
 10
-3.549799999999999
 20
2.224653668575254
 30
0.0
 11
-3.799799999999999
 21
2.266278668575255
 31
0.0
  0
LINE
  5
2B2
330
1F
100
AcDbEntity
  8
0
  6
Continuous2
 62
   176
420
      128
370
    -3
100
AcDbLine
 10
3.549799999999999
 20
2.224653668575255
 30
0.0
 11
3.799799999999999
 21
2.266278668575255
 31
0.0
  0
LINE
  5
2B3
330
1F
100
AcDbEntity
  8
0
  6
Continuous2
 62
   176
420
      128
370
    -3
100
AcDbLine
 10
3.549799999999999
 20
2.307903668575254
 30
0.0
 11
3.799799999999999
 21
2.266278668575255
 31
0.0
  0
TEXT
  5
2B4
330
1F
100
AcDbEntity
  8
0
  6
Continuous2
 62
   176
420
      128
370
    -3
100
AcDbText
 10
-0.3090686274509804
 20
2.141278668575255
 30
0.0
 40
0.25
  1
7.600
 41
0.5
  7
MCStick_A0.500000_S0.000000
100
AcDbText
  0
LINE
  5
2B6
330
1F
100
AcDbEntity
  8
0
  6
Continuous2
 62
   176
420
      128
370
    -3
100
AcDbLine
 10
0.4169186274509804
 20
2.266278668575255
 30
0.0
 11
3.799799999999999
 21
2.266278668575255
 31
0.0
  0
LINE
  5
2B7
330
1F
100
AcDbEntity
  8
0
  6
Continuous2
 62
   176
420
      128
370
    -3
100
AcDbLine
 10
-3.549799999999999
 20
2.307903668575254
 30
0.0
 11
-3.799799999999999
 21
2.266278668575255
 31
0.0
  0
LINE
  5
2B8
330
1F
100
AcDbEntity
  8
0
  6
Continuous2
 62
   176
420
      128
370
    -3
100
AcDbLine
 10
-3.549799999999999
 20
2.224653668575254
 30
0.0
 11
-3.799799999999999
 21
2.266278668575255
 31
0.0
  0
LINE
  5
2B9
330
1F
100
AcDbEntity
  8
0
  6
Continuous2
 62
   176
420
      128
370
    -3
100
AcDbLine
 10
3.549799999999999
 20
2.224653668575255
 30
0.0
 11
3.799799999999999
 21
2.266278668575255
 31
0.0
  0
LINE
  5
2BA
330
1F
100
AcDbEntity
  8
0
  6
Continuous2
 62
   176
420
      128
370
    -3
100
AcDbLine
 10
3.549799999999999
 20
2.307903668575254
 30
0.0
 11
3.799799999999999
 21
2.266278668575255
 31
0.0
  0
LINE
  5
2BB
330
1F
100
AcDbEntity
  8
0
  6
Continuous2
 62
   176
420
      128
370
    -3
100
AcDbLine
 10
3.799799999999999
 20
2.391278668575255
 30
0.0
 11
3.799799999999999
 21
2.038750000000001
 31
0.0
  0
LINE
  5
2BC
330
1F
100
AcDbEntity
  8
0
  6
Continuous2
 62
   176
420
      128
370
    -3
100
AcDbLine
 10
-3.549799999999999
 20
2.307903668575254
 30
0.0
 11
-3.799799999999999
 21
2.266278668575255
 31
0.0
  0
LINE
  5
2BD
330
1F
100
AcDbEntity
  8
0
  6
Continuous2
 62
   176
420
      128
370
    -3
100
AcDbLine
 10
-3.549799999999999
 20
2.224653668575254
 30
0.0
 11
-3.799799999999999
 21
2.266278668575255
 31
0.0
  0
LINE
  5
2BE
330
1F
100
AcDbEntity
  8
0
  6
Continuous2
 62
   176
420
      128
370
    -3
100
AcDbLine
 10
3.549799999999999
 20
2.224653668575255
 30
0.0
 11
3.799799999999999
 21
2.266278668575255
 31
0.0
  0
LINE
  5
2BF
330
1F
100
AcDbEntity
  8
0
  6
Continuous2
 62
   176
420
      128
370
    -3
100
AcDbLine
 10
3.549799999999999
 20
2.307903668575254
 30
0.0
 11
3.799799999999999
 21
2.266278668575255
 31
0.0
  0
LINE
  5
2C0
330
1F
100
AcDbEntity
  8
0
  6
Continuous2
 62
   176
420
      128
370
    -3
100
AcDbLine
 10
-4.353661735989088
 20
-1.945
 30
0.0
 11
-3.893549999999999
 21
-1.945
 31
0.0
  0
LINE
  5
2C1
330
1F
100
AcDbEntity
  8
0
  6
Continuous2
 62
   176
420
      128
370
    -3
100
AcDbLine
 10
-4.270286735989088
 20
-1.695
 30
0.0
 11
-4.228661735989088
 21
-1.945
 31
0.0
  0
LINE
  5
2C2
330
1F
100
AcDbEntity
  8
0
  6
Continuous2
 62
   176
420
      128
370
    -3
100
AcDbLine
 10
-4.187036735989088
 20
-1.695
 30
0.0
 11
-4.228661735989088
 21
-1.945
 31
0.0
  0
LINE
  5
2C3
330
1F
100
AcDbEntity
  8
0
  6
Continuous2
 62
   176
420
      128
370
    -3
100
AcDbLine
 10
-4.187036735989085
 20
1.695
 30
0.0
 11
-4.228661735989085
 21
1.945
 31
0.0
  0
LINE
  5
2C4
330
1F
100
AcDbEntity
  8
0
  6
Continuous2
 62
   176
420
      128
370
    -3
100
AcDbLine
 10
-4.270286735989084
 20
1.695
 30
0.0
 11
-4.228661735989085
 21
1.945
 31
0.0
  0
LINE
  5
2C5
330
1F
100
AcDbEntity
  8
0
  6
Continuous2
 62
   176
420
      128
370
    -3
100
AcDbLine
 10
-4.228661735989086
 20
-0.261095192307693
 30
0.0
 11
-4.228661735989088
 21
-1.945
 31
0.0
  0
LINE
  5
2C6
330
1F
100
AcDbEntity
  8
0
  6
Continuous2
 62
   176
420
      128
370
    -3
100
AcDbLine
 10
-4.270286735989088
 20
-1.695
 30
0.0
 11
-4.228661735989088
 21
-1.945
 31
0.0
  0
LINE
  5
2C7
330
1F
100
AcDbEntity
  8
0
  6
Continuous2
 62
   176
420
      128
370
    -3
100
AcDbLine
 10
-4.187036735989088
 20
-1.695
 30
0.0
 11
-4.228661735989088
 21
-1.945
 31
0.0
  0
LINE
  5
2C8
330
1F
100
AcDbEntity
  8
0
  6
Continuous2
 62
   176
420
      128
370
    -3
100
AcDbLine
 10
-4.187036735989085
 20
1.695
 30
0.0
 11
-4.228661735989085
 21
1.945
 31
0.0
  0
LINE
  5
2C9
330
1F
100
AcDbEntity
  8
0
  6
Continuous2
 62
   176
420
      128
370
    -3
100
AcDbLine
 10
-4.270286735989084
 20
1.695
 30
0.0
 11
-4.228661735989085
 21
1.945
 31
0.0
  0
TEXT
  5
2CA
330
1F
100
AcDbEntity
  8
0
  6
Continuous2
 62
   176
420
      128
370
    -3
100
AcDbText
 10
-4.537730363440067
 20
-0.1249999999999996
 30
0.0
 40
0.25
  1
3.890
 41
0.5
  7
MCStick_A0.500000_S0.000000
100
AcDbText
  0
LINE
  5
2CB
330
1F
100
AcDbEntity
  8
0
  6
Continuous2
 62
   176
420
      128
370
    -3
100
AcDbLine
 10
-4.228661735989086
 20
0.2610951923076934
 30
0.0
 11
-4.228661735989085
 21
1.945
 31
0.0
  0
LINE
  5
2CC
330
1F
100
AcDbEntity
  8
0
  6
Continuous2
 62
   176
420
      128
370
    -3
100
AcDbLine
 10
-4.270286735989088
 20
-1.695
 30
0.0
 11
-4.228661735989088
 21
-1.945
 31
0.0
  0
LINE
  5
2CD
330
1F
100
AcDbEntity
  8
0
  6
Continuous2
 62
   176
420
      128
370
    -3
100
AcDbLine
 10
-4.187036735989088
 20
-1.695
 30
0.0
 11
-4.228661735989088
 21
-1.945
 31
0.0
  0
LINE
  5
2CE
330
1F
100
AcDbEntity
  8
0
  6
Continuous2
 62
   176
420
      128
370
    -3
100
AcDbLine
 10
-4.187036735989085
 20
1.695
 30
0.0
 11
-4.228661735989085
 21
1.945
 31
0.0
  0
LINE
  5
2CF
330
1F
100
AcDbEntity
  8
0
  6
Continuous2
 62
   176
420
      128
370
    -3
100
AcDbLine
 10
-4.270286735989084
 20
1.695
 30
0.0
 11
-4.228661735989085
 21
1.945
 31
0.0
  0
LINE
  5
2D0
330
1F
100
AcDbEntity
  8
0
  6
Continuous2
 62
   176
420
      128
370
    -3
100
AcDbLine
 10
-4.353661735989085
 20
1.945
 30
0.0
 11
-3.893549999999999
 21
1.945
 31
0.0
  0
LINE
  5
2D1
330
1F
100
AcDbEntity
  8
0
  6
Continuous2
 62
   176
420
      128
370
    -3
100
AcDbLine
 10
-4.270286735989088
 20
-1.695
 30
0.0
 11
-4.228661735989088
 21
-1.945
 31
0.0
  0
LINE
  5
2D2
330
1F
100
AcDbEntity
  8
0
  6
Continuous2
 62
   176
420
      128
370
    -3
100
AcDbLine
 10
-4.187036735989088
 20
-1.695
 30
0.0
 11
-4.228661735989088
 21
-1.945
 31
0.0
  0
LINE
  5
2D3
330
1F
100
AcDbEntity
  8
0
  6
Continuous2
 62
   176
420
      128
370
    -3
100
AcDbLine
 10
-4.187036735989085
 20
1.695
 30
0.0
 11
-4.228661735989085
 21
1.945
 31
0.0
  0
LINE
  5
2D4
330
1F
100
AcDbEntity
  8
0
  6
Continuous2
 62
   176
420
      128
370
    -3
100
AcDbLine
 10
-4.270286735989084
 20
1.695
 30
0.0
 11
-4.228661735989085
 21
1.945
 31
0.0
  0
LINE
  5
2D5
330
1F
100
AcDbEntity
  8
0
  6
Continuous2
 62
   176
420
      128
370
    -3
100
AcDbLine
 10
1.658804200388248
 20
1.62855242112826
 30
0.0
 11
1.658804200388248
 21
1.653461096209589
 31
0.0
  0
LINE
  5
2D6
330
1F
100
AcDbEntity
  8
0
  6
Continuous2
 62
   176
420
      128
370
    -3
100
AcDbLine
 10
1.658804200388248
 20
1.678461095783841
 30
0.0
 11
1.658804200388248
 21
1.653461096209589
 31
0.0
  0
LINE
  5
2D7
330
1F
100
AcDbEntity
  8
0
  6
Continuous2
 62
   176
420
      128
370
    -3
100
AcDbLine
 10
1.676125630910937
 20
1.678461095783841
 30
0.0
 11
1.658804200388248
 21
1.678461095783841
 31
0.0
  0
ARC
  5
2D8
330
1F
100
AcDbEntity
  8
0
  6
Continuous2
 62
   176
420
      128
370
    -3
100
AcDbCircle
 10
1.67612562917255
 20
1.665961095996715
 30
0.0
 40
0.0124999997871263
100
AcDbArc
 50
275.7175752456524
 51
89.99999203182333
  0
ARC
  5
2D9
330
1F
100
AcDbEntity
  8
0
  6
Continuous2
 62
   176
420
      128
370
    -3
100
AcDbCircle
 10
1.678223932369002
 20
1.641052420915386
 30
0.0
 40
0.0124999997871263
100
AcDbArc
 50
269.9999999999999
 51
93.91286377651575
  0
LINE
  5
2DA
330
1F
100
AcDbEntity
  8
0
  6
Continuous2
 62
   176
420
      128
370
    -3
100
AcDbLine
 10
1.677370941329918
 20
1.653523282993262
 30
0.0
 11
1.658804200388248
 21
1.653461096209589
 31
0.0
  0
LINE
  5
2DB
330
1F
100
AcDbEntity
  8
0
  6
Continuous2
 62
   176
420
      128
370
    -3
100
AcDbLine
 10
1.678223932369002
 20
1.62855242112826
 30
0.0
 11
1.658804200388248
 21
1.62855242112826
 31
0.0
  0
LINE
  5
2DC
330
1F
100
AcDbEntity
  8
0
  6
Continuous2
 62
   176
420
      128
370
    -3
100
AcDbLine
 10
1.700697057531105
 20
1.678461095783841
 30
0.0
 11
1.700697057531105
 21
1.628461096635336
 31
0.0
  0
LINE
  5
2DD
330
1F
100
AcDbEntity
  8
0
  6
Continuous2
 62
   176
420
      128
370
    -3
100
AcDbLine
 10
1.700697057531105
 20
1.628461096635336
 30
0.0
 11
1.730018486102534
 21
1.628461096635336
 31
0.0
  0
LINE
  5
2DE
330
1F
100
AcDbEntity
  8
0
  6
Continuous2
 62
   176
420
      128
370
    -3
100
AcDbLine
 10
1.740018486102534
 20
1.653461096209589
 30
0.0
 11
1.762911343245391
 21
1.653461096209589
 31
0.0
  0
LINE
  5
2DF
330
1F
100
AcDbEntity
  8
0
  6
Continuous2
 62
   176
420
      128
370
    -3
100
AcDbLine
 10
1.740018486102534
 20
1.678461095783841
 30
0.0
 11
1.769339914673962
 21
1.678461095783841
 31
0.0
  0
LINE
  5
2E0
330
1F
100
AcDbEntity
  8
0
  6
Continuous2
 62
   176
420
      128
370
    -3
100
AcDbLine
 10
1.740018486102534
 20
1.678461095783841
 30
0.0
 11
1.740018486102534
 21
1.653461096209589
 31
0.0
  0
LINE
  5
2E1
330
1F
100
AcDbEntity
  8
0
  6
Continuous2
 62
   176
420
      128
370
    -3
100
AcDbLine
 10
1.740018486102534
 20
1.628461096635336
 30
0.0
 11
1.740018486102534
 21
1.653461096209589
 31
0.0
  0
ARC
  5
2E2
330
1F
100
AcDbEntity
  8
0
  6
Continuous2
 62
   176
420
      128
370
    -3
100
AcDbCircle
 10
1.765935696481981
 20
1.654359613697381
 30
0.0
 40
0.044544021706387
100
AcDbArc
 50
339.2941285932241
 51
16.70587323434629
  0
ARC
  5
2E3
330
1F
100
AcDbEntity
  8
0
  6
Continuous2
 62
   176
420
      128
370
    -3
100
AcDbCircle
 10
1.793452949676236
 20
1.643180886748902
 30
0.0
 40
0.0148694991988689
100
AcDbArc
 50
209.3074547862838
 51
342.097995247101
  0
ARC
  5
2E4
330
1F
100
AcDbEntity
  8
0
  6
Continuous2
 62
   176
420
      128
370
    -3
100
AcDbCircle
 10
1.794165707504619
 20
1.66359160045186
 30
0.0
 40
0.0148694999044272
100
AcDbArc
 50
13.90202070391395
 51
162.0979792960806
  0
ARC
  5
2E5
330
1F
100
AcDbEntity
  8
0
  6
Continuous2
 62
   176
420
      128
370
    -3
100
AcDbCircle
 10
1.794167289614547
 20
1.663636906152479
 30
0.0
 40
0.0148571428571429
100
AcDbArc
 50
162.2661147712675
 51
13.73388522872705
  0
ARC
  5
2E6
330
1F
100
AcDbEntity
  8
0
  6
Continuous2
 62
   176
420
      128
370
    -3
100
AcDbCircle
 10
1.833872060724211
 20
1.641853953778193
 30
0.0
 40
0.0133928571428571
100
AcDbArc
 50
90.00000933466734
 51
214.6857000295187
  0
ARC
  5
2E7
330
1F
100
AcDbEntity
  8
0
  6
Continuous2
 62
   176
420
      128
370
    -3
100
AcDbCircle
 10
1.833872060724211
 20
1.641853953778193
 30
0.0
 40
0.0133928571428571
100
AcDbArc
 50
214.6857000295187
 51
269.9999999999997
  0
ARC
  5
2E8
330
1F
100
AcDbEntity
  8
0
  6
Continuous2
 62
   176
420
      128
370
    -3
100
AcDbCircle
 10
1.833872057531105
 20
1.666853953352446
 30
0.0
 40
0.0116071424313954
100
AcDbArc
 50
117.5490992386719
 51
270.0000006832453
  0
ARC
  5
2E9
330
1F
100
AcDbEntity
  8
0
  6
Continuous2
 62
   176
420
      128
370
    -3
100
AcDbCircle
 10
1.833872057531105
 20
1.666853953352446
 30
0.0
 40
0.0116071424313954
100
AcDbArc
 50
89.99999999999973
 51
117.5490992386719
  0
ARC
  5
2EA
330
1F
100
AcDbEntity
  8
0
  6
Continuous2
 62
   176
420
      128
370
    -3
100
AcDbCircle
 10
1.837086343245391
 20
1.666853953352446
 30
0.0
 40
0.0116071424313954
100
AcDbArc
 50
270.0000006832453
 51
0.0000100179126691
  0
ARC
  5
2EB
330
1F
100
AcDbEntity
  8
0
  6
Continuous2
 62
   176
420
      128
370
    -3
100
AcDbCircle
 10
1.837086346438497
 20
1.641853953778193
 30
0.0
 40
0.0133928571428571
100
AcDbArc
 50
0.0
 51
90.00000933466734
  0
ARC
  5
2EC
330
1F
100
AcDbEntity
  8
0
  6
Continuous2
 62
   176
420
      128
370
    -3
100
AcDbCircle
 10
1.837086343245391
 20
1.666853953352446
 30
0.0
 40
0.0116071424313954
100
AcDbArc
 50
0.0
 51
89.99999999999972
  0
ARC
  5
2ED
330
1F
100
AcDbEntity
  8
0
  6
Continuous2
 62
   176
420
      128
370
    -3
100
AcDbCircle
 10
1.837086346438497
 20
1.641853953778193
 30
0.0
 40
0.0133928571428571
100
AcDbArc
 50
269.9999999999997
 51
0.0000100179126691
  0
LINE
  5
2EE
330
1F
100
AcDbEntity
  8
0
  6
Continuous2
 62
   176
420
      128
370
    -3
100
AcDbLine
 10
1.833872057531105
 20
1.678461095783841
 30
0.0
 11
1.837086343245391
 21
1.678461095783841
 31
0.0
  0
LINE
  5
2EF
330
1F
100
AcDbEntity
  8
0
  6
Continuous2
 62
   176
420
      128
370
    -3
100
AcDbLine
 10
1.833872060724211
 20
1.628461096635336
 30
0.0
 11
1.837086346438497
 21
1.628461096635336
 31
0.0
  0
LINE
  5
2F0
330
1F
100
AcDbEntity
  8
0
  6
Continuous2
 62
   176
420
      128
370
    -3
100
AcDbLine
 10
1.833872057669519
 20
1.655246810921051
 30
0.0
 11
1.837086343383805
 21
1.655246810921051
 31
0.0
  0
ARC
  5
2F1
330
1F
100
AcDbEntity
  8
0
  6
Continuous2
 62
   176
420
      128
370
    -3
100
AcDbCircle
 10
1.847074982196267
 20
1.654359613697381
 30
0.0
 40
0.044544021706387
100
AcDbArc
 50
339.2941285932241
 51
16.70587323434629
  0
ARC
  5
2F2
330
1F
100
AcDbEntity
  8
0
  6
Continuous2
 62
   176
420
      128
370
    -3
100
AcDbCircle
 10
1.874592235390522
 20
1.643180886748902
 30
0.0
 40
0.0148694991988689
100
AcDbArc
 50
209.3074547862838
 51
342.097995247101
  0
ARC
  5
2F3
330
1F
100
AcDbEntity
  8
0
  6
Continuous2
 62
   176
420
      128
370
    -3
100
AcDbCircle
 10
1.875304993218905
 20
1.66359160045186
 30
0.0
 40
0.0148694999044272
100
AcDbArc
 50
13.90202070391395
 51
162.0979792960806
  0
ARC
  5
2F4
330
1F
100
AcDbEntity
  8
0
  6
Continuous2
 62
   176
420
      128
370
    -3
100
AcDbCircle
 10
1.875306575328832
 20
1.663636906152479
 30
0.0
 40
0.0148571428571429
100
AcDbArc
 50
162.2661147712675
 51
13.73388522872705
  0
LINE
  5
2F5
330
1F
100
AcDbEntity
  8
0
  6
Continuous2
 62
   176
420
      128
370
    -3
100
AcDbLine
 10
1.940189914673963
 20
1.678461095783841
 30
0.0
 11
1.940189914673963
 21
1.628461096635336
 31
0.0
  0
LINE
  5
2F6
330
1F
100
AcDbEntity
  8
0
  6
Continuous2
 62
   176
420
      128
370
    -3
100
AcDbLine
 10
1.940189914673963
 20
1.628461096635336
 30
0.0
 11
1.954136330420758
 21
1.628461096635336
 31
0.0
  0
LINE
  5
2F7
330
1F
100
AcDbEntity
  8
0
  6
Continuous2
 62
   176
420
      128
370
    -3
100
AcDbLine
 10
1.940189914673963
 20
1.678461095783841
 30
0.0
 11
1.954136365107114
 21
1.678461095783841
 31
0.0
  0
ARC
  5
2F8
330
1F
100
AcDbEntity
  8
0
  6
Continuous2
 62
   176
420
      128
370
    -3
100
AcDbCircle
 10
1.952411515338952
 20
1.660154722355075
 30
0.0
 40
0.018387452646742
100
AcDbArc
 50
24.38683443953384
 51
84.61740955668783
  0
ARC
  5
2F9
330
1F
100
AcDbEntity
  8
0
  6
Continuous2
 62
   176
420
      128
370
    -3
100
AcDbCircle
 10
1.952411518409352
 20
1.646767470577757
 30
0.0
 40
0.018387449616367
100
AcDbArc
 50
275.3824731608988
 51
335.6131597790887
  0
ARC
  5
2FA
330
1F
100
AcDbEntity
  8
0
  6
Continuous2
 62
   176
420
      128
370
    -3
100
AcDbCircle
 10
1.926967321539004
 20
1.653461096920002
 30
0.0
 40
0.044544021706387
100
AcDbArc
 50
341.2941267656536
 51
18.70587140677583
  0
LINE
  5
2FB
330
1F
100
AcDbEntity
  8
0
  6
Continuous2
 62
   176
420
      128
370
    -3
100
AcDbLine
 10
1.981511343245391
 20
1.653461096209589
 30
0.0
 11
1.999652270180182
 21
1.653461096209589
 31
0.0
  0
LINE
  5
2FC
330
1F
100
AcDbEntity
  8
0
  6
Continuous2
 62
   176
420
      128
370
    -3
100
AcDbLine
 10
1.981511343245391
 20
1.678461095783841
 30
0.0
 11
1.999654200601122
 21
1.678461095783841
 31
0.0
  0
LINE
  5
2FD
330
1F
100
AcDbEntity
  8
0
  6
Continuous2
 62
   176
420
      128
370
    -3
100
AcDbLine
 10
1.981511343245391
 20
1.628461096635336
 30
0.0
 11
1.981511343245391
 21
1.653461096209589
 31
0.0
  0
LINE
  5
2FE
330
1F
100
AcDbEntity
  8
0
  6
Continuous2
 62
   176
420
      128
370
    -3
100
AcDbLine
 10
1.981511343245391
 20
1.678461095783841
 30
0.0
 11
1.981511343245391
 21
1.653461096209589
 31
0.0
  0
ARC
  5
2FF
330
1F
100
AcDbEntity
  8
0
  6
Continuous2
 62
   176
420
      128
370
    -3
100
AcDbCircle
 10
1.999654200601122
 20
1.665961095847654
 30
0.0
 40
0.0124999997871263
100
AcDbArc
 50
269.9911516020105
 51
89.99999999999994
  0
LINE
  5
300
330
1F
100
AcDbEntity
  8
0
  6
Continuous2
 62
   176
420
      128
370
    -3
100
AcDbLine
 10
1.999652270180182
 20
1.653461096209589
 30
0.0
 11
2.012154200350983
 21
1.628461096635336
 31
0.0
  0
LINE
  5
301
330
1F
100
AcDbEntity
  8
0
  6
Continuous2
 62
   176
420
      128
370
    -3
100
AcDbLine
 10
2.026172057419917
 20
1.639175381870656
 30
0.0
 11
2.055636343356579
 21
1.639175381870656
 31
0.0
  0
LINE
  5
302
330
1F
100
AcDbEntity
  8
0
  6
Continuous2
 62
   176
420
      128
370
    -3
100
AcDbLine
 10
2.022154200388248
 20
1.628461096635336
 30
0.0
 11
2.026172057419917
 21
1.639175381870656
 31
0.0
  0
LINE
  5
303
330
1F
100
AcDbEntity
  8
0
  6
Continuous2
 62
   176
420
      128
370
    -3
100
AcDbLine
 10
2.040904200388248
 20
1.678461095783841
 30
0.0
 11
2.055636343356579
 21
1.639175381870656
 31
0.0
  0
LINE
  5
304
330
1F
100
AcDbEntity
  8
0
  6
Continuous2
 62
   176
420
      128
370
    -3
100
AcDbLine
 10
2.026172057419917
 20
1.639175381870656
 30
0.0
 11
2.040904200388248
 21
1.678461095783841
 31
0.0
  0
LINE
  5
305
330
1F
100
AcDbEntity
  8
0
  6
Continuous2
 62
   176
420
      128
370
    -3
100
AcDbLine
 10
2.055636343356579
 20
1.639175381870656
 30
0.0
 11
2.059654200388248
 21
1.628461096635336
 31
0.0
  0
LINE
  5
306
330
1F
100
AcDbEntity
  8
0
  6
Continuous2
 62
   176
420
      128
370
    -3
100
AcDbLine
 10
2.069654200388248
 20
1.678461095783841
 30
0.0
 11
2.082600628959677
 21
1.628461096635336
 31
0.0
  0
LINE
  5
307
330
1F
100
AcDbEntity
  8
0
  6
Continuous2
 62
   176
420
      128
370
    -3
100
AcDbLine
 10
2.082600628959677
 20
1.628461096635336
 30
0.0
 11
2.095547057531105
 21
1.670139667212413
 31
0.0
  0
LINE
  5
308
330
1F
100
AcDbEntity
  8
0
  6
Continuous2
 62
   176
420
      128
370
    -3
100
AcDbLine
 10
2.095547057531105
 20
1.670139667212413
 30
0.0
 11
2.108493486102534
 21
1.628461096635336
 31
0.0
  0
LINE
  5
309
330
1F
100
AcDbEntity
  8
0
  6
Continuous2
 62
   176
420
      128
370
    -3
100
AcDbLine
 10
2.108493486102534
 20
1.628461096635336
 30
0.0
 11
2.121439914673962
 21
1.678461095783841
 31
0.0
  0
LINE
  5
30A
330
1F
100
AcDbEntity
  8
0
  6
Continuous2
 62
   176
420
      128
370
    -3
100
AcDbLine
 10
2.138582775116362
 20
1.628461096635336
 30
0.0
 11
2.138582771923256
 21
1.678461095783841
 31
0.0
  0
LINE
  5
30B
330
1F
100
AcDbEntity
  8
0
  6
Continuous2
 62
   176
420
      128
370
    -3
100
AcDbLine
 10
2.131439921592358
 20
1.628461096635336
 30
0.0
 11
2.138582775116362
 21
1.628461096635336
 31
0.0
  0
LINE
  5
30C
330
1F
100
AcDbEntity
  8
0
  6
Continuous2
 62
   176
420
      128
370
    -3
100
AcDbLine
 10
2.145725632365656
 20
1.628461096635336
 30
0.0
 11
2.138582775116362
 21
1.628461096635336
 31
0.0
  0
LINE
  5
30D
330
1F
100
AcDbEntity
  8
0
  6
Continuous2
 62
   176
420
      128
370
    -3
100
AcDbLine
 10
2.131439921592358
 20
1.678461095783841
 30
0.0
 11
2.138582775116362
 21
1.678461095783841
 31
0.0
  0
LINE
  5
30E
330
1F
100
AcDbEntity
  8
0
  6
Continuous2
 62
   176
420
      128
370
    -3
100
AcDbLine
 10
2.145725632365656
 20
1.678461095783841
 30
0.0
 11
2.138582775116362
 21
1.678461095783841
 31
0.0
  0
LINE
  5
30F
330
1F
100
AcDbEntity
  8
0
  6
Continuous2
 62
   176
420
      128
370
    -3
100
AcDbLine
 10
2.155725628959677
 20
1.628461096635336
 30
0.0
 11
2.155725628959677
 21
1.678461095783841
 31
0.0
  0
LINE
  5
310
330
1F
100
AcDbEntity
  8
0
  6
Continuous2
 62
   176
420
      128
370
    -3
100
AcDbLine
 10
2.186368486102534
 20
1.628461096635336
 30
0.0
 11
2.186368486102534
 21
1.678461095783841
 31
0.0
  0
LINE
  5
311
330
1F
100
AcDbEntity
  8
0
  6
Continuous2
 62
   176
420
      128
370
    -3
100
AcDbLine
 10
2.155725628959677
 20
1.678461095783841
 30
0.0
 11
2.186368486102534
 21
1.628461096635336
 31
0.0
  0
ARC
  5
312
330
1F
100
AcDbEntity
  8
0
  6
Continuous2
 62
   176
420
      128
370
    -3
100
AcDbCircle
 10
2.215468314008973
 20
1.660154720720996
 30
0.0
 40
0.018387452646742
100
AcDbArc
 50
35.68002952407106
 51
155.6131655604662
  0
ARC
  5
313
330
1F
100
AcDbEntity
  8
0
  6
Continuous2
 62
   176
420
      128
370
    -3
100
AcDbCircle
 10
2.240912507808921
 20
1.653461095285923
 30
0.0
 40
0.044544021706387
100
AcDbArc
 50
161.2941285932241
 51
198.7058732343464
  0
LINE
  5
314
330
1F
100
AcDbEntity
  8
0
  6
Continuous2
 62
   176
420
      128
370
    -3
100
AcDbLine
 10
2.209056904048123
 20
1.650644449184498
 30
0.0
 11
2.231656670414996
 21
1.650644449184498
 31
0.0
  0
LINE
  5
315
330
1F
100
AcDbEntity
  8
0
  6
Continuous2
 62
   176
420
      128
370
    -3
100
AcDbLine
 10
2.231656670414996
 20
1.650644449184498
 30
0.0
 11
2.231656670414996
 21
1.645368671815462
 31
0.0
  0
ARC
  5
316
330
1F
100
AcDbEntity
  8
0
  6
Continuous2
 62
   176
420
      128
370
    -3
100
AcDbCircle
 10
2.214952231753222
 20
1.645589956499658
 30
0.0
 40
0.0174523971793575
100
AcDbArc
 50
201.5644206919232
 51
268.7744449653765
  0
ARC
  5
317
330
1F
100
AcDbEntity
  8
0
  6
Continuous2
 62
   176
420
      128
370
    -3
100
AcDbCircle
 10
2.214205676162673
 20
1.645589956499658
 30
0.0
 40
0.0174523971793575
100
AcDbArc
 50
271.2255550346202
 51
359.2735084994315
  0
VIEWPORT
  5
318
102
{ACAD_XDICTIONARY
360
31A
102
}
330
23
100
AcDbEntity
 67
     1
  8
0
100
AcDbViewport
 10
5.25
 20
4.0
 30
0.0
 40
11.638
 41
8.993
 68
     1
 69
     1
 12
5.25
 22
4.0
 13
0.0
 23
0.0
 14
0.5
 24
0.5
 15
0.5
 25
0.5
 16
0.0
 26
0.0
 36
1.0
 17
0.0
 27
0.0
 37
0.0
 42
50.0
 43
0.0
 44
0.0
 45
8.993
 50
0.0
 51
0.0
 72
   100
 90
   557152
  1

281
     0
 71
     1
 74
     0
110
0.0
120
0.0
130
0.0
111
1.0
121
0.0
131
0.0
112
0.0
122
1.0
132
0.0
 79
     0
146
0.0
170
     0
  0
ENDSEC
  0
SECTION
  2
OBJECTS
  0
DICTIONARY
  5
C
330
0
100
AcDbDictionary
281
     1
  3
ACAD_DETAILVIEWSTYLE
350
361
  3
ACAD_GROUP
350
D
  3
ACAD_LAYOUT
350
1A
  3
ACAD_MATERIAL
350
43
  3
ACAD_MLEADERSTYLE
350
6B
  3
ACAD_MLINESTYLE
350
17
  3
ACAD_PLOTSETTINGS
350
19
  3
ACAD_PLOTSTYLENAME
350
E
  3
ACAD_SCALELIST
350
47
  3
ACAD_SECTIONVIEWSTYLE
350
362
  3
ACAD_TABLESTYLE
350
69
  3
ACAD_VISUALSTYLE
350
2A
  3
ACDB_RECOMPOSE_DATA
350
35E
  3
AcDbVariableDictionary
350
31E
  0
DICTIONARY
  5
31C
330
8
100
AcDbDictionary
280
     1
281
     1
  3
ACAD_XREC_ROUNDTRIP
360
31D
  0
DICTIONARY
  5
31A
330
318
100
AcDbDictionary
280
     1
281
     1
  3
ACAD_XREC_ROUNDTRIP
360
31B
  0
DICTIONARY
  5
361
102
{ACAD_REACTORS
330
C
102
}
330
C
100
AcDbDictionary
281
     1
  0
DICTIONARY
  5
D
102
{ACAD_REACTORS
330
C
102
}
330
C
100
AcDbDictionary
281
     1
  0
DICTIONARY
  5
1A
102
{ACAD_REACTORS
330
C
102
}
330
C
100
AcDbDictionary
281
     1
  3
Layout2
350
26
  3
Model
350
22
  0
DICTIONARY
  5
43
102
{ACAD_REACTORS
330
C
102
}
330
C
100
AcDbDictionary
281
     1
  3
ByBlock
350
45
  3
ByLayer
350
44
  3
Global
350
46
  0
DICTIONARY
  5
6B
102
{ACAD_REACTORS
330
C
102
}
330
C
100
AcDbDictionary
281
     1
  3
Standard
350
6C
  0
DICTIONARY
  5
17
102
{ACAD_REACTORS
330
C
102
}
330
C
100
AcDbDictionary
281
     1
  3
Standard
350
18
  0
DICTIONARY
  5
19
102
{ACAD_REACTORS
330
C
102
}
330
C
100
AcDbDictionary
281
     1
  0
ACDBDICTIONARYWDFLT
  5
E
102
{ACAD_REACTORS
330
C
102
}
330
C
100
AcDbDictionary
281
     1
  3
Normal
350
F
100
AcDbDictionaryWithDefault
340
F
  0
DICTIONARY
  5
47
102
{ACAD_REACTORS
330
C
102
}
330
C
100
AcDbDictionary
281
     1
  3
A0
350
48
  3
A1
350
49
  3
A2
350
4A
  3
A3
350
4B
  3
A4
350
4C
  3
A5
350
4D
  3
A6
350
4E
  3
A7
350
4F
  3
A8
350
50
  3
A9
350
51
  3
B0
350
52
  3
B1
350
53
  3
B2
350
54
  3
B3
350
55
  3
B4
350
56
  3
B5
350
57
  3
B6
350
58
  3
B7
350
59
  3
B8
350
5A
  3
B9
350
5B
  3
C0
350
5C
  3
C1
350
5D
  3
C2
350
5E
  3
C3
350
5F
  3
C4
350
60
  3
C5
350
61
  3
C6
350
62
  3
C7
350
63
  3
C8
350
64
  3
C9
350
65
  3
D0
350
66
  3
D1
350
67
  3
D2
350
68
  0
DICTIONARY
  5
362
102
{ACAD_REACTORS
330
C
102
}
330
C
100
AcDbDictionary
281
     1
  0
DICTIONARY
  5
69
102
{ACAD_REACTORS
330
C
102
}
330
C
100
AcDbDictionary
281
     1
  3
Standard
350
6A
  0
DICTIONARY
  5
2A
102
{ACAD_REACTORS
330
C
102
}
330
C
100
AcDbDictionary
281
     1
  3
2dWireframe
350
2F
  3
Basic
350
32
  3
Brighten
350
36
  3
ColorChange
350
3A
  3
Conceptual
350
34
  3
Dim
350
35
  3
EdgeColorOff
350
3D
  3
Facepattern
350
39
  3
Flat
350
2B
  3
FlatWithEdges
350
2C
  3
Gouraud
350
2D
  3
GouraudWithEdges
350
2E
  3
Hidden
350
31
  3
JitterOff
350
3B
  3
Linepattern
350
38
  3
OverhangOff
350
3C
  3
Realistic
350
33
  3
Shaded
350
42
  3
Shaded with edges
350
41
  3
Shades of Gray
350
3E
  3
Sketchy
350
3F
  3
Thicken
350
37
  3
Wireframe
350
30
  3
X-Ray
350
40
  0
XRECORD
  5
35E
102
{ACAD_REACTORS
330
C
102
}
330
C
100
AcDbXrecord
280
     1
 90
        1
330
6A
  0
DICTIONARY
  5
31E
102
{ACAD_REACTORS
330
C
102
}
330
C
100
AcDbDictionary
281
     1
  3
CANNOSCALE
350
31F
  3
CMLEADERSTYLE
350
360
  3
CTABLESTYLE
350
35F
  3
MSLTSCALE
350
320
  3
XCLIPFRAME
350
321
  0
XRECORD
  5
31D
102
{ACAD_REACTORS
330
31C
102
}
330
31C
100
AcDbXrecord
280
     1
102
VTR_0.000_0.000_1.000_1.000_VISUALSTYLE
340
2F
102
VTR_0.000_0.000_1.000_1.000_GRIDDISPLAY
 70
     3
102
VTR_0.000_0.000_1.000_1.000_GRIDMAJOR
 70
     5
102
VTR_0.000_0.000_1.000_1.000_DEFAULTLIGHTING
280
     1
102
VTR_0.000_0.000_1.000_1.000_DEFAULTLIGHTINGTYPE
 70
     1
102
VTR_0.000_0.000_1.000_1.000_BRIGHTNESS
141
0.0
102
VTR_0.000_0.000_1.000_1.000_CONTRAST
142
0.0
  0
XRECORD
  5
31B
102
{ACAD_REACTORS
330
31A
102
}
330
31A
100
AcDbXrecord
280
     1
102
VISUALSTYLE
340
2F
102
GRIDDISPLAY
 70
     2
102
GRIDMAJOR
 70
     5
102
DEFAULTLIGHTING
280
     1
102
DEFAULTLIGHTINGTYPE
 70
     1
102
BRIGHTNESS
141
0.0
102
CONTRAST
142
0.0
102
SUNID
360
0
  0
LAYOUT
  5
26
102
{ACAD_REACTORS
330
1A
102
}
330
1A
100
AcDbPlotSettings
  1

  2
none_device
  4
Letter_(8.50_x_11.00_Inches)
  6

 40
6.35
 41
6.35
 42
6.35001
 43
6.35001
 44
215.9
 45
279.4
 46
0.0
 47
0.0
 48
0.0
 49
0.0
140
0.0
141
0.0
142
1.0
143
1.0
 70
   688
 72
     0
 73
     1
 74
     5
  7

 75
    16
 76
     0
 77
     2
 78
   300
147
1.0
148
0.0
149
0.0
100
AcDbLayout
  1
Layout2
 70
     1
 71
     1
 10
-0.25
 20
-0.25
 11
10.75
 21
8.25
 12
0.0
 22
0.0
 32
0.0
 14
0.0
 24
0.0
 34
0.0
 15
0.0
 25
0.0
 35
0.0
146
0.0
 13
0.0
 23
0.0
 33
0.0
 16
1.0
 26
0.0
 36
0.0
 17
0.0
 27
1.0
 37
0.0
 76
     0
330
23
331
318
  0
LAYOUT
  5
22
102
{ACAD_REACTORS
330
1A
102
}
330
1A
100
AcDbPlotSettings
  1

  2
none_device
  4
Letter_(8.50_x_11.00_Inches)
  6

 40
6.35
 41
6.35
 42
6.35000508
 43
6.35000508
 44
215.9
 45
279.4
 46
0.0
 47
0.0
 48
0.0
 49
0.0
140
0.0
141
0.0
142
1.0
143
1.0
 70
  1712
 72
     0
 73
     0
 74
     0
  7

 75
     0
 76
     0
 77
     2
 78
   300
147
1.0
148
0.0
149
0.0
100
AcDbLayout
  1
Model
 70
     1
 71
     0
 10
0.0
 20
0.0
 11
12.0
 21
9.0
 12
0.0
 22
0.0
 32
0.0
 14
-4.537730363440067
 24
-1.945
 34
0.0
 15
3.799799999999999
 25
2.391278668575255
 35
0.0
146
0.0
 13
0.0
 23
0.0
 33
0.0
 16
1.0
 26
0.0
 36
0.0
 17
0.0
 27
1.0
 37
0.0
 76
     0
330
1F
331
29
  0
MATERIAL
  5
45
102
{ACAD_REACTORS
330
43
102
}
102
{ACAD_XDICTIONARY
360
354
102
}
330
43
100
AcDbMaterial
  1
ByBlock
  0
MATERIAL
  5
44
102
{ACAD_REACTORS
330
43
102
}
102
{ACAD_XDICTIONARY
360
352
102
}
330
43
100
AcDbMaterial
  1
ByLayer
  0
MATERIAL
  5
46
102
{ACAD_REACTORS
330
43
102
}
102
{ACAD_XDICTIONARY
360
356
102
}
330
43
100
AcDbMaterial
  1
Global
  0
MLEADERSTYLE
  5
6C
102
{ACAD_REACTORS
330
6B
102
}
102
{ACAD_XDICTIONARY
360
35C
102
}
330
6B
100
AcDbMLeaderStyle
170
     2
171
     1
172
     0
 90
        2
 40
0.0
 41
0.0
173
     1
 91
-1056964608
340
14
 92
       -2
290
     1
 42
0.09
291
     1
 43
0.36
  3
Standard
341
0
 44
0.18
300

342
11
174
     1
178
     6
175
     1
176
     0
 93
-1056964608
 45
0.18
292
     0
297
     0
 46
0.18
343
0
 94
-1056964608
 47
1.0
 49
1.0
140
1.0
293
     1
141
0.0
294
     1
177
     0
142
1.0
295
     0
296
     0
143
0.125
1001
ACAD_MLEADERVER
1070
     2
  0
MLINESTYLE
  5
18
102
{ACAD_REACTORS
330
17
102
}
330
17
100
AcDbMlineStyle
  2
Standard
 70
     0
  3

 62
   256
 51
90.0
 52
90.0
 71
     2
 49
0.5
 62
   256
  6
BYLAYER
 49
-0.5
 62
   256
  6
BYLAYER
  0
ACDBPLACEHOLDER
  5
F
102
{ACAD_REACTORS
330
E
102
}
330
E
  0
SCALE
  5
48
102
{ACAD_REACTORS
330
47
102
}
330
47
100
AcDbScale
 70
     0
300
1:1
140
1.0
141
1.0
290
     1
  0
SCALE
  5
49
102
{ACAD_REACTORS
330
47
102
}
330
47
100
AcDbScale
 70
     0
300
1:2
140
1.0
141
2.0
290
     0
  0
SCALE
  5
4A
102
{ACAD_REACTORS
330
47
102
}
330
47
100
AcDbScale
 70
     0
300
1:4
140
1.0
141
4.0
290
     0
  0
SCALE
  5
4B
102
{ACAD_REACTORS
330
47
102
}
330
47
100
AcDbScale
 70
     0
300
1:5
140
1.0
141
5.0
290
     0
  0
SCALE
  5
4C
102
{ACAD_REACTORS
330
47
102
}
330
47
100
AcDbScale
 70
     0
300
1:8
140
1.0
141
8.0
290
     0
  0
SCALE
  5
4D
102
{ACAD_REACTORS
330
47
102
}
330
47
100
AcDbScale
 70
     0
300
1:10
140
1.0
141
10.0
290
     0
  0
SCALE
  5
4E
102
{ACAD_REACTORS
330
47
102
}
330
47
100
AcDbScale
 70
     0
300
1:16
140
1.0
141
16.0
290
     0
  0
SCALE
  5
4F
102
{ACAD_REACTORS
330
47
102
}
330
47
100
AcDbScale
 70
     0
300
1:20
140
1.0
141
20.0
290
     0
  0
SCALE
  5
50
102
{ACAD_REACTORS
330
47
102
}
330
47
100
AcDbScale
 70
     0
300
1:30
140
1.0
141
30.0
290
     0
  0
SCALE
  5
51
102
{ACAD_REACTORS
330
47
102
}
330
47
100
AcDbScale
 70
     0
300
1:40
140
1.0
141
40.0
290
     0
  0
SCALE
  5
52
102
{ACAD_REACTORS
330
47
102
}
330
47
100
AcDbScale
 70
     0
300
1:50
140
1.0
141
50.0
290
     0
  0
SCALE
  5
53
102
{ACAD_REACTORS
330
47
102
}
330
47
100
AcDbScale
 70
     0
300
1:100
140
1.0
141
100.0
290
     0
  0
SCALE
  5
54
102
{ACAD_REACTORS
330
47
102
}
330
47
100
AcDbScale
 70
     0
300
2:1
140
2.0
141
1.0
290
     0
  0
SCALE
  5
55
102
{ACAD_REACTORS
330
47
102
}
330
47
100
AcDbScale
 70
     0
300
4:1
140
4.0
141
1.0
290
     0
  0
SCALE
  5
56
102
{ACAD_REACTORS
330
47
102
}
330
47
100
AcDbScale
 70
     0
300
8:1
140
8.0
141
1.0
290
     0
  0
SCALE
  5
57
102
{ACAD_REACTORS
330
47
102
}
330
47
100
AcDbScale
 70
     0
300
10:1
140
10.0
141
1.0
290
     0
  0
SCALE
  5
58
102
{ACAD_REACTORS
330
47
102
}
330
47
100
AcDbScale
 70
     0
300
100:1
140
100.0
141
1.0
290
     0
  0
SCALE
  5
59
102
{ACAD_REACTORS
330
47
102
}
330
47
100
AcDbScale
 70
     0
300
1/128" = 1'-0"
140
0.0078125
141
12.0
290
     0
  0
SCALE
  5
5A
102
{ACAD_REACTORS
330
47
102
}
330
47
100
AcDbScale
 70
     0
300
1/64" = 1'-0"
140
0.015625
141
12.0
290
     0
  0
SCALE
  5
5B
102
{ACAD_REACTORS
330
47
102
}
330
47
100
AcDbScale
 70
     0
300
1/32" = 1'-0"
140
0.03125
141
12.0
290
     0
  0
SCALE
  5
5C
102
{ACAD_REACTORS
330
47
102
}
330
47
100
AcDbScale
 70
     0
300
1/16" = 1'-0"
140
0.0625
141
12.0
290
     0
  0
SCALE
  5
5D
102
{ACAD_REACTORS
330
47
102
}
330
47
100
AcDbScale
 70
     0
300
3/32" = 1'-0"
140
0.09375
141
12.0
290
     0
  0
SCALE
  5
5E
102
{ACAD_REACTORS
330
47
102
}
330
47
100
AcDbScale
 70
     0
300
1/8" = 1'-0"
140
0.125
141
12.0
290
     0
  0
SCALE
  5
5F
102
{ACAD_REACTORS
330
47
102
}
330
47
100
AcDbScale
 70
     0
300
3/16" = 1'-0"
140
0.1875
141
12.0
290
     0
  0
SCALE
  5
60
102
{ACAD_REACTORS
330
47
102
}
330
47
100
AcDbScale
 70
     0
300
1/4" = 1'-0"
140
0.25
141
12.0
290
     0
  0
SCALE
  5
61
102
{ACAD_REACTORS
330
47
102
}
330
47
100
AcDbScale
 70
     0
300
3/8" = 1'-0"
140
0.375
141
12.0
290
     0
  0
SCALE
  5
62
102
{ACAD_REACTORS
330
47
102
}
330
47
100
AcDbScale
 70
     0
300
1/2" = 1'-0"
140
0.5
141
12.0
290
     0
  0
SCALE
  5
63
102
{ACAD_REACTORS
330
47
102
}
330
47
100
AcDbScale
 70
     0
300
3/4" = 1'-0"
140
0.75
141
12.0
290
     0
  0
SCALE
  5
64
102
{ACAD_REACTORS
330
47
102
}
330
47
100
AcDbScale
 70
     0
300
1" = 1'-0"
140
1.0
141
12.0
290
     0
  0
SCALE
  5
65
102
{ACAD_REACTORS
330
47
102
}
330
47
100
AcDbScale
 70
     0
300
1-1/2" = 1'-0"
140
1.5
141
12.0
290
     0
  0
SCALE
  5
66
102
{ACAD_REACTORS
330
47
102
}
330
47
100
AcDbScale
 70
     0
300
3" = 1'-0"
140
3.0
141
12.0
290
     0
  0
SCALE
  5
67
102
{ACAD_REACTORS
330
47
102
}
330
47
100
AcDbScale
 70
     0
300
6" = 1'-0"
140
6.0
141
12.0
290
     0
  0
SCALE
  5
68
102
{ACAD_REACTORS
330
47
102
}
330
47
100
AcDbScale
 70
     0
300
1'-0" = 1'-0"
140
12.0
141
12.0
290
     0
  0
TABLESTYLE
  5
6A
102
{ACAD_REACTORS
330
69
102
}
102
{ACAD_XDICTIONARY
360
358
102
}
330
69
100
AcDbTableStyle
  3
Standard
 70
     0
 71
     0
 40
0.06
 41
0.06
280
     0
281
     0
  7
Standard
140
0.18
170
     2
 62
     0
 63
   257
283
     0
274
    -2
284
     1
 64
     0
275
    -2
285
     1
 65
     0
276
    -2
286
     1
 66
     0
277
    -2
287
     1
 67
     0
278
    -2
288
     1
 68
     0
279
    -2
289
     1
 69
     0
  7
Standard
140
0.25
170
     5
 62
     0
 63
   257
283
     0
274
    -2
284
     1
 64
     0
275
    -2
285
     1
 65
     0
276
    -2
286
     1
 66
     0
277
    -2
287
     1
 67
     0
278
    -2
288
     1
 68
     0
279
    -2
289
     1
 69
     0
  7
Standard
140
0.18
170
     5
 62
     0
 63
   257
283
     0
274
    -2
284
     1
 64
     0
275
    -2
285
     1
 65
     0
276
    -2
286
     1
 66
     0
277
    -2
287
     1
 67
     0
278
    -2
288
     1
 68
     0
279
    -2
289
     1
 69
     0
  0
VISUALSTYLE
  5
2F
102
{ACAD_REACTORS
330
2A
102
}
102
{ACAD_XDICTIONARY
360
32A
102
}
330
2A
100
AcDbVisualStyle
  2
2dWireframe
 70
     4
 71
     0
 72
     2
 73
     0
 90
        0
 40
0.6
 41
30.0
 62
     5
 63
     7
421
 16777215
 74
     1
 91
        4
 64
     7
 65
   257
 75
     1
175
     1
 42
1.0
 92
        0
 66
   257
 43
1.0
 76
     1
 77
     6
 78
     2
 67
     7
 79
     5
170
     0
171
     0
290
     0
174
     0
 93
        1
 44
0.0
173
     0
291
     0
 45
0.0
1001
ACAD
1000
AcDbSavedByObjectVersion
1070
     0
  0
VISUALSTYLE
  5
32
102
{ACAD_REACTORS
330
2A
102
}
102
{ACAD_XDICTIONARY
360
330
102
}
330
2A
100
AcDbVisualStyle
  2
Basic
 70
     7
 71
     1
 72
     0
 73
     1
 90
        0
 40
0.6
 41
30.0
 62
     5
 63
     7
421
 16777215
 74
     0
 91
        4
 64
     7
 65
   257
 75
     1
175
     1
 42
1.0
 92
        8
 66
     7
 43
1.0
 76
     1
 77
     6
 78
     2
 67
     7
 79
     5
170
     0
171
     0
290
     0
174
     0
 93
        1
 44
0.0
173
     0
291
     1
 45
0.0
1001
ACAD
1000
AcDbSavedByObjectVersion
1070
     0
  0
VISUALSTYLE
  5
36
102
{ACAD_REACTORS
330
2A
102
}
102
{ACAD_XDICTIONARY
360
338
102
}
330
2A
100
AcDbVisualStyle
  2
Brighten
 70
    12
 71
     2
 72
     2
 73
     0
 90
        0
 40
0.6
 41
30.0
 62
     5
 63
     7
421
 16777215
 74
     1
 91
        4
 64
     7
 65
   257
 75
     1
175
     1
 42
1.0
 92
        8
 66
     7
 43
1.0
 76
     1
 77
     6
 78
     2
 67
     7
 79
     5
170
     0
171
     0
290
     0
174
     0
 93
        1
 44
50.0
173
     0
291
     1
 45
0.0
1001
ACAD
1000
AcDbSavedByObjectVersion
1070
     0
  0
VISUALSTYLE
  5
3A
102
{ACAD_REACTORS
330
2A
102
}
102
{ACAD_XDICTIONARY
360
340
102
}
330
2A
100
AcDbVisualStyle
  2
ColorChange
 70
    16
 71
     2
 72
     2
 73
     3
 90
        0
 40
0.6
 41
30.0
 62
     5
 63
     8
421
  8421504
 74
     1
 91
        4
 64
     7
 65
   257
 75
     1
175
     1
 42
1.0
 92
        8
 66
     8
424
  8421504
 43
1.0
 76
     1
 77
     6
 78
     2
 67
     7
 79
     5
170
     0
171
     0
290
     0
174
     0
 93
        1
 44
0.0
173
     0
291
     1
 45
0.0
1001
ACAD
1000
AcDbSavedByObjectVersion
1070
     0
  0
VISUALSTYLE
  5
34
102
{ACAD_REACTORS
330
2A
102
}
102
{ACAD_XDICTIONARY
360
334
102
}
330
2A
100
AcDbVisualStyle
  2
Conceptual
 70
     9
 71
     3
 72
     2
 73
     0
 90
        0
 40
0.6
 41
30.0
 62
     5
 63
     7
421
 16777215
 74
     2
 91
        2
 64
     7
 65
   257
 75
     1
175
     1
 42
179.0
 92
        8
 66
     7
 43
1.0
 76
     1
 77
     6
 78
     2
 67
     7
 79
     3
170
     0
171
     0
290
     0
174
     0
 93
        1
 44
0.0
173
     0
291
     0
 45
0.0
1001
ACAD
1000
AcDbSavedByObjectVersion
1070
     0
  0
VISUALSTYLE
  5
35
102
{ACAD_REACTORS
330
2A
102
}
102
{ACAD_XDICTIONARY
360
336
102
}
330
2A
100
AcDbVisualStyle
  2
Dim
 70
    11
 71
     2
 72
     2
 73
     0
 90
        0
 40
0.6
 41
30.0
 62
     5
 63
     7
421
 16777215
 74
     1
 91
        4
 64
     7
 65
   257
 75
     1
175
     1
 42
1.0
 92
        8
 66
     7
 43
1.0
 76
     1
 77
     6
 78
     2
 67
     7
 79
     5
170
     0
171
     0
290
     0
174
     0
 93
        1
 44
-50.0
173
     0
291
     1
 45
0.0
1001
ACAD
1000
AcDbSavedByObjectVersion
1070
     0
  0
VISUALSTYLE
  5
3D
102
{ACAD_REACTORS
330
2A
102
}
102
{ACAD_XDICTIONARY
360
346
102
}
330
2A
100
AcDbVisualStyle
  2
EdgeColorOff
 70
    22
 71
     2
 72
     2
 73
     0
 90
        0
 40
0.6
 41
30.0
 62
     5
 63
     7
421
 16777215
 74
     1
 91
        4
 64
     7
 65
   257
 75
     1
175
     1
 42
1.0
 92
        8
 66
     7
 43
1.0
 76
     1
 77
     6
 78
     2
 67
     7
 79
     5
170
     0
171
     0
290
     0
174
     0
 93
        1
 44
0.0
173
     0
291
     1
 45
0.0
1001
ACAD
1000
AcDbSavedByObjectVersion
1070
     0
  0
VISUALSTYLE
  5
39
102
{ACAD_REACTORS
330
2A
102
}
102
{ACAD_XDICTIONARY
360
33E
102
}
330
2A
100
AcDbVisualStyle
  2
Facepattern
 70
    15
 71
     2
 72
     2
 73
     0
 90
        0
 40
0.6
 41
30.0
 62
     5
 63
     7
421
 16777215
 74
     1
 91
        4
 64
     7
 65
   257
 75
     1
175
     1
 42
1.0
 92
        8
 66
     7
 43
1.0
 76
     1
 77
     6
 78
     2
 67
     7
 79
     5
170
     0
171
     0
290
     0
174
     0
 93
        1
 44
0.0
173
     0
291
     1
 45
0.0
1001
ACAD
1000
AcDbSavedByObjectVersion
1070
     0
  0
VISUALSTYLE
  5
2B
102
{ACAD_REACTORS
330
2A
102
}
102
{ACAD_XDICTIONARY
360
322
102
}
330
2A
100
AcDbVisualStyle
  2
Flat
 70
     0
 71
     2
 72
     1
 73
     1
 90
        2
 40
0.6
 41
30.0
 62
     5
 63
     7
421
 16777215
 74
     0
 91
        0
 64
     7
 65
   257
 75
     1
175
     1
 42
1.0
 92
        8
 66
     7
 43
1.0
 76
     1
 77
     6
 78
     2
 67
     7
 79
     5
170
     0
171
     0
290
     0
174
     0
 93
       13
 44
0.0
173
     0
291
     1
 45
0.0
1001
ACAD
1000
AcDbSavedByObjectVersion
1070
     0
  0
VISUALSTYLE
  5
2C
102
{ACAD_REACTORS
330
2A
102
}
102
{ACAD_XDICTIONARY
360
324
102
}
330
2A
100
AcDbVisualStyle
  2
FlatWithEdges
 70
     1
 71
     2
 72
     1
 73
     1
 90
        2
 40
0.6
 41
30.0
 62
     5
 63
     7
421
 16777215
 74
     1
 91
        0
 64
     7
 65
   257
 75
     1
175
     1
 42
1.0
 92
        0
 66
   257
 43
1.0
 76
     1
 77
     6
 78
     2
 67
     7
 79
     5
170
     0
171
     0
290
     0
174
     0
 93
       13
 44
0.0
173
     0
291
     1
 45
0.0
1001
ACAD
1000
AcDbSavedByObjectVersion
1070
     0
  0
VISUALSTYLE
  5
2D
102
{ACAD_REACTORS
330
2A
102
}
102
{ACAD_XDICTIONARY
360
326
102
}
330
2A
100
AcDbVisualStyle
  2
Gouraud
 70
     2
 71
     2
 72
     2
 73
     1
 90
        2
 40
0.6
 41
30.0
 62
     5
 63
     7
421
 16777215
 74
     0
 91
        0
 64
     7
 65
   257
 75
     1
175
     1
 42
1.0
 92
        0
 66
     7
 43
1.0
 76
     1
 77
     6
 78
     2
 67
     7
 79
     5
170
     0
171
     0
290
     0
174
     0
 93
       13
 44
0.0
173
     0
291
     1
 45
0.0
1001
ACAD
1000
AcDbSavedByObjectVersion
1070
     0
  0
VISUALSTYLE
  5
2E
102
{ACAD_REACTORS
330
2A
102
}
102
{ACAD_XDICTIONARY
360
328
102
}
330
2A
100
AcDbVisualStyle
  2
GouraudWithEdges
 70
     3
 71
     2
 72
     2
 73
     1
 90
        2
 40
0.6
 41
30.0
 62
     5
 63
     7
421
 16777215
 74
     1
 91
        0
 64
     7
 65
   257
 75
     1
175
     1
 42
1.0
 92
        0
 66
   257
 43
1.0
 76
     1
 77
     6
 78
     2
 67
     7
 79
     5
170
     0
171
     0
290
     0
174
     0
 93
       13
 44
0.0
173
     0
291
     1
 45
0.0
1001
ACAD
1000
AcDbSavedByObjectVersion
1070
     0
  0
VISUALSTYLE
  5
31
102
{ACAD_REACTORS
330
2A
102
}
102
{ACAD_XDICTIONARY
360
32E
102
}
330
2A
100
AcDbVisualStyle
  2
Hidden
 70
     6
 71
     1
 72
     2
 73
     2
 90
        0
 40
0.6
 41
30.0
 62
     5
 63
     7
421
 16777215
 74
     2
 91
        2
 64
     7
 65
   257
 75
     2
175
     1
 42
40.0
 92
        0
 66
   257
 43
1.0
 76
     1
 77
     6
 78
     2
 67
     7
 79
     3
170
     0
171
     0
290
     0
174
     0
 93
        1
 44
0.0
173
     0
291
     0
 45
0.0
1001
ACAD
1000
AcDbSavedByObjectVersion
1070
     0
  0
VISUALSTYLE
  5
3B
102
{ACAD_REACTORS
330
2A
102
}
102
{ACAD_XDICTIONARY
360
342
102
}
330
2A
100
AcDbVisualStyle
  2
JitterOff
 70
    20
 71
     2
 72
     2
 73
     0
 90
        0
 40
0.6
 41
30.0
 62
     5
 63
     7
421
 16777215
 74
     1
 91
        4
 64
     7
 65
   257
 75
     1
175
     1
 42
1.0
 92
       10
 66
     7
 43
1.0
 76
     1
 77
     6
 78
     2
 67
     7
 79
     5
170
     0
171
     0
290
     0
174
     0
 93
        1
 44
0.0
173
     0
291
     1
 45
0.0
1001
ACAD
1000
AcDbSavedByObjectVersion
1070
     0
  0
VISUALSTYLE
  5
38
102
{ACAD_REACTORS
330
2A
102
}
102
{ACAD_XDICTIONARY
360
33C
102
}
330
2A
100
AcDbVisualStyle
  2
Linepattern
 70
    14
 71
     2
 72
     2
 73
     0
 90
        0
 40
0.6
 41
30.0
 62
     5
 63
     7
421
 16777215
 74
     1
 91
        4
 64
     7
 65
   257
 75
     7
175
     7
 42
1.0
 92
        8
 66
     7
 43
1.0
 76
     1
 77
     6
 78
     2
 67
     7
 79
     5
170
     0
171
     0
290
     0
174
     0
 93
        1
 44
0.0
173
     0
291
     1
 45
0.0
1001
ACAD
1000
AcDbSavedByObjectVersion
1070
     0
  0
VISUALSTYLE
  5
3C
102
{ACAD_REACTORS
330
2A
102
}
102
{ACAD_XDICTIONARY
360
344
102
}
330
2A
100
AcDbVisualStyle
  2
OverhangOff
 70
    21
 71
     2
 72
     2
 73
     0
 90
        0
 40
0.6
 41
30.0
 62
     5
 63
     7
421
 16777215
 74
     1
 91
        4
 64
     7
 65
   257
 75
     1
175
     1
 42
1.0
 92
        9
 66
     7
 43
1.0
 76
     1
 77
     6
 78
     2
 67
     7
 79
     5
170
     0
171
     0
290
     0
174
     0
 93
        1
 44
0.0
173
     0
291
     1
 45
0.0
1001
ACAD
1000
AcDbSavedByObjectVersion
1070
     0
  0
VISUALSTYLE
  5
33
102
{ACAD_REACTORS
330
2A
102
}
102
{ACAD_XDICTIONARY
360
332
102
}
330
2A
100
AcDbVisualStyle
  2
Realistic
 70
     8
 71
     2
 72
     3
 73
     0
 90
        2
 40
0.6
 41
30.0
 62
     5
 63
     7
421
 16777215
 74
     0
 91
        0
 64
     7
 65
   257
 75
     1
175
     1
 42
1.0
 92
        8
 66
   257
 43
1.0
 76
     1
 77
     6
 78
     2
 67
     7
 79
     3
170
     0
171
     0
290
     0
174
     0
 93
       13
 44
0.0
173
     0
291
     0
 45
0.0
1001
ACAD
1000
AcDbSavedByObjectVersion
1070
     0
  0
VISUALSTYLE
  5
42
102
{ACAD_REACTORS
330
2A
102
}
102
{ACAD_XDICTIONARY
360
350
102
}
330
2A
100
AcDbVisualStyle
  2
Shaded
 70
    27
 71
     2
 72
     2
 73
     1
 90
        2
 40
0.6
 41
30.0
 62
     5
 63
     7
421
 16777215
 74
     0
 91
        4
 64
     7
 65
   257
 75
     1
175
     1
 42
1.0
 92
        8
 66
   257
 43
1.0
 76
     1
 77
     6
 78
     2
 67
     8
425
  7895160
 79
     3
170
     0
171
     0
290
     0
174
     0
 93
        5
 44
0.0
173
     0
291
     0
 45
0.0
1001
ACAD
1000
AcDbSavedByObjectVersion
1070
     0
  0
VISUALSTYLE
  5
41
102
{ACAD_REACTORS
330
2A
102
}
102
{ACAD_XDICTIONARY
360
34E
102
}
330
2A
100
AcDbVisualStyle
  2
Shaded with edges
 70
    26
 71
     2
 72
     2
 73
     1
 90
        2
 40
0.6
 41
30.0
 62
     5
 63
     7
421
 16777215
 74
     1
 91
       10
 64
     7
 65
   257
 75
     2
175
     1
 42
1.0
 92
        8
 66
   257
 43
1.0
 76
     1
 77
     6
 78
     2
 67
     7
 79
     3
170
     0
171
     0
290
     0
174
     0
 93
        5
 44
0.0
173
     0
291
     0
 45
0.0
1001
ACAD
1000
AcDbSavedByObjectVersion
1070
     0
  0
VISUALSTYLE
  5
3E
102
{ACAD_REACTORS
330
2A
102
}
102
{ACAD_XDICTIONARY
360
348
102
}
330
2A
100
AcDbVisualStyle
  2
Shades of Gray
 70
    23
 71
     2
 72
     2
 73
     3
 90
        0
 40
0.6
 41
30.0
 62
     5
 63
     7
421
 16777215
 74
     2
 91
        2
 64
     7
 65
     7
 75
     1
175
     1
 42
40.0
 92
        8
 66
     7
 43
1.0
 76
     1
 77
     6
 78
     2
 67
     7
 79
     3
170
     0
171
     0
290
     0
174
     0
 93
        1
 44
0.0
173
     0
291
     0
 45
0.0
1001
ACAD
1000
AcDbSavedByObjectVersion
1070
     0
  0
VISUALSTYLE
  5
3F
102
{ACAD_REACTORS
330
2A
102
}
102
{ACAD_XDICTIONARY
360
34A
102
}
330
2A
100
AcDbVisualStyle
  2
Sketchy
 70
    24
 71
     1
 72
     2
 73
     2
 90
        0
 40
0.6
 41
30.0
 62
     5
 63
     7
421
 16777215
 74
     2
 91
        2
 64
     7
 65
     7
 75
     1
175
     1
 42
40.0
 92
       11
 66
     7
 43
1.0
 76
     1
 77
     6
 78
     2
 67
     7
 79
     6
170
     0
171
     0
290
     0
174
     0
 93
        1
 44
0.0
173
     0
291
     0
 45
0.0
1001
ACAD
1000
AcDbSavedByObjectVersion
1070
     0
  0
VISUALSTYLE
  5
37
102
{ACAD_REACTORS
330
2A
102
}
102
{ACAD_XDICTIONARY
360
33A
102
}
330
2A
100
AcDbVisualStyle
  2
Thicken
 70
    13
 71
     2
 72
     2
 73
     0
 90
        0
 40
0.6
 41
30.0
 62
     5
 63
     7
421
 16777215
 74
     1
 91
        4
 64
     7
 65
   257
 75
     1
175
     1
 42
1.0
 92
       12
 66
     7
 43
1.0
 76
     1
 77
     6
 78
     2
 67
     7
 79
     5
170
     0
171
     0
290
     0
174
     0
 93
        1
 44
0.0
173
     0
291
     1
 45
0.0
1001
ACAD
1000
AcDbSavedByObjectVersion
1070
     0
  0
VISUALSTYLE
  5
30
102
{ACAD_REACTORS
330
2A
102
}
102
{ACAD_XDICTIONARY
360
32C
102
}
330
2A
100
AcDbVisualStyle
  2
Wireframe
 70
     5
 71
     0
 72
     2
 73
     0
 90
        0
 40
0.6
 41
30.0
 62
     5
 63
     7
421
 16777215
 74
     1
 91
        4
 64
     7
 65
   257
 75
     1
175
     1
 42
1.0
 92
        0
 66
   257
 43
1.0
 76
     1
 77
     6
 78
     2
 67
     7
 79
     3
170
     0
171
     0
290
     0
174
     0
 93
        1
 44
0.0
173
     0
291
     0
 45
0.0
1001
ACAD
1000
AcDbSavedByObjectVersion
1070
     0
  0
VISUALSTYLE
  5
40
102
{ACAD_REACTORS
330
2A
102
}
102
{ACAD_XDICTIONARY
360
34C
102
}
330
2A
100
AcDbVisualStyle
  2
X-Ray
 70
    25
 71
     2
 72
     2
 73
     1
 90
        1
 40
0.5
 41
30.0
 62
     5
 63
     7
421
 16777215
 74
     1
 91
        0
 64
     7
 65
   257
 75
     1
175
     1
 42
1.0
 92
        8
 66
     7
 43
1.0
 76
     1
 77
     6
 78
     2
 67
     7
 79
     3
170
     0
171
     0
290
     0
174
     0
 93
       13
 44
0.0
173
     0
291
     0
 45
0.0
1001
ACAD
1000
AcDbSavedByObjectVersion
1070
     0
  0
DICTIONARYVAR
  5
31F
102
{ACAD_REACTORS
330
31E
102
}
330
31E
100
DictionaryVariables
280
     0
  1
1:1
  0
DICTIONARYVAR
  5
360
102
{ACAD_REACTORS
330
31E
102
}
330
31E
100
DictionaryVariables
280
     0
  1
Standard
  0
DICTIONARYVAR
  5
35F
102
{ACAD_REACTORS
330
31E
102
}
330
31E
100
DictionaryVariables
280
     0
  1
Standard
  0
DICTIONARYVAR
  5
320
102
{ACAD_REACTORS
330
31E
102
}
330
31E
100
DictionaryVariables
280
     0
  1
1
  0
DICTIONARYVAR
  5
321
102
{ACAD_REACTORS
330
31E
102
}
330
31E
100
DictionaryVariables
280
     0
  1
2
  0
DICTIONARY
  5
354
330
45
100
AcDbDictionary
280
     1
281
     1
  3
ACAD_XREC_ROUNDTRIP
360
355
  0
DICTIONARY
  5
352
330
44
100
AcDbDictionary
280
     1
281
     1
  3
ACAD_XREC_ROUNDTRIP
360
353
  0
DICTIONARY
  5
356
330
46
100
AcDbDictionary
280
     1
281
     1
  3
ACAD_XREC_ROUNDTRIP
360
357
  0
DICTIONARY
  5
35C
330
6C
100
AcDbDictionary
280
     1
281
     1
  3
ACAD_XREC_ROUNDTRIP
360
35D
  0
DICTIONARY
  5
358
330
6A
100
AcDbDictionary
280
     1
281
     1
  3
ACAD_ROUNDTRIP_2008_TABLESTYLE_CELLSTYLEMAP
360
35A
  3
ACAD_XREC_ROUNDTRIP
360
359
  0
DICTIONARY
  5
32A
330
2F
100
AcDbDictionary
280
     1
281
     1
  3
ACAD_XREC_ROUNDTRIP
360
32B
  0
DICTIONARY
  5
330
330
32
100
AcDbDictionary
280
     1
281
     1
  3
ACAD_XREC_ROUNDTRIP
360
331
  0
DICTIONARY
  5
338
330
36
100
AcDbDictionary
280
     1
281
     1
  3
ACAD_XREC_ROUNDTRIP
360
339
  0
DICTIONARY
  5
340
330
3A
100
AcDbDictionary
280
     1
281
     1
  3
ACAD_XREC_ROUNDTRIP
360
341
  0
DICTIONARY
  5
334
330
34
100
AcDbDictionary
280
     1
281
     1
  3
ACAD_XREC_ROUNDTRIP
360
335
  0
DICTIONARY
  5
336
330
35
100
AcDbDictionary
280
     1
281
     1
  3
ACAD_XREC_ROUNDTRIP
360
337
  0
DICTIONARY
  5
346
330
3D
100
AcDbDictionary
280
     1
281
     1
  3
ACAD_XREC_ROUNDTRIP
360
347
  0
DICTIONARY
  5
33E
330
39
100
AcDbDictionary
280
     1
281
     1
  3
ACAD_XREC_ROUNDTRIP
360
33F
  0
DICTIONARY
  5
322
330
2B
100
AcDbDictionary
280
     1
281
     1
  3
ACAD_XREC_ROUNDTRIP
360
323
  0
DICTIONARY
  5
324
330
2C
100
AcDbDictionary
280
     1
281
     1
  3
ACAD_XREC_ROUNDTRIP
360
325
  0
DICTIONARY
  5
326
330
2D
100
AcDbDictionary
280
     1
281
     1
  3
ACAD_XREC_ROUNDTRIP
360
327
  0
DICTIONARY
  5
328
330
2E
100
AcDbDictionary
280
     1
281
     1
  3
ACAD_XREC_ROUNDTRIP
360
329
  0
DICTIONARY
  5
32E
330
31
100
AcDbDictionary
280
     1
281
     1
  3
ACAD_XREC_ROUNDTRIP
360
32F
  0
DICTIONARY
  5
342
330
3B
100
AcDbDictionary
280
     1
281
     1
  3
ACAD_XREC_ROUNDTRIP
360
343
  0
DICTIONARY
  5
33C
330
38
100
AcDbDictionary
280
     1
281
     1
  3
ACAD_XREC_ROUNDTRIP
360
33D
  0
DICTIONARY
  5
344
330
3C
100
AcDbDictionary
280
     1
281
     1
  3
ACAD_XREC_ROUNDTRIP
360
345
  0
DICTIONARY
  5
332
330
33
100
AcDbDictionary
280
     1
281
     1
  3
ACAD_XREC_ROUNDTRIP
360
333
  0
DICTIONARY
  5
350
330
42
100
AcDbDictionary
280
     1
281
     1
  3
ACAD_XREC_ROUNDTRIP
360
351
  0
DICTIONARY
  5
34E
330
41
100
AcDbDictionary
280
     1
281
     1
  3
ACAD_XREC_ROUNDTRIP
360
34F
  0
DICTIONARY
  5
348
330
3E
100
AcDbDictionary
280
     1
281
     1
  3
ACAD_XREC_ROUNDTRIP
360
349
  0
DICTIONARY
  5
34A
330
3F
100
AcDbDictionary
280
     1
281
     1
  3
ACAD_XREC_ROUNDTRIP
360
34B
  0
DICTIONARY
  5
33A
330
37
100
AcDbDictionary
280
     1
281
     1
  3
ACAD_XREC_ROUNDTRIP
360
33B
  0
DICTIONARY
  5
32C
330
30
100
AcDbDictionary
280
     1
281
     1
  3
ACAD_XREC_ROUNDTRIP
360
32D
  0
DICTIONARY
  5
34C
330
40
100
AcDbDictionary
280
     1
281
     1
  3
ACAD_XREC_ROUNDTRIP
360
34D
  0
XRECORD
  5
355
102
{ACAD_REACTORS
330
354
102
}
330
354
100
AcDbXrecord
280
     1
102
MATERIAL
148
0.0
149
0.0
149
0.0
 93
        0
 94
      127
282
     0
 72
     1
 77
     1
171
     1
175
     1
179
     1
273
     0
  0
XRECORD
  5
353
102
{ACAD_REACTORS
330
352
102
}
330
352
100
AcDbXrecord
280
     1
102
MATERIAL
148
0.0
149
0.0
149
0.0
 93
        0
 94
      127
282
     0
 72
     1
 77
     1
171
     1
175
     1
179
     1
273
     0
  0
XRECORD
  5
357
102
{ACAD_REACTORS
330
356
102
}
330
356
100
AcDbXrecord
280
     1
102
MATERIAL
148
0.0
149
0.0
149
0.0
 93
        0
 94
      127
282
     0
 72
     1
 77
     1
171
     1
175
     1
179
     1
273
     0
  0
XRECORD
  5
35D
102
{ACAD_REACTORS
330
35C
102
}
330
35C
100
AcDbXrecord
280
     1
102
ACAD_ROUNDTRIP_2010_MLEADER_STYLE
  0
CELLSTYLEMAP
  5
35A
102
{ACAD_REACTORS
330
358
102
}
330
358
100
AcDbCellStyleMap
 90
        3
300
CELLSTYLE
  1
TABLEFORMAT_BEGIN
 90
        5
170
     1
 91
        0
 92
    32768
 62
   257
 93
        1
300
CONTENTFORMAT
  1
CONTENTFORMAT_BEGIN
 90
        0
 91
        0
 92
        4
 93
        0
300

 40
0.0
140
1.0
 94
        5
 62
     0
340
11
144
0.25
309
CONTENTFORMAT_END
171
     1
301
MARGIN
  1
CELLMARGIN_BEGIN
 40
0.06
 40
0.06
 40
0.06
 40
0.06
 40
0.06
 40
0.06
309
CELLMARGIN_END
 94
        6
 95
        1
302
GRIDFORMAT
  1
GRIDFORMAT_BEGIN
 90
        0
 91
        1
 62
     0
 92
       -2
340
14
 93
        0
 40
0.045
309
GRIDFORMAT_END
 95
        2
302
GRIDFORMAT
  1
GRIDFORMAT_BEGIN
 90
        0
 91
        1
 62
     0
 92
       -2
340
14
 93
        0
 40
0.045
309
GRIDFORMAT_END
 95
        4
302
GRIDFORMAT
  1
GRIDFORMAT_BEGIN
 90
        0
 91
        1
 62
     0
 92
       -2
340
14
 93
        0
 40
0.045
309
GRIDFORMAT_END
 95
        8
302
GRIDFORMAT
  1
GRIDFORMAT_BEGIN
 90
        0
 91
        1
 62
     0
 92
       -2
340
14
 93
        0
 40
0.045
309
GRIDFORMAT_END
 95
       16
302
GRIDFORMAT
  1
GRIDFORMAT_BEGIN
 90
        0
 91
        1
 62
     0
 92
       -2
340
14
 93
        0
 40
0.045
309
GRIDFORMAT_END
 95
       32
302
GRIDFORMAT
  1
GRIDFORMAT_BEGIN
 90
        0
 91
        1
 62
     0
 92
       -2
340
14
 93
        0
 40
0.045
309
GRIDFORMAT_END
309
TABLEFORMAT_END
  1
CELLSTYLE_BEGIN
 90
        1
 91
        1
300
_TITLE
309
CELLSTYLE_END
300
CELLSTYLE
  1
TABLEFORMAT_BEGIN
 90
        5
170
     1
 91
        0
 92
        0
 62
   257
 93
        1
300
CONTENTFORMAT
  1
CONTENTFORMAT_BEGIN
 90
        0
 91
        0
 92
        4
 93
        0
300

 40
0.0
140
1.0
 94
        5
 62
     0
340
11
144
0.18
309
CONTENTFORMAT_END
171
     1
301
MARGIN
  1
CELLMARGIN_BEGIN
 40
0.06
 40
0.06
 40
0.06
 40
0.06
 40
0.06
 40
0.06
309
CELLMARGIN_END
 94
        6
 95
        1
302
GRIDFORMAT
  1
GRIDFORMAT_BEGIN
 90
        0
 91
        1
 62
     0
 92
       -2
340
14
 93
        0
 40
0.045
309
GRIDFORMAT_END
 95
        2
302
GRIDFORMAT
  1
GRIDFORMAT_BEGIN
 90
        0
 91
        1
 62
     0
 92
       -2
340
14
 93
        0
 40
0.045
309
GRIDFORMAT_END
 95
        4
302
GRIDFORMAT
  1
GRIDFORMAT_BEGIN
 90
        0
 91
        1
 62
     0
 92
       -2
340
14
 93
        0
 40
0.045
309
GRIDFORMAT_END
 95
        8
302
GRIDFORMAT
  1
GRIDFORMAT_BEGIN
 90
        0
 91
        1
 62
     0
 92
       -2
340
14
 93
        0
 40
0.045
309
GRIDFORMAT_END
 95
       16
302
GRIDFORMAT
  1
GRIDFORMAT_BEGIN
 90
        0
 91
        1
 62
     0
 92
       -2
340
14
 93
        0
 40
0.045
309
GRIDFORMAT_END
 95
       32
302
GRIDFORMAT
  1
GRIDFORMAT_BEGIN
 90
        0
 91
        1
 62
     0
 92
       -2
340
14
 93
        0
 40
0.045
309
GRIDFORMAT_END
309
TABLEFORMAT_END
  1
CELLSTYLE_BEGIN
 90
        2
 91
        1
300
_HEADER
309
CELLSTYLE_END
300
CELLSTYLE
  1
TABLEFORMAT_BEGIN
 90
        5
170
     1
 91
        0
 92
        0
 62
   257
 93
        1
300
CONTENTFORMAT
  1
CONTENTFORMAT_BEGIN
 90
        0
 91
        0
 92
        4
 93
        0
300

 40
0.0
140
1.0
 94
        2
 62
     0
340
11
144
0.18
309
CONTENTFORMAT_END
171
     1
301
MARGIN
  1
CELLMARGIN_BEGIN
 40
0.06
 40
0.06
 40
0.06
 40
0.06
 40
0.06
 40
0.06
309
CELLMARGIN_END
 94
        6
 95
        1
302
GRIDFORMAT
  1
GRIDFORMAT_BEGIN
 90
        0
 91
        1
 62
     0
 92
       -2
340
14
 93
        0
 40
0.045
309
GRIDFORMAT_END
 95
        2
302
GRIDFORMAT
  1
GRIDFORMAT_BEGIN
 90
        0
 91
        1
 62
     0
 92
       -2
340
14
 93
        0
 40
0.045
309
GRIDFORMAT_END
 95
        4
302
GRIDFORMAT
  1
GRIDFORMAT_BEGIN
 90
        0
 91
        1
 62
     0
 92
       -2
340
14
 93
        0
 40
0.045
309
GRIDFORMAT_END
 95
        8
302
GRIDFORMAT
  1
GRIDFORMAT_BEGIN
 90
        0
 91
        1
 62
     0
 92
       -2
340
14
 93
        0
 40
0.045
309
GRIDFORMAT_END
 95
       16
302
GRIDFORMAT
  1
GRIDFORMAT_BEGIN
 90
        0
 91
        1
 62
     0
 92
       -2
340
14
 93
        0
 40
0.045
309
GRIDFORMAT_END
 95
       32
302
GRIDFORMAT
  1
GRIDFORMAT_BEGIN
 90
        0
 91
        1
 62
     0
 92
       -2
340
14
 93
        0
 40
0.045
309
GRIDFORMAT_END
309
TABLEFORMAT_END
  1
CELLSTYLE_BEGIN
 90
        3
 91
        2
300
_DATA
309
CELLSTYLE_END
  0
XRECORD
  5
359
102
{ACAD_REACTORS
330
358
102
}
330
358
100
AcDbXrecord
280
     1
102
ACAD_ROUNDTRIP_PRE2007_TABLESTYLE
 90
        4
 91
        0
  1

 92
        4
 93
        0
  2

 94
        4
 95
        0
  3

  0
XRECORD
  5
32B
102
{ACAD_REACTORS
330
32A
102
}
330
32A
100
AcDbXrecord
280
     1
102
RTVSPropertyOp0
 70
     1
102
RTVSPropertyOp1
 70
     1
102
RTVSPropertyOp2
 70
     1
102
RTVSPropertyOp3
 70
     1
102
RTVSPropertyOp4
 70
     1
102
RTVSPropertyOp5
 70
     1
102
RTVSPropertyOp6
 70
     1
102
RTVSPropertyOp7
 70
     1
102
RTVSPropertyOp8
 70
     1
102
RTVSPropertyOp9
 70
     1
102
RTVSPropertyOp10
 70
     1
102
RTVSPropertyOp11
 70
     1
102
RTVSPropertyOp12
 70
     1
102
RTVSPropertyOp13
 70
     1
102
RTVSPropertyOp14
 70
     1
102
RTVSPropertyOp15
 70
     1
102
RTVSPropertyOp16
 70
     1
102
RTVSPropertyOp17
 70
     1
102
RTVSPropertyOp18
 70
     1
102
RTVSPropertyOp19
 70
     1
102
RTVSPropertyOp20
 70
     1
102
RTVSPropertyOp21
 70
     1
102
RTVSPropertyOp22
 70
     1
102
RTVSPropertyOp23
 70
     1
102
RTVSPropertyOp24
 70
     1
102
RTVSPropertyOp25
 70
     1
102
RTVSPropertyOp26
 70
     1
102
RTVSPropertyOp27
 70
     1
102
RTVSPropertyOp28
 70
     1
102
RTVSPropertyOp29
 70
     1
102
RTVSPropertyOp30
 70
     1
102
RTVSPropertyOp31
 70
     1
102
RTVSPropertyOp32
 70
     1
102
RTVSPropertyOp33
 70
     1
102
RTVSPropertyOp34
 70
     1
102
RTVSPropertyOp35
 70
     1
102
RTVSPropertyOp36
 70
     1
102
RTVSPropertyOp37
 70
     1
102
RTVSPropertyOp38
 70
     1
102
RTVSPropertyOp39
 70
     1
102
RTVSPropertyOp40
 70
     1
102
RTVSPropertyOp41
 70
     1
102
RTVSPropertyOp42
 70
     1
102
RTVSPropertyOp43
 70
     1
102
RTVSPropertyOp44
 70
     1
102
RTVSPropertyOp45
 70
     1
102
RTVSPropertyOp46
 70
     1
102
RTVSPropertyOp47
 70
     1
102
RTVSPropertyOp48
 70
     1
102
RTVSPropertyOp49
 70
     1
102
RTVSPropertyOp50
 70
     1
102
RTVSPropertyOp51
 70
     0
102
RTVSPropertyOp52
 70
     0
102
RTVSPropertyOp53
 70
     1
102
RTVSPropertyOp54
 70
     1
102
RTVSPropertyOp55
 70
     1
102
RTVSPropertyOp56
 70
     1
102
RTVSPropertyOp57
 70
     1
102
RTVSPost2010Prop28
280
     1
102
RTVSPost2010PropOp28
 70
     1
102
RTVSPost2010Prop29
280
     1
102
RTVSPost2010PropOp29
 70
     1
102
RTVSPost2010Prop30
280
     0
102
RTVSPost2010PropOp30
 70
     1
102
RTVSPost2010Prop31
280
     0
102
RTVSPost2010PropOp31
 70
     1
102
RTVSPost2010Prop32
280
     0
102
RTVSPost2010PropOp32
 70
     1
102
RTVSPost2010Prop33
280
     0
102
RTVSPost2010PropOp33
 70
     1
102
RTVSPost2010Prop34
280
     0
102
RTVSPost2010PropOp34
 70
     1
102
RTVSPost2010Prop35
280
     0
102
RTVSPost2010PropOp35
 70
     1
102
RTVSPost2010Prop36
280
     0
102
RTVSPost2010PropOp36
 70
     1
102
RTVSPost2010Prop37
 90
       50
102
RTVSPost2010PropOp37
 70
     1
102
RTVSPost2010Prop38
140
0.0
102
RTVSPost2010PropOp38
 70
     1
102
RTVSPost2010Prop39
140
1.0
102
RTVSPost2010PropOp39
 70
     1
102
RTVSPost2010Prop40
 90
        0
102
RTVSPost2010PropOp40
 70
     1
102
RTVSPost2010Prop41ColorIndex
 90
       18
102
RTVSPost2010Prop41ColorRGB
 90
        0
102
RTVSPost2010PropOp41
 70
     1
102
RTVSPost2010Prop42
 90
       50
102
RTVSPost2010PropOp42
 70
     1
102
RTVSPost2010Prop43
 90
        3
102
RTVSPost2010PropOp43
 70
     1
102
RTVSPost2010Prop44ColorIndex
 90
        5
102
RTVSPost2010Prop44ColorRGB
 90
      255
102
RTVSPost2010PropOp44
 70
     1
102
RTVSPost2010Prop45
280
     0
102
RTVSPost2010PropOp45
 70
     1
102
RTVSPost2010Prop46
 90
       50
102
RTVSPost2010PropOp46
 70
     1
102
RTVSPost2010Prop47
 90
       50
102
RTVSPost2010PropOp47
 70
     1
102
RTVSPost2010Prop48
 90
       50
102
RTVSPost2010PropOp48
 70
     1
102
RTVSPost2010Prop49
280
     0
102
RTVSPost2010PropOp49
 70
     1
102
RTVSPost2010Prop50
 90
       50
102
RTVSPost2010PropOp50
 70
     1
102
RTVSPost2010Prop51ColorIndex
 90
      256
102
RTVSPost2010Prop51ColorRGB
 90
-16777216
102
RTVSPost2010PropOp51
 70
     0
102
RTVSPost2010Prop52
140
1.0
102
RTVSPost2010PropOp52
 70
     0
102
RTVSPost2010Prop53
 90
        2
102
RTVSPost2010PropOp53
 70
     1
102
RTVSPost2010Prop54
  1
strokes_ogs.tif
102
RTVSPost2010PropOp54
 70
     1
102
RTVSPost2010Prop55
280
     0
102
RTVSPost2010PropOp55
 70
     1
102
RTVSPost2010Prop56
140
1.0
102
RTVSPost2010PropOp56
 70
     1
102
RTVSPost2010Prop57
140
1.0
102
RTVSPost2010PropOp57
 70
     1
  0
XRECORD
  5
331
102
{ACAD_REACTORS
330
330
102
}
330
330
100
AcDbXrecord
280
     1
102
RTVSPropertyOp0
 70
     1
102
RTVSPropertyOp1
 70
     1
102
RTVSPropertyOp2
 70
     1
102
RTVSPropertyOp3
 70
     1
102
RTVSPropertyOp4
 70
     1
102
RTVSPropertyOp5
 70
     1
102
RTVSPropertyOp6
 70
     1
102
RTVSPropertyOp7
 70
     1
102
RTVSPropertyOp8
 70
     1
102
RTVSPropertyOp9
 70
     1
102
RTVSPropertyOp10
 70
     1
102
RTVSPropertyOp11
 70
     1
102
RTVSPropertyOp12
 70
     1
102
RTVSPropertyOp13
 70
     1
102
RTVSPropertyOp14
 70
     1
102
RTVSPropertyOp15
 70
     1
102
RTVSPropertyOp16
 70
     1
102
RTVSPropertyOp17
 70
     1
102
RTVSPropertyOp18
 70
     1
102
RTVSPropertyOp19
 70
     1
102
RTVSPropertyOp20
 70
     1
102
RTVSPropertyOp21
 70
     1
102
RTVSPropertyOp22
 70
     1
102
RTVSPropertyOp23
 70
     1
102
RTVSPropertyOp24
 70
     1
102
RTVSPropertyOp25
 70
     1
102
RTVSPropertyOp26
 70
     1
102
RTVSPropertyOp27
 70
     1
102
RTVSPropertyOp28
 70
     1
102
RTVSPropertyOp29
 70
     1
102
RTVSPropertyOp30
 70
     1
102
RTVSPropertyOp31
 70
     1
102
RTVSPropertyOp32
 70
     1
102
RTVSPropertyOp33
 70
     1
102
RTVSPropertyOp34
 70
     1
102
RTVSPropertyOp35
 70
     1
102
RTVSPropertyOp36
 70
     1
102
RTVSPropertyOp37
 70
     1
102
RTVSPropertyOp38
 70
     1
102
RTVSPropertyOp39
 70
     1
102
RTVSPropertyOp40
 70
     1
102
RTVSPropertyOp41
 70
     1
102
RTVSPropertyOp42
 70
     1
102
RTVSPropertyOp43
 70
     1
102
RTVSPropertyOp44
 70
     1
102
RTVSPropertyOp45
 70
     1
102
RTVSPropertyOp46
 70
     1
102
RTVSPropertyOp47
 70
     1
102
RTVSPropertyOp48
 70
     1
102
RTVSPropertyOp49
 70
     1
102
RTVSPropertyOp50
 70
     1
102
RTVSPropertyOp51
 70
     0
102
RTVSPropertyOp52
 70
     0
102
RTVSPropertyOp53
 70
     1
102
RTVSPropertyOp54
 70
     1
102
RTVSPropertyOp55
 70
     1
102
RTVSPropertyOp56
 70
     1
102
RTVSPropertyOp57
 70
     1
102
RTVSPost2010Prop28
280
     0
102
RTVSPost2010PropOp28
 70
     1
102
RTVSPost2010Prop29
280
     1
102
RTVSPost2010PropOp29
 70
     1
102
RTVSPost2010Prop30
280
     1
102
RTVSPost2010PropOp30
 70
     1
102
RTVSPost2010Prop31
280
     0
102
RTVSPost2010PropOp31
 70
     1
102
RTVSPost2010Prop32
280
     0
102
RTVSPost2010PropOp32
 70
     1
102
RTVSPost2010Prop33
280
     0
102
RTVSPost2010PropOp33
 70
     1
102
RTVSPost2010Prop34
280
     0
102
RTVSPost2010PropOp34
 70
     1
102
RTVSPost2010Prop35
280
     0
102
RTVSPost2010PropOp35
 70
     1
102
RTVSPost2010Prop36
280
     0
102
RTVSPost2010PropOp36
 70
     1
102
RTVSPost2010Prop37
 90
       50
102
RTVSPost2010PropOp37
 70
     1
102
RTVSPost2010Prop38
140
0.0
102
RTVSPost2010PropOp38
 70
     1
102
RTVSPost2010Prop39
140
1.0
102
RTVSPost2010PropOp39
 70
     1
102
RTVSPost2010Prop40
 90
        0
102
RTVSPost2010PropOp40
 70
     1
102
RTVSPost2010Prop41ColorIndex
 90
       18
102
RTVSPost2010Prop41ColorRGB
 90
        0
102
RTVSPost2010PropOp41
 70
     1
102
RTVSPost2010Prop42
 90
       50
102
RTVSPost2010PropOp42
 70
     1
102
RTVSPost2010Prop43
 90
        3
102
RTVSPost2010PropOp43
 70
     1
102
RTVSPost2010Prop44ColorIndex
 90
        5
102
RTVSPost2010Prop44ColorRGB
 90
      255
102
RTVSPost2010PropOp44
 70
     1
102
RTVSPost2010Prop45
280
     0
102
RTVSPost2010PropOp45
 70
     1
102
RTVSPost2010Prop46
 90
       50
102
RTVSPost2010PropOp46
 70
     1
102
RTVSPost2010Prop47
 90
       50
102
RTVSPost2010PropOp47
 70
     1
102
RTVSPost2010Prop48
 90
       50
102
RTVSPost2010PropOp48
 70
     1
102
RTVSPost2010Prop49
280
     0
102
RTVSPost2010PropOp49
 70
     1
102
RTVSPost2010Prop50
 90
       50
102
RTVSPost2010PropOp50
 70
     1
102
RTVSPost2010Prop51ColorIndex
 90
      256
102
RTVSPost2010Prop51ColorRGB
 90
-16777216
102
RTVSPost2010PropOp51
 70
     0
102
RTVSPost2010Prop52
140
1.0
102
RTVSPost2010PropOp52
 70
     0
102
RTVSPost2010Prop53
 90
        2
102
RTVSPost2010PropOp53
 70
     1
102
RTVSPost2010Prop54
  1
strokes_ogs.tif
102
RTVSPost2010PropOp54
 70
     1
102
RTVSPost2010Prop55
280
     0
102
RTVSPost2010PropOp55
 70
     1
102
RTVSPost2010Prop56
140
1.0
102
RTVSPost2010PropOp56
 70
     1
102
RTVSPost2010Prop57
140
1.0
102
RTVSPost2010PropOp57
 70
     1
  0
XRECORD
  5
339
102
{ACAD_REACTORS
330
338
102
}
330
338
100
AcDbXrecord
280
     1
102
RTVSPropertyOp0
 70
     1
102
RTVSPropertyOp1
 70
     1
102
RTVSPropertyOp2
 70
     1
102
RTVSPropertyOp3
 70
     1
102
RTVSPropertyOp4
 70
     1
102
RTVSPropertyOp5
 70
     1
102
RTVSPropertyOp6
 70
     1
102
RTVSPropertyOp7
 70
     1
102
RTVSPropertyOp8
 70
     1
102
RTVSPropertyOp9
 70
     1
102
RTVSPropertyOp10
 70
     1
102
RTVSPropertyOp11
 70
     1
102
RTVSPropertyOp12
 70
     1
102
RTVSPropertyOp13
 70
     1
102
RTVSPropertyOp14
 70
     1
102
RTVSPropertyOp15
 70
     1
102
RTVSPropertyOp16
 70
     1
102
RTVSPropertyOp17
 70
     1
102
RTVSPropertyOp18
 70
     1
102
RTVSPropertyOp19
 70
     1
102
RTVSPropertyOp20
 70
     1
102
RTVSPropertyOp21
 70
     1
102
RTVSPropertyOp22
 70
     1
102
RTVSPropertyOp23
 70
     1
102
RTVSPropertyOp24
 70
     1
102
RTVSPropertyOp25
 70
     1
102
RTVSPropertyOp26
 70
     1
102
RTVSPropertyOp27
 70
     1
102
RTVSPropertyOp28
 70
     1
102
RTVSPropertyOp29
 70
     1
102
RTVSPropertyOp30
 70
     1
102
RTVSPropertyOp31
 70
     1
102
RTVSPropertyOp32
 70
     1
102
RTVSPropertyOp33
 70
     1
102
RTVSPropertyOp34
 70
     1
102
RTVSPropertyOp35
 70
     1
102
RTVSPropertyOp36
 70
     1
102
RTVSPropertyOp37
 70
     1
102
RTVSPropertyOp38
 70
     1
102
RTVSPropertyOp39
 70
     1
102
RTVSPropertyOp40
 70
     1
102
RTVSPropertyOp41
 70
     1
102
RTVSPropertyOp42
 70
     1
102
RTVSPropertyOp43
 70
     1
102
RTVSPropertyOp44
 70
     1
102
RTVSPropertyOp45
 70
     1
102
RTVSPropertyOp46
 70
     1
102
RTVSPropertyOp47
 70
     1
102
RTVSPropertyOp48
 70
     1
102
RTVSPropertyOp49
 70
     1
102
RTVSPropertyOp50
 70
     1
102
RTVSPropertyOp51
 70
     0
102
RTVSPropertyOp52
 70
     0
102
RTVSPropertyOp53
 70
     1
102
RTVSPropertyOp54
 70
     1
102
RTVSPropertyOp55
 70
     1
102
RTVSPropertyOp56
 70
     1
102
RTVSPropertyOp57
 70
     1
102
RTVSPost2010Prop28
280
     0
102
RTVSPost2010PropOp28
 70
     1
102
RTVSPost2010Prop29
280
     1
102
RTVSPost2010PropOp29
 70
     1
102
RTVSPost2010Prop30
280
     1
102
RTVSPost2010PropOp30
 70
     1
102
RTVSPost2010Prop31
280
     0
102
RTVSPost2010PropOp31
 70
     1
102
RTVSPost2010Prop32
280
     0
102
RTVSPost2010PropOp32
 70
     1
102
RTVSPost2010Prop33
280
     0
102
RTVSPost2010PropOp33
 70
     1
102
RTVSPost2010Prop34
280
     0
102
RTVSPost2010PropOp34
 70
     1
102
RTVSPost2010Prop35
280
     0
102
RTVSPost2010PropOp35
 70
     1
102
RTVSPost2010Prop36
280
     0
102
RTVSPost2010PropOp36
 70
     1
102
RTVSPost2010Prop37
 90
       50
102
RTVSPost2010PropOp37
 70
     1
102
RTVSPost2010Prop38
140
0.0
102
RTVSPost2010PropOp38
 70
     1
102
RTVSPost2010Prop39
140
1.0
102
RTVSPost2010PropOp39
 70
     1
102
RTVSPost2010Prop40
 90
        0
102
RTVSPost2010PropOp40
 70
     1
102
RTVSPost2010Prop41ColorIndex
 90
       18
102
RTVSPost2010Prop41ColorRGB
 90
        0
102
RTVSPost2010PropOp41
 70
     1
102
RTVSPost2010Prop42
 90
       50
102
RTVSPost2010PropOp42
 70
     1
102
RTVSPost2010Prop43
 90
        3
102
RTVSPost2010PropOp43
 70
     1
102
RTVSPost2010Prop44ColorIndex
 90
        5
102
RTVSPost2010Prop44ColorRGB
 90
      255
102
RTVSPost2010PropOp44
 70
     1
102
RTVSPost2010Prop45
280
     0
102
RTVSPost2010PropOp45
 70
     1
102
RTVSPost2010Prop46
 90
       50
102
RTVSPost2010PropOp46
 70
     1
102
RTVSPost2010Prop47
 90
       50
102
RTVSPost2010PropOp47
 70
     1
102
RTVSPost2010Prop48
 90
       50
102
RTVSPost2010PropOp48
 70
     1
102
RTVSPost2010Prop49
280
     0
102
RTVSPost2010PropOp49
 70
     1
102
RTVSPost2010Prop50
 90
       50
102
RTVSPost2010PropOp50
 70
     1
102
RTVSPost2010Prop51ColorIndex
 90
      256
102
RTVSPost2010Prop51ColorRGB
 90
-16777216
102
RTVSPost2010PropOp51
 70
     0
102
RTVSPost2010Prop52
140
1.0
102
RTVSPost2010PropOp52
 70
     0
102
RTVSPost2010Prop53
 90
        2
102
RTVSPost2010PropOp53
 70
     1
102
RTVSPost2010Prop54
  1
strokes_ogs.tif
102
RTVSPost2010PropOp54
 70
     1
102
RTVSPost2010Prop55
280
     0
102
RTVSPost2010PropOp55
 70
     1
102
RTVSPost2010Prop56
140
1.0
102
RTVSPost2010PropOp56
 70
     1
102
RTVSPost2010Prop57
140
1.0
102
RTVSPost2010PropOp57
 70
     1
  0
XRECORD
  5
341
102
{ACAD_REACTORS
330
340
102
}
330
340
100
AcDbXrecord
280
     1
102
RTVSPropertyOp0
 70
     1
102
RTVSPropertyOp1
 70
     1
102
RTVSPropertyOp2
 70
     1
102
RTVSPropertyOp3
 70
     1
102
RTVSPropertyOp4
 70
     1
102
RTVSPropertyOp5
 70
     1
102
RTVSPropertyOp6
 70
     1
102
RTVSPropertyOp7
 70
     1
102
RTVSPropertyOp8
 70
     1
102
RTVSPropertyOp9
 70
     1
102
RTVSPropertyOp10
 70
     1
102
RTVSPropertyOp11
 70
     1
102
RTVSPropertyOp12
 70
     1
102
RTVSPropertyOp13
 70
     1
102
RTVSPropertyOp14
 70
     1
102
RTVSPropertyOp15
 70
     1
102
RTVSPropertyOp16
 70
     1
102
RTVSPropertyOp17
 70
     1
102
RTVSPropertyOp18
 70
     1
102
RTVSPropertyOp19
 70
     1
102
RTVSPropertyOp20
 70
     1
102
RTVSPropertyOp21
 70
     1
102
RTVSPropertyOp22
 70
     1
102
RTVSPropertyOp23
 70
     1
102
RTVSPropertyOp24
 70
     1
102
RTVSPropertyOp25
 70
     1
102
RTVSPropertyOp26
 70
     1
102
RTVSPropertyOp27
 70
     1
102
RTVSPropertyOp28
 70
     1
102
RTVSPropertyOp29
 70
     1
102
RTVSPropertyOp30
 70
     1
102
RTVSPropertyOp31
 70
     1
102
RTVSPropertyOp32
 70
     1
102
RTVSPropertyOp33
 70
     1
102
RTVSPropertyOp34
 70
     1
102
RTVSPropertyOp35
 70
     1
102
RTVSPropertyOp36
 70
     1
102
RTVSPropertyOp37
 70
     1
102
RTVSPropertyOp38
 70
     1
102
RTVSPropertyOp39
 70
     1
102
RTVSPropertyOp40
 70
     1
102
RTVSPropertyOp41
 70
     1
102
RTVSPropertyOp42
 70
     1
102
RTVSPropertyOp43
 70
     1
102
RTVSPropertyOp44
 70
     1
102
RTVSPropertyOp45
 70
     1
102
RTVSPropertyOp46
 70
     1
102
RTVSPropertyOp47
 70
     1
102
RTVSPropertyOp48
 70
     1
102
RTVSPropertyOp49
 70
     1
102
RTVSPropertyOp50
 70
     1
102
RTVSPropertyOp51
 70
     0
102
RTVSPropertyOp52
 70
     0
102
RTVSPropertyOp53
 70
     1
102
RTVSPropertyOp54
 70
     1
102
RTVSPropertyOp55
 70
     1
102
RTVSPropertyOp56
 70
     1
102
RTVSPropertyOp57
 70
     1
102
RTVSPost2010Prop28
280
     0
102
RTVSPost2010PropOp28
 70
     1
102
RTVSPost2010Prop29
280
     1
102
RTVSPost2010PropOp29
 70
     1
102
RTVSPost2010Prop30
280
     1
102
RTVSPost2010PropOp30
 70
     1
102
RTVSPost2010Prop31
280
     0
102
RTVSPost2010PropOp31
 70
     1
102
RTVSPost2010Prop32
280
     0
102
RTVSPost2010PropOp32
 70
     1
102
RTVSPost2010Prop33
280
     0
102
RTVSPost2010PropOp33
 70
     1
102
RTVSPost2010Prop34
280
     0
102
RTVSPost2010PropOp34
 70
     1
102
RTVSPost2010Prop35
280
     0
102
RTVSPost2010PropOp35
 70
     1
102
RTVSPost2010Prop36
280
     0
102
RTVSPost2010PropOp36
 70
     1
102
RTVSPost2010Prop37
 90
       50
102
RTVSPost2010PropOp37
 70
     1
102
RTVSPost2010Prop38
140
0.0
102
RTVSPost2010PropOp38
 70
     1
102
RTVSPost2010Prop39
140
1.0
102
RTVSPost2010PropOp39
 70
     1
102
RTVSPost2010Prop40
 90
        0
102
RTVSPost2010PropOp40
 70
     1
102
RTVSPost2010Prop41ColorIndex
 90
       18
102
RTVSPost2010Prop41ColorRGB
 90
        0
102
RTVSPost2010PropOp41
 70
     1
102
RTVSPost2010Prop42
 90
       50
102
RTVSPost2010PropOp42
 70
     1
102
RTVSPost2010Prop43
 90
        3
102
RTVSPost2010PropOp43
 70
     1
102
RTVSPost2010Prop44ColorIndex
 90
        5
102
RTVSPost2010Prop44ColorRGB
 90
      255
102
RTVSPost2010PropOp44
 70
     1
102
RTVSPost2010Prop45
280
     0
102
RTVSPost2010PropOp45
 70
     1
102
RTVSPost2010Prop46
 90
       50
102
RTVSPost2010PropOp46
 70
     1
102
RTVSPost2010Prop47
 90
       50
102
RTVSPost2010PropOp47
 70
     1
102
RTVSPost2010Prop48
 90
       50
102
RTVSPost2010PropOp48
 70
     1
102
RTVSPost2010Prop49
280
     0
102
RTVSPost2010PropOp49
 70
     1
102
RTVSPost2010Prop50
 90
       50
102
RTVSPost2010PropOp50
 70
     1
102
RTVSPost2010Prop51ColorIndex
 90
      256
102
RTVSPost2010Prop51ColorRGB
 90
-16777216
102
RTVSPost2010PropOp51
 70
     0
102
RTVSPost2010Prop52
140
1.0
102
RTVSPost2010PropOp52
 70
     0
102
RTVSPost2010Prop53
 90
        2
102
RTVSPost2010PropOp53
 70
     1
102
RTVSPost2010Prop54
  1
strokes_ogs.tif
102
RTVSPost2010PropOp54
 70
     1
102
RTVSPost2010Prop55
280
     0
102
RTVSPost2010PropOp55
 70
     1
102
RTVSPost2010Prop56
140
1.0
102
RTVSPost2010PropOp56
 70
     1
102
RTVSPost2010Prop57
140
1.0
102
RTVSPost2010PropOp57
 70
     1
  0
XRECORD
  5
335
102
{ACAD_REACTORS
330
334
102
}
330
334
100
AcDbXrecord
280
     1
102
RTVSPropertyOp0
 70
     1
102
RTVSPropertyOp1
 70
     1
102
RTVSPropertyOp2
 70
     1
102
RTVSPropertyOp3
 70
     1
102
RTVSPropertyOp4
 70
     1
102
RTVSPropertyOp5
 70
     1
102
RTVSPropertyOp6
 70
     1
102
RTVSPropertyOp7
 70
     1
102
RTVSPropertyOp8
 70
     1
102
RTVSPropertyOp9
 70
     1
102
RTVSPropertyOp10
 70
     1
102
RTVSPropertyOp11
 70
     1
102
RTVSPropertyOp12
 70
     1
102
RTVSPropertyOp13
 70
     1
102
RTVSPropertyOp14
 70
     1
102
RTVSPropertyOp15
 70
     1
102
RTVSPropertyOp16
 70
     1
102
RTVSPropertyOp17
 70
     1
102
RTVSPropertyOp18
 70
     1
102
RTVSPropertyOp19
 70
     1
102
RTVSPropertyOp20
 70
     1
102
RTVSPropertyOp21
 70
     1
102
RTVSPropertyOp22
 70
     1
102
RTVSPropertyOp23
 70
     1
102
RTVSPropertyOp24
 70
     1
102
RTVSPropertyOp25
 70
     1
102
RTVSPropertyOp26
 70
     1
102
RTVSPropertyOp27
 70
     1
102
RTVSPropertyOp28
 70
     1
102
RTVSPropertyOp29
 70
     1
102
RTVSPropertyOp30
 70
     1
102
RTVSPropertyOp31
 70
     1
102
RTVSPropertyOp32
 70
     1
102
RTVSPropertyOp33
 70
     1
102
RTVSPropertyOp34
 70
     1
102
RTVSPropertyOp35
 70
     1
102
RTVSPropertyOp36
 70
     1
102
RTVSPropertyOp37
 70
     1
102
RTVSPropertyOp38
 70
     1
102
RTVSPropertyOp39
 70
     1
102
RTVSPropertyOp40
 70
     1
102
RTVSPropertyOp41
 70
     1
102
RTVSPropertyOp42
 70
     1
102
RTVSPropertyOp43
 70
     1
102
RTVSPropertyOp44
 70
     1
102
RTVSPropertyOp45
 70
     1
102
RTVSPropertyOp46
 70
     1
102
RTVSPropertyOp47
 70
     1
102
RTVSPropertyOp48
 70
     1
102
RTVSPropertyOp49
 70
     1
102
RTVSPropertyOp50
 70
     1
102
RTVSPropertyOp51
 70
     0
102
RTVSPropertyOp52
 70
     0
102
RTVSPropertyOp53
 70
     1
102
RTVSPropertyOp54
 70
     1
102
RTVSPropertyOp55
 70
     1
102
RTVSPropertyOp56
 70
     1
102
RTVSPropertyOp57
 70
     1
102
RTVSPost2010Prop28
280
     0
102
RTVSPost2010PropOp28
 70
     1
102
RTVSPost2010Prop29
280
     1
102
RTVSPost2010PropOp29
 70
     1
102
RTVSPost2010Prop30
280
     1
102
RTVSPost2010PropOp30
 70
     1
102
RTVSPost2010Prop31
280
     0
102
RTVSPost2010PropOp31
 70
     1
102
RTVSPost2010Prop32
280
     0
102
RTVSPost2010PropOp32
 70
     1
102
RTVSPost2010Prop33
280
     0
102
RTVSPost2010PropOp33
 70
     1
102
RTVSPost2010Prop34
280
     0
102
RTVSPost2010PropOp34
 70
     1
102
RTVSPost2010Prop35
280
     0
102
RTVSPost2010PropOp35
 70
     1
102
RTVSPost2010Prop36
280
     0
102
RTVSPost2010PropOp36
 70
     1
102
RTVSPost2010Prop37
 90
       50
102
RTVSPost2010PropOp37
 70
     1
102
RTVSPost2010Prop38
140
0.0
102
RTVSPost2010PropOp38
 70
     1
102
RTVSPost2010Prop39
140
1.0
102
RTVSPost2010PropOp39
 70
     1
102
RTVSPost2010Prop40
 90
        0
102
RTVSPost2010PropOp40
 70
     1
102
RTVSPost2010Prop41ColorIndex
 90
       18
102
RTVSPost2010Prop41ColorRGB
 90
        0
102
RTVSPost2010PropOp41
 70
     1
102
RTVSPost2010Prop42
 90
       50
102
RTVSPost2010PropOp42
 70
     1
102
RTVSPost2010Prop43
 90
        3
102
RTVSPost2010PropOp43
 70
     1
102
RTVSPost2010Prop44ColorIndex
 90
        5
102
RTVSPost2010Prop44ColorRGB
 90
      255
102
RTVSPost2010PropOp44
 70
     1
102
RTVSPost2010Prop45
280
     0
102
RTVSPost2010PropOp45
 70
     1
102
RTVSPost2010Prop46
 90
       50
102
RTVSPost2010PropOp46
 70
     1
102
RTVSPost2010Prop47
 90
       50
102
RTVSPost2010PropOp47
 70
     1
102
RTVSPost2010Prop48
 90
       50
102
RTVSPost2010PropOp48
 70
     1
102
RTVSPost2010Prop49
280
     0
102
RTVSPost2010PropOp49
 70
     1
102
RTVSPost2010Prop50
 90
       50
102
RTVSPost2010PropOp50
 70
     1
102
RTVSPost2010Prop51ColorIndex
 90
      256
102
RTVSPost2010Prop51ColorRGB
 90
-16777216
102
RTVSPost2010PropOp51
 70
     0
102
RTVSPost2010Prop52
140
1.0
102
RTVSPost2010PropOp52
 70
     0
102
RTVSPost2010Prop53
 90
        2
102
RTVSPost2010PropOp53
 70
     1
102
RTVSPost2010Prop54
  1
strokes_ogs.tif
102
RTVSPost2010PropOp54
 70
     1
102
RTVSPost2010Prop55
280
     0
102
RTVSPost2010PropOp55
 70
     1
102
RTVSPost2010Prop56
140
1.0
102
RTVSPost2010PropOp56
 70
     1
102
RTVSPost2010Prop57
140
1.0
102
RTVSPost2010PropOp57
 70
     1
  0
XRECORD
  5
337
102
{ACAD_REACTORS
330
336
102
}
330
336
100
AcDbXrecord
280
     1
102
RTVSPropertyOp0
 70
     1
102
RTVSPropertyOp1
 70
     1
102
RTVSPropertyOp2
 70
     1
102
RTVSPropertyOp3
 70
     1
102
RTVSPropertyOp4
 70
     1
102
RTVSPropertyOp5
 70
     1
102
RTVSPropertyOp6
 70
     1
102
RTVSPropertyOp7
 70
     1
102
RTVSPropertyOp8
 70
     1
102
RTVSPropertyOp9
 70
     1
102
RTVSPropertyOp10
 70
     1
102
RTVSPropertyOp11
 70
     1
102
RTVSPropertyOp12
 70
     1
102
RTVSPropertyOp13
 70
     1
102
RTVSPropertyOp14
 70
     1
102
RTVSPropertyOp15
 70
     1
102
RTVSPropertyOp16
 70
     1
102
RTVSPropertyOp17
 70
     1
102
RTVSPropertyOp18
 70
     1
102
RTVSPropertyOp19
 70
     1
102
RTVSPropertyOp20
 70
     1
102
RTVSPropertyOp21
 70
     1
102
RTVSPropertyOp22
 70
     1
102
RTVSPropertyOp23
 70
     1
102
RTVSPropertyOp24
 70
     1
102
RTVSPropertyOp25
 70
     1
102
RTVSPropertyOp26
 70
     1
102
RTVSPropertyOp27
 70
     1
102
RTVSPropertyOp28
 70
     1
102
RTVSPropertyOp29
 70
     1
102
RTVSPropertyOp30
 70
     1
102
RTVSPropertyOp31
 70
     1
102
RTVSPropertyOp32
 70
     1
102
RTVSPropertyOp33
 70
     1
102
RTVSPropertyOp34
 70
     1
102
RTVSPropertyOp35
 70
     1
102
RTVSPropertyOp36
 70
     1
102
RTVSPropertyOp37
 70
     1
102
RTVSPropertyOp38
 70
     1
102
RTVSPropertyOp39
 70
     1
102
RTVSPropertyOp40
 70
     1
102
RTVSPropertyOp41
 70
     1
102
RTVSPropertyOp42
 70
     1
102
RTVSPropertyOp43
 70
     1
102
RTVSPropertyOp44
 70
     1
102
RTVSPropertyOp45
 70
     1
102
RTVSPropertyOp46
 70
     1
102
RTVSPropertyOp47
 70
     1
102
RTVSPropertyOp48
 70
     1
102
RTVSPropertyOp49
 70
     1
102
RTVSPropertyOp50
 70
     1
102
RTVSPropertyOp51
 70
     0
102
RTVSPropertyOp52
 70
     0
102
RTVSPropertyOp53
 70
     1
102
RTVSPropertyOp54
 70
     1
102
RTVSPropertyOp55
 70
     1
102
RTVSPropertyOp56
 70
     1
102
RTVSPropertyOp57
 70
     1
102
RTVSPost2010Prop28
280
     0
102
RTVSPost2010PropOp28
 70
     1
102
RTVSPost2010Prop29
280
     1
102
RTVSPost2010PropOp29
 70
     1
102
RTVSPost2010Prop30
280
     1
102
RTVSPost2010PropOp30
 70
     1
102
RTVSPost2010Prop31
280
     0
102
RTVSPost2010PropOp31
 70
     1
102
RTVSPost2010Prop32
280
     0
102
RTVSPost2010PropOp32
 70
     1
102
RTVSPost2010Prop33
280
     0
102
RTVSPost2010PropOp33
 70
     1
102
RTVSPost2010Prop34
280
     0
102
RTVSPost2010PropOp34
 70
     1
102
RTVSPost2010Prop35
280
     0
102
RTVSPost2010PropOp35
 70
     1
102
RTVSPost2010Prop36
280
     0
102
RTVSPost2010PropOp36
 70
     1
102
RTVSPost2010Prop37
 90
       50
102
RTVSPost2010PropOp37
 70
     1
102
RTVSPost2010Prop38
140
0.0
102
RTVSPost2010PropOp38
 70
     1
102
RTVSPost2010Prop39
140
1.0
102
RTVSPost2010PropOp39
 70
     1
102
RTVSPost2010Prop40
 90
        0
102
RTVSPost2010PropOp40
 70
     1
102
RTVSPost2010Prop41ColorIndex
 90
       18
102
RTVSPost2010Prop41ColorRGB
 90
        0
102
RTVSPost2010PropOp41
 70
     1
102
RTVSPost2010Prop42
 90
       50
102
RTVSPost2010PropOp42
 70
     1
102
RTVSPost2010Prop43
 90
        3
102
RTVSPost2010PropOp43
 70
     1
102
RTVSPost2010Prop44ColorIndex
 90
        5
102
RTVSPost2010Prop44ColorRGB
 90
      255
102
RTVSPost2010PropOp44
 70
     1
102
RTVSPost2010Prop45
280
     0
102
RTVSPost2010PropOp45
 70
     1
102
RTVSPost2010Prop46
 90
       50
102
RTVSPost2010PropOp46
 70
     1
102
RTVSPost2010Prop47
 90
       50
102
RTVSPost2010PropOp47
 70
     1
102
RTVSPost2010Prop48
 90
       50
102
RTVSPost2010PropOp48
 70
     1
102
RTVSPost2010Prop49
280
     0
102
RTVSPost2010PropOp49
 70
     1
102
RTVSPost2010Prop50
 90
       50
102
RTVSPost2010PropOp50
 70
     1
102
RTVSPost2010Prop51ColorIndex
 90
      256
102
RTVSPost2010Prop51ColorRGB
 90
-16777216
102
RTVSPost2010PropOp51
 70
     0
102
RTVSPost2010Prop52
140
1.0
102
RTVSPost2010PropOp52
 70
     0
102
RTVSPost2010Prop53
 90
        2
102
RTVSPost2010PropOp53
 70
     1
102
RTVSPost2010Prop54
  1
strokes_ogs.tif
102
RTVSPost2010PropOp54
 70
     1
102
RTVSPost2010Prop55
280
     0
102
RTVSPost2010PropOp55
 70
     1
102
RTVSPost2010Prop56
140
1.0
102
RTVSPost2010PropOp56
 70
     1
102
RTVSPost2010Prop57
140
1.0
102
RTVSPost2010PropOp57
 70
     1
  0
XRECORD
  5
347
102
{ACAD_REACTORS
330
346
102
}
330
346
100
AcDbXrecord
280
     1
102
RTVSPropertyOp0
 70
     0
102
RTVSPropertyOp1
 70
     0
102
RTVSPropertyOp2
 70
     0
102
RTVSPropertyOp3
 70
     0
102
RTVSPropertyOp4
 70
     0
102
RTVSPropertyOp5
 70
     0
102
RTVSPropertyOp6
 70
     0
102
RTVSPropertyOp7
 70
     0
102
RTVSPropertyOp8
 70
     0
102
RTVSPropertyOp9
 70
     0
102
RTVSPropertyOp10
 70
     0
102
RTVSPropertyOp11
 70
     0
102
RTVSPropertyOp12
 70
     0
102
RTVSPropertyOp13
 70
     0
102
RTVSPropertyOp14
 70
     2
102
RTVSPropertyOp15
 70
     0
102
RTVSPropertyOp16
 70
     0
102
RTVSPropertyOp17
 70
     0
102
RTVSPropertyOp18
 70
     0
102
RTVSPropertyOp19
 70
     0
102
RTVSPropertyOp20
 70
     0
102
RTVSPropertyOp21
 70
     0
102
RTVSPropertyOp22
 70
     0
102
RTVSPropertyOp23
 70
     0
102
RTVSPropertyOp24
 70
     0
102
RTVSPropertyOp25
 70
     0
102
RTVSPropertyOp26
 70
     0
102
RTVSPropertyOp27
 70
     0
102
RTVSPropertyOp28
 70
     0
102
RTVSPropertyOp29
 70
     0
102
RTVSPropertyOp30
 70
     0
102
RTVSPropertyOp31
 70
     0
102
RTVSPropertyOp32
 70
     0
102
RTVSPropertyOp33
 70
     0
102
RTVSPropertyOp34
 70
     0
102
RTVSPropertyOp35
 70
     0
102
RTVSPropertyOp36
 70
     0
102
RTVSPropertyOp37
 70
     0
102
RTVSPropertyOp38
 70
     0
102
RTVSPropertyOp39
 70
     0
102
RTVSPropertyOp40
 70
     0
102
RTVSPropertyOp41
 70
     0
102
RTVSPropertyOp42
 70
     0
102
RTVSPropertyOp43
 70
     0
102
RTVSPropertyOp44
 70
     0
102
RTVSPropertyOp45
 70
     0
102
RTVSPropertyOp46
 70
     0
102
RTVSPropertyOp47
 70
     0
102
RTVSPropertyOp48
 70
     0
102
RTVSPropertyOp49
 70
     0
102
RTVSPropertyOp50
 70
     0
102
RTVSPropertyOp51
 70
     0
102
RTVSPropertyOp52
 70
     0
102
RTVSPropertyOp53
 70
     0
102
RTVSPropertyOp54
 70
     0
102
RTVSPropertyOp55
 70
     0
102
RTVSPropertyOp56
 70
     0
102
RTVSPropertyOp57
 70
     0
102
RTVSPost2010Prop28
280
     0
102
RTVSPost2010PropOp28
 70
     0
102
RTVSPost2010Prop29
280
     1
102
RTVSPost2010PropOp29
 70
     0
102
RTVSPost2010Prop30
280
     1
102
RTVSPost2010PropOp30
 70
     0
102
RTVSPost2010Prop31
280
     0
102
RTVSPost2010PropOp31
 70
     0
102
RTVSPost2010Prop32
280
     0
102
RTVSPost2010PropOp32
 70
     0
102
RTVSPost2010Prop33
280
     0
102
RTVSPost2010PropOp33
 70
     0
102
RTVSPost2010Prop34
280
     0
102
RTVSPost2010PropOp34
 70
     0
102
RTVSPost2010Prop35
280
     0
102
RTVSPost2010PropOp35
 70
     0
102
RTVSPost2010Prop36
280
     0
102
RTVSPost2010PropOp36
 70
     0
102
RTVSPost2010Prop37
 90
       50
102
RTVSPost2010PropOp37
 70
     0
102
RTVSPost2010Prop38
140
0.0
102
RTVSPost2010PropOp38
 70
     0
102
RTVSPost2010Prop39
140
1.0
102
RTVSPost2010PropOp39
 70
     0
102
RTVSPost2010Prop40
 90
        0
102
RTVSPost2010PropOp40
 70
     0
102
RTVSPost2010Prop41ColorIndex
 90
       18
102
RTVSPost2010Prop41ColorRGB
 90
        0
102
RTVSPost2010PropOp41
 70
     0
102
RTVSPost2010Prop42
 90
       50
102
RTVSPost2010PropOp42
 70
     0
102
RTVSPost2010Prop43
 90
        3
102
RTVSPost2010PropOp43
 70
     0
102
RTVSPost2010Prop44ColorIndex
 90
        5
102
RTVSPost2010Prop44ColorRGB
 90
      255
102
RTVSPost2010PropOp44
 70
     0
102
RTVSPost2010Prop45
280
     0
102
RTVSPost2010PropOp45
 70
     0
102
RTVSPost2010Prop46
 90
       50
102
RTVSPost2010PropOp46
 70
     0
102
RTVSPost2010Prop47
 90
       50
102
RTVSPost2010PropOp47
 70
     0
102
RTVSPost2010Prop48
 90
       50
102
RTVSPost2010PropOp48
 70
     0
102
RTVSPost2010Prop49
280
     0
102
RTVSPost2010PropOp49
 70
     0
102
RTVSPost2010Prop50
 90
       50
102
RTVSPost2010PropOp50
 70
     0
102
RTVSPost2010Prop51ColorIndex
 90
      256
102
RTVSPost2010Prop51ColorRGB
 90
-16777216
102
RTVSPost2010PropOp51
 70
     0
102
RTVSPost2010Prop52
140
1.0
102
RTVSPost2010PropOp52
 70
     0
102
RTVSPost2010Prop53
 90
        2
102
RTVSPost2010PropOp53
 70
     0
102
RTVSPost2010Prop54
  1
strokes_ogs.tif
102
RTVSPost2010PropOp54
 70
     0
102
RTVSPost2010Prop55
280
     0
102
RTVSPost2010PropOp55
 70
     0
102
RTVSPost2010Prop56
140
1.0
102
RTVSPost2010PropOp56
 70
     0
102
RTVSPost2010Prop57
140
1.0
102
RTVSPost2010PropOp57
 70
     0
  0
XRECORD
  5
33F
102
{ACAD_REACTORS
330
33E
102
}
330
33E
100
AcDbXrecord
280
     1
102
RTVSPropertyOp0
 70
     1
102
RTVSPropertyOp1
 70
     1
102
RTVSPropertyOp2
 70
     1
102
RTVSPropertyOp3
 70
     1
102
RTVSPropertyOp4
 70
     1
102
RTVSPropertyOp5
 70
     1
102
RTVSPropertyOp6
 70
     1
102
RTVSPropertyOp7
 70
     1
102
RTVSPropertyOp8
 70
     1
102
RTVSPropertyOp9
 70
     1
102
RTVSPropertyOp10
 70
     1
102
RTVSPropertyOp11
 70
     1
102
RTVSPropertyOp12
 70
     1
102
RTVSPropertyOp13
 70
     1
102
RTVSPropertyOp14
 70
     1
102
RTVSPropertyOp15
 70
     1
102
RTVSPropertyOp16
 70
     1
102
RTVSPropertyOp17
 70
     1
102
RTVSPropertyOp18
 70
     1
102
RTVSPropertyOp19
 70
     1
102
RTVSPropertyOp20
 70
     1
102
RTVSPropertyOp21
 70
     1
102
RTVSPropertyOp22
 70
     1
102
RTVSPropertyOp23
 70
     1
102
RTVSPropertyOp24
 70
     1
102
RTVSPropertyOp25
 70
     1
102
RTVSPropertyOp26
 70
     1
102
RTVSPropertyOp27
 70
     1
102
RTVSPropertyOp28
 70
     1
102
RTVSPropertyOp29
 70
     1
102
RTVSPropertyOp30
 70
     1
102
RTVSPropertyOp31
 70
     1
102
RTVSPropertyOp32
 70
     1
102
RTVSPropertyOp33
 70
     1
102
RTVSPropertyOp34
 70
     1
102
RTVSPropertyOp35
 70
     1
102
RTVSPropertyOp36
 70
     1
102
RTVSPropertyOp37
 70
     1
102
RTVSPropertyOp38
 70
     1
102
RTVSPropertyOp39
 70
     1
102
RTVSPropertyOp40
 70
     1
102
RTVSPropertyOp41
 70
     1
102
RTVSPropertyOp42
 70
     1
102
RTVSPropertyOp43
 70
     1
102
RTVSPropertyOp44
 70
     1
102
RTVSPropertyOp45
 70
     1
102
RTVSPropertyOp46
 70
     1
102
RTVSPropertyOp47
 70
     1
102
RTVSPropertyOp48
 70
     1
102
RTVSPropertyOp49
 70
     1
102
RTVSPropertyOp50
 70
     1
102
RTVSPropertyOp51
 70
     0
102
RTVSPropertyOp52
 70
     0
102
RTVSPropertyOp53
 70
     1
102
RTVSPropertyOp54
 70
     1
102
RTVSPropertyOp55
 70
     1
102
RTVSPropertyOp56
 70
     1
102
RTVSPropertyOp57
 70
     1
102
RTVSPost2010Prop28
280
     0
102
RTVSPost2010PropOp28
 70
     1
102
RTVSPost2010Prop29
280
     1
102
RTVSPost2010PropOp29
 70
     1
102
RTVSPost2010Prop30
280
     1
102
RTVSPost2010PropOp30
 70
     1
102
RTVSPost2010Prop31
280
     0
102
RTVSPost2010PropOp31
 70
     1
102
RTVSPost2010Prop32
280
     0
102
RTVSPost2010PropOp32
 70
     1
102
RTVSPost2010Prop33
280
     0
102
RTVSPost2010PropOp33
 70
     1
102
RTVSPost2010Prop34
280
     0
102
RTVSPost2010PropOp34
 70
     1
102
RTVSPost2010Prop35
280
     0
102
RTVSPost2010PropOp35
 70
     1
102
RTVSPost2010Prop36
280
     0
102
RTVSPost2010PropOp36
 70
     1
102
RTVSPost2010Prop37
 90
       50
102
RTVSPost2010PropOp37
 70
     1
102
RTVSPost2010Prop38
140
0.0
102
RTVSPost2010PropOp38
 70
     1
102
RTVSPost2010Prop39
140
1.0
102
RTVSPost2010PropOp39
 70
     1
102
RTVSPost2010Prop40
 90
        0
102
RTVSPost2010PropOp40
 70
     1
102
RTVSPost2010Prop41ColorIndex
 90
       18
102
RTVSPost2010Prop41ColorRGB
 90
        0
102
RTVSPost2010PropOp41
 70
     1
102
RTVSPost2010Prop42
 90
       50
102
RTVSPost2010PropOp42
 70
     1
102
RTVSPost2010Prop43
 90
        3
102
RTVSPost2010PropOp43
 70
     1
102
RTVSPost2010Prop44ColorIndex
 90
        5
102
RTVSPost2010Prop44ColorRGB
 90
      255
102
RTVSPost2010PropOp44
 70
     1
102
RTVSPost2010Prop45
280
     0
102
RTVSPost2010PropOp45
 70
     1
102
RTVSPost2010Prop46
 90
       50
102
RTVSPost2010PropOp46
 70
     1
102
RTVSPost2010Prop47
 90
       50
102
RTVSPost2010PropOp47
 70
     1
102
RTVSPost2010Prop48
 90
       50
102
RTVSPost2010PropOp48
 70
     1
102
RTVSPost2010Prop49
280
     0
102
RTVSPost2010PropOp49
 70
     1
102
RTVSPost2010Prop50
 90
       50
102
RTVSPost2010PropOp50
 70
     1
102
RTVSPost2010Prop51ColorIndex
 90
      256
102
RTVSPost2010Prop51ColorRGB
 90
-16777216
102
RTVSPost2010PropOp51
 70
     0
102
RTVSPost2010Prop52
140
1.0
102
RTVSPost2010PropOp52
 70
     0
102
RTVSPost2010Prop53
 90
        2
102
RTVSPost2010PropOp53
 70
     1
102
RTVSPost2010Prop54
  1
strokes_ogs.tif
102
RTVSPost2010PropOp54
 70
     1
102
RTVSPost2010Prop55
280
     0
102
RTVSPost2010PropOp55
 70
     1
102
RTVSPost2010Prop56
140
1.0
102
RTVSPost2010PropOp56
 70
     1
102
RTVSPost2010Prop57
140
1.0
102
RTVSPost2010PropOp57
 70
     1
  0
XRECORD
  5
323
102
{ACAD_REACTORS
330
322
102
}
330
322
100
AcDbXrecord
280
     1
102
RTVSPropertyOp0
 70
     1
102
RTVSPropertyOp1
 70
     1
102
RTVSPropertyOp2
 70
     1
102
RTVSPropertyOp3
 70
     1
102
RTVSPropertyOp4
 70
     1
102
RTVSPropertyOp5
 70
     1
102
RTVSPropertyOp6
 70
     1
102
RTVSPropertyOp7
 70
     1
102
RTVSPropertyOp8
 70
     1
102
RTVSPropertyOp9
 70
     1
102
RTVSPropertyOp10
 70
     1
102
RTVSPropertyOp11
 70
     1
102
RTVSPropertyOp12
 70
     1
102
RTVSPropertyOp13
 70
     1
102
RTVSPropertyOp14
 70
     1
102
RTVSPropertyOp15
 70
     1
102
RTVSPropertyOp16
 70
     1
102
RTVSPropertyOp17
 70
     1
102
RTVSPropertyOp18
 70
     1
102
RTVSPropertyOp19
 70
     1
102
RTVSPropertyOp20
 70
     1
102
RTVSPropertyOp21
 70
     1
102
RTVSPropertyOp22
 70
     1
102
RTVSPropertyOp23
 70
     1
102
RTVSPropertyOp24
 70
     1
102
RTVSPropertyOp25
 70
     1
102
RTVSPropertyOp26
 70
     1
102
RTVSPropertyOp27
 70
     1
102
RTVSPropertyOp28
 70
     1
102
RTVSPropertyOp29
 70
     1
102
RTVSPropertyOp30
 70
     1
102
RTVSPropertyOp31
 70
     1
102
RTVSPropertyOp32
 70
     1
102
RTVSPropertyOp33
 70
     1
102
RTVSPropertyOp34
 70
     1
102
RTVSPropertyOp35
 70
     1
102
RTVSPropertyOp36
 70
     1
102
RTVSPropertyOp37
 70
     1
102
RTVSPropertyOp38
 70
     1
102
RTVSPropertyOp39
 70
     1
102
RTVSPropertyOp40
 70
     1
102
RTVSPropertyOp41
 70
     1
102
RTVSPropertyOp42
 70
     1
102
RTVSPropertyOp43
 70
     1
102
RTVSPropertyOp44
 70
     1
102
RTVSPropertyOp45
 70
     1
102
RTVSPropertyOp46
 70
     1
102
RTVSPropertyOp47
 70
     1
102
RTVSPropertyOp48
 70
     1
102
RTVSPropertyOp49
 70
     1
102
RTVSPropertyOp50
 70
     1
102
RTVSPropertyOp51
 70
     0
102
RTVSPropertyOp52
 70
     0
102
RTVSPropertyOp53
 70
     1
102
RTVSPropertyOp54
 70
     1
102
RTVSPropertyOp55
 70
     1
102
RTVSPropertyOp56
 70
     1
102
RTVSPropertyOp57
 70
     1
102
RTVSPost2010Prop28
280
     0
102
RTVSPost2010PropOp28
 70
     1
102
RTVSPost2010Prop29
280
     1
102
RTVSPost2010PropOp29
 70
     1
102
RTVSPost2010Prop30
280
     1
102
RTVSPost2010PropOp30
 70
     1
102
RTVSPost2010Prop31
280
     0
102
RTVSPost2010PropOp31
 70
     1
102
RTVSPost2010Prop32
280
     0
102
RTVSPost2010PropOp32
 70
     1
102
RTVSPost2010Prop33
280
     0
102
RTVSPost2010PropOp33
 70
     1
102
RTVSPost2010Prop34
280
     0
102
RTVSPost2010PropOp34
 70
     1
102
RTVSPost2010Prop35
280
     0
102
RTVSPost2010PropOp35
 70
     1
102
RTVSPost2010Prop36
280
     0
102
RTVSPost2010PropOp36
 70
     1
102
RTVSPost2010Prop37
 90
       50
102
RTVSPost2010PropOp37
 70
     1
102
RTVSPost2010Prop38
140
0.0
102
RTVSPost2010PropOp38
 70
     1
102
RTVSPost2010Prop39
140
1.0
102
RTVSPost2010PropOp39
 70
     1
102
RTVSPost2010Prop40
 90
        0
102
RTVSPost2010PropOp40
 70
     1
102
RTVSPost2010Prop41ColorIndex
 90
       18
102
RTVSPost2010Prop41ColorRGB
 90
        0
102
RTVSPost2010PropOp41
 70
     1
102
RTVSPost2010Prop42
 90
       50
102
RTVSPost2010PropOp42
 70
     1
102
RTVSPost2010Prop43
 90
        3
102
RTVSPost2010PropOp43
 70
     1
102
RTVSPost2010Prop44ColorIndex
 90
        5
102
RTVSPost2010Prop44ColorRGB
 90
      255
102
RTVSPost2010PropOp44
 70
     1
102
RTVSPost2010Prop45
280
     0
102
RTVSPost2010PropOp45
 70
     1
102
RTVSPost2010Prop46
 90
       50
102
RTVSPost2010PropOp46
 70
     1
102
RTVSPost2010Prop47
 90
       50
102
RTVSPost2010PropOp47
 70
     1
102
RTVSPost2010Prop48
 90
       50
102
RTVSPost2010PropOp48
 70
     1
102
RTVSPost2010Prop49
280
     0
102
RTVSPost2010PropOp49
 70
     1
102
RTVSPost2010Prop50
 90
       50
102
RTVSPost2010PropOp50
 70
     1
102
RTVSPost2010Prop51ColorIndex
 90
      256
102
RTVSPost2010Prop51ColorRGB
 90
-16777216
102
RTVSPost2010PropOp51
 70
     0
102
RTVSPost2010Prop52
140
1.0
102
RTVSPost2010PropOp52
 70
     0
102
RTVSPost2010Prop53
 90
        2
102
RTVSPost2010PropOp53
 70
     1
102
RTVSPost2010Prop54
  1
strokes_ogs.tif
102
RTVSPost2010PropOp54
 70
     1
102
RTVSPost2010Prop55
280
     0
102
RTVSPost2010PropOp55
 70
     1
102
RTVSPost2010Prop56
140
1.0
102
RTVSPost2010PropOp56
 70
     1
102
RTVSPost2010Prop57
140
1.0
102
RTVSPost2010PropOp57
 70
     1
  0
XRECORD
  5
325
102
{ACAD_REACTORS
330
324
102
}
330
324
100
AcDbXrecord
280
     1
102
RTVSPropertyOp0
 70
     1
102
RTVSPropertyOp1
 70
     1
102
RTVSPropertyOp2
 70
     1
102
RTVSPropertyOp3
 70
     1
102
RTVSPropertyOp4
 70
     1
102
RTVSPropertyOp5
 70
     1
102
RTVSPropertyOp6
 70
     1
102
RTVSPropertyOp7
 70
     1
102
RTVSPropertyOp8
 70
     1
102
RTVSPropertyOp9
 70
     1
102
RTVSPropertyOp10
 70
     1
102
RTVSPropertyOp11
 70
     1
102
RTVSPropertyOp12
 70
     1
102
RTVSPropertyOp13
 70
     1
102
RTVSPropertyOp14
 70
     1
102
RTVSPropertyOp15
 70
     1
102
RTVSPropertyOp16
 70
     1
102
RTVSPropertyOp17
 70
     1
102
RTVSPropertyOp18
 70
     1
102
RTVSPropertyOp19
 70
     1
102
RTVSPropertyOp20
 70
     1
102
RTVSPropertyOp21
 70
     1
102
RTVSPropertyOp22
 70
     1
102
RTVSPropertyOp23
 70
     1
102
RTVSPropertyOp24
 70
     1
102
RTVSPropertyOp25
 70
     1
102
RTVSPropertyOp26
 70
     1
102
RTVSPropertyOp27
 70
     1
102
RTVSPropertyOp28
 70
     1
102
RTVSPropertyOp29
 70
     1
102
RTVSPropertyOp30
 70
     1
102
RTVSPropertyOp31
 70
     1
102
RTVSPropertyOp32
 70
     1
102
RTVSPropertyOp33
 70
     1
102
RTVSPropertyOp34
 70
     1
102
RTVSPropertyOp35
 70
     1
102
RTVSPropertyOp36
 70
     1
102
RTVSPropertyOp37
 70
     1
102
RTVSPropertyOp38
 70
     1
102
RTVSPropertyOp39
 70
     1
102
RTVSPropertyOp40
 70
     1
102
RTVSPropertyOp41
 70
     1
102
RTVSPropertyOp42
 70
     1
102
RTVSPropertyOp43
 70
     1
102
RTVSPropertyOp44
 70
     1
102
RTVSPropertyOp45
 70
     1
102
RTVSPropertyOp46
 70
     1
102
RTVSPropertyOp47
 70
     1
102
RTVSPropertyOp48
 70
     1
102
RTVSPropertyOp49
 70
     1
102
RTVSPropertyOp50
 70
     1
102
RTVSPropertyOp51
 70
     0
102
RTVSPropertyOp52
 70
     0
102
RTVSPropertyOp53
 70
     1
102
RTVSPropertyOp54
 70
     1
102
RTVSPropertyOp55
 70
     1
102
RTVSPropertyOp56
 70
     1
102
RTVSPropertyOp57
 70
     1
102
RTVSPost2010Prop28
280
     0
102
RTVSPost2010PropOp28
 70
     1
102
RTVSPost2010Prop29
280
     1
102
RTVSPost2010PropOp29
 70
     1
102
RTVSPost2010Prop30
280
     1
102
RTVSPost2010PropOp30
 70
     1
102
RTVSPost2010Prop31
280
     0
102
RTVSPost2010PropOp31
 70
     1
102
RTVSPost2010Prop32
280
     0
102
RTVSPost2010PropOp32
 70
     1
102
RTVSPost2010Prop33
280
     0
102
RTVSPost2010PropOp33
 70
     1
102
RTVSPost2010Prop34
280
     0
102
RTVSPost2010PropOp34
 70
     1
102
RTVSPost2010Prop35
280
     0
102
RTVSPost2010PropOp35
 70
     1
102
RTVSPost2010Prop36
280
     0
102
RTVSPost2010PropOp36
 70
     1
102
RTVSPost2010Prop37
 90
       50
102
RTVSPost2010PropOp37
 70
     1
102
RTVSPost2010Prop38
140
0.0
102
RTVSPost2010PropOp38
 70
     1
102
RTVSPost2010Prop39
140
1.0
102
RTVSPost2010PropOp39
 70
     1
102
RTVSPost2010Prop40
 90
        0
102
RTVSPost2010PropOp40
 70
     1
102
RTVSPost2010Prop41ColorIndex
 90
       18
102
RTVSPost2010Prop41ColorRGB
 90
        0
102
RTVSPost2010PropOp41
 70
     1
102
RTVSPost2010Prop42
 90
       50
102
RTVSPost2010PropOp42
 70
     1
102
RTVSPost2010Prop43
 90
        3
102
RTVSPost2010PropOp43
 70
     1
102
RTVSPost2010Prop44ColorIndex
 90
        5
102
RTVSPost2010Prop44ColorRGB
 90
      255
102
RTVSPost2010PropOp44
 70
     1
102
RTVSPost2010Prop45
280
     0
102
RTVSPost2010PropOp45
 70
     1
102
RTVSPost2010Prop46
 90
       50
102
RTVSPost2010PropOp46
 70
     1
102
RTVSPost2010Prop47
 90
       50
102
RTVSPost2010PropOp47
 70
     1
102
RTVSPost2010Prop48
 90
       50
102
RTVSPost2010PropOp48
 70
     1
102
RTVSPost2010Prop49
280
     0
102
RTVSPost2010PropOp49
 70
     1
102
RTVSPost2010Prop50
 90
       50
102
RTVSPost2010PropOp50
 70
     1
102
RTVSPost2010Prop51ColorIndex
 90
      256
102
RTVSPost2010Prop51ColorRGB
 90
-16777216
102
RTVSPost2010PropOp51
 70
     0
102
RTVSPost2010Prop52
140
1.0
102
RTVSPost2010PropOp52
 70
     0
102
RTVSPost2010Prop53
 90
        2
102
RTVSPost2010PropOp53
 70
     1
102
RTVSPost2010Prop54
  1
strokes_ogs.tif
102
RTVSPost2010PropOp54
 70
     1
102
RTVSPost2010Prop55
280
     0
102
RTVSPost2010PropOp55
 70
     1
102
RTVSPost2010Prop56
140
1.0
102
RTVSPost2010PropOp56
 70
     1
102
RTVSPost2010Prop57
140
1.0
102
RTVSPost2010PropOp57
 70
     1
  0
XRECORD
  5
327
102
{ACAD_REACTORS
330
326
102
}
330
326
100
AcDbXrecord
280
     1
102
RTVSPropertyOp0
 70
     1
102
RTVSPropertyOp1
 70
     1
102
RTVSPropertyOp2
 70
     1
102
RTVSPropertyOp3
 70
     1
102
RTVSPropertyOp4
 70
     1
102
RTVSPropertyOp5
 70
     1
102
RTVSPropertyOp6
 70
     1
102
RTVSPropertyOp7
 70
     1
102
RTVSPropertyOp8
 70
     1
102
RTVSPropertyOp9
 70
     1
102
RTVSPropertyOp10
 70
     1
102
RTVSPropertyOp11
 70
     1
102
RTVSPropertyOp12
 70
     1
102
RTVSPropertyOp13
 70
     1
102
RTVSPropertyOp14
 70
     1
102
RTVSPropertyOp15
 70
     1
102
RTVSPropertyOp16
 70
     1
102
RTVSPropertyOp17
 70
     1
102
RTVSPropertyOp18
 70
     1
102
RTVSPropertyOp19
 70
     1
102
RTVSPropertyOp20
 70
     1
102
RTVSPropertyOp21
 70
     1
102
RTVSPropertyOp22
 70
     1
102
RTVSPropertyOp23
 70
     1
102
RTVSPropertyOp24
 70
     1
102
RTVSPropertyOp25
 70
     1
102
RTVSPropertyOp26
 70
     1
102
RTVSPropertyOp27
 70
     1
102
RTVSPropertyOp28
 70
     1
102
RTVSPropertyOp29
 70
     1
102
RTVSPropertyOp30
 70
     1
102
RTVSPropertyOp31
 70
     1
102
RTVSPropertyOp32
 70
     1
102
RTVSPropertyOp33
 70
     1
102
RTVSPropertyOp34
 70
     1
102
RTVSPropertyOp35
 70
     1
102
RTVSPropertyOp36
 70
     1
102
RTVSPropertyOp37
 70
     1
102
RTVSPropertyOp38
 70
     1
102
RTVSPropertyOp39
 70
     1
102
RTVSPropertyOp40
 70
     1
102
RTVSPropertyOp41
 70
     1
102
RTVSPropertyOp42
 70
     1
102
RTVSPropertyOp43
 70
     1
102
RTVSPropertyOp44
 70
     1
102
RTVSPropertyOp45
 70
     1
102
RTVSPropertyOp46
 70
     1
102
RTVSPropertyOp47
 70
     1
102
RTVSPropertyOp48
 70
     1
102
RTVSPropertyOp49
 70
     1
102
RTVSPropertyOp50
 70
     1
102
RTVSPropertyOp51
 70
     0
102
RTVSPropertyOp52
 70
     0
102
RTVSPropertyOp53
 70
     1
102
RTVSPropertyOp54
 70
     1
102
RTVSPropertyOp55
 70
     1
102
RTVSPropertyOp56
 70
     1
102
RTVSPropertyOp57
 70
     1
102
RTVSPost2010Prop28
280
     0
102
RTVSPost2010PropOp28
 70
     1
102
RTVSPost2010Prop29
280
     1
102
RTVSPost2010PropOp29
 70
     1
102
RTVSPost2010Prop30
280
     1
102
RTVSPost2010PropOp30
 70
     1
102
RTVSPost2010Prop31
280
     0
102
RTVSPost2010PropOp31
 70
     1
102
RTVSPost2010Prop32
280
     0
102
RTVSPost2010PropOp32
 70
     1
102
RTVSPost2010Prop33
280
     0
102
RTVSPost2010PropOp33
 70
     1
102
RTVSPost2010Prop34
280
     0
102
RTVSPost2010PropOp34
 70
     1
102
RTVSPost2010Prop35
280
     0
102
RTVSPost2010PropOp35
 70
     1
102
RTVSPost2010Prop36
280
     0
102
RTVSPost2010PropOp36
 70
     1
102
RTVSPost2010Prop37
 90
       50
102
RTVSPost2010PropOp37
 70
     1
102
RTVSPost2010Prop38
140
0.0
102
RTVSPost2010PropOp38
 70
     1
102
RTVSPost2010Prop39
140
1.0
102
RTVSPost2010PropOp39
 70
     1
102
RTVSPost2010Prop40
 90
        0
102
RTVSPost2010PropOp40
 70
     1
102
RTVSPost2010Prop41ColorIndex
 90
       18
102
RTVSPost2010Prop41ColorRGB
 90
        0
102
RTVSPost2010PropOp41
 70
     1
102
RTVSPost2010Prop42
 90
       50
102
RTVSPost2010PropOp42
 70
     1
102
RTVSPost2010Prop43
 90
        3
102
RTVSPost2010PropOp43
 70
     1
102
RTVSPost2010Prop44ColorIndex
 90
        5
102
RTVSPost2010Prop44ColorRGB
 90
      255
102
RTVSPost2010PropOp44
 70
     1
102
RTVSPost2010Prop45
280
     0
102
RTVSPost2010PropOp45
 70
     1
102
RTVSPost2010Prop46
 90
       50
102
RTVSPost2010PropOp46
 70
     1
102
RTVSPost2010Prop47
 90
       50
102
RTVSPost2010PropOp47
 70
     1
102
RTVSPost2010Prop48
 90
       50
102
RTVSPost2010PropOp48
 70
     1
102
RTVSPost2010Prop49
280
     0
102
RTVSPost2010PropOp49
 70
     1
102
RTVSPost2010Prop50
 90
       50
102
RTVSPost2010PropOp50
 70
     1
102
RTVSPost2010Prop51ColorIndex
 90
      256
102
RTVSPost2010Prop51ColorRGB
 90
-16777216
102
RTVSPost2010PropOp51
 70
     0
102
RTVSPost2010Prop52
140
1.0
102
RTVSPost2010PropOp52
 70
     0
102
RTVSPost2010Prop53
 90
        2
102
RTVSPost2010PropOp53
 70
     1
102
RTVSPost2010Prop54
  1
strokes_ogs.tif
102
RTVSPost2010PropOp54
 70
     1
102
RTVSPost2010Prop55
280
     0
102
RTVSPost2010PropOp55
 70
     1
102
RTVSPost2010Prop56
140
1.0
102
RTVSPost2010PropOp56
 70
     1
102
RTVSPost2010Prop57
140
1.0
102
RTVSPost2010PropOp57
 70
     1
  0
XRECORD
  5
329
102
{ACAD_REACTORS
330
328
102
}
330
328
100
AcDbXrecord
280
     1
102
RTVSPropertyOp0
 70
     1
102
RTVSPropertyOp1
 70
     1
102
RTVSPropertyOp2
 70
     1
102
RTVSPropertyOp3
 70
     1
102
RTVSPropertyOp4
 70
     1
102
RTVSPropertyOp5
 70
     1
102
RTVSPropertyOp6
 70
     1
102
RTVSPropertyOp7
 70
     1
102
RTVSPropertyOp8
 70
     1
102
RTVSPropertyOp9
 70
     1
102
RTVSPropertyOp10
 70
     1
102
RTVSPropertyOp11
 70
     1
102
RTVSPropertyOp12
 70
     1
102
RTVSPropertyOp13
 70
     1
102
RTVSPropertyOp14
 70
     1
102
RTVSPropertyOp15
 70
     1
102
RTVSPropertyOp16
 70
     1
102
RTVSPropertyOp17
 70
     1
102
RTVSPropertyOp18
 70
     1
102
RTVSPropertyOp19
 70
     1
102
RTVSPropertyOp20
 70
     1
102
RTVSPropertyOp21
 70
     1
102
RTVSPropertyOp22
 70
     1
102
RTVSPropertyOp23
 70
     1
102
RTVSPropertyOp24
 70
     1
102
RTVSPropertyOp25
 70
     1
102
RTVSPropertyOp26
 70
     1
102
RTVSPropertyOp27
 70
     1
102
RTVSPropertyOp28
 70
     1
102
RTVSPropertyOp29
 70
     1
102
RTVSPropertyOp30
 70
     1
102
RTVSPropertyOp31
 70
     1
102
RTVSPropertyOp32
 70
     1
102
RTVSPropertyOp33
 70
     1
102
RTVSPropertyOp34
 70
     1
102
RTVSPropertyOp35
 70
     1
102
RTVSPropertyOp36
 70
     1
102
RTVSPropertyOp37
 70
     1
102
RTVSPropertyOp38
 70
     1
102
RTVSPropertyOp39
 70
     1
102
RTVSPropertyOp40
 70
     1
102
RTVSPropertyOp41
 70
     1
102
RTVSPropertyOp42
 70
     1
102
RTVSPropertyOp43
 70
     1
102
RTVSPropertyOp44
 70
     1
102
RTVSPropertyOp45
 70
     1
102
RTVSPropertyOp46
 70
     1
102
RTVSPropertyOp47
 70
     1
102
RTVSPropertyOp48
 70
     1
102
RTVSPropertyOp49
 70
     1
102
RTVSPropertyOp50
 70
     1
102
RTVSPropertyOp51
 70
     0
102
RTVSPropertyOp52
 70
     0
102
RTVSPropertyOp53
 70
     1
102
RTVSPropertyOp54
 70
     1
102
RTVSPropertyOp55
 70
     1
102
RTVSPropertyOp56
 70
     1
102
RTVSPropertyOp57
 70
     1
102
RTVSPost2010Prop28
280
     0
102
RTVSPost2010PropOp28
 70
     1
102
RTVSPost2010Prop29
280
     1
102
RTVSPost2010PropOp29
 70
     1
102
RTVSPost2010Prop30
280
     1
102
RTVSPost2010PropOp30
 70
     1
102
RTVSPost2010Prop31
280
     0
102
RTVSPost2010PropOp31
 70
     1
102
RTVSPost2010Prop32
280
     0
102
RTVSPost2010PropOp32
 70
     1
102
RTVSPost2010Prop33
280
     0
102
RTVSPost2010PropOp33
 70
     1
102
RTVSPost2010Prop34
280
     0
102
RTVSPost2010PropOp34
 70
     1
102
RTVSPost2010Prop35
280
     0
102
RTVSPost2010PropOp35
 70
     1
102
RTVSPost2010Prop36
280
     0
102
RTVSPost2010PropOp36
 70
     1
102
RTVSPost2010Prop37
 90
       50
102
RTVSPost2010PropOp37
 70
     1
102
RTVSPost2010Prop38
140
0.0
102
RTVSPost2010PropOp38
 70
     1
102
RTVSPost2010Prop39
140
1.0
102
RTVSPost2010PropOp39
 70
     1
102
RTVSPost2010Prop40
 90
        0
102
RTVSPost2010PropOp40
 70
     1
102
RTVSPost2010Prop41ColorIndex
 90
       18
102
RTVSPost2010Prop41ColorRGB
 90
        0
102
RTVSPost2010PropOp41
 70
     1
102
RTVSPost2010Prop42
 90
       50
102
RTVSPost2010PropOp42
 70
     1
102
RTVSPost2010Prop43
 90
        3
102
RTVSPost2010PropOp43
 70
     1
102
RTVSPost2010Prop44ColorIndex
 90
        5
102
RTVSPost2010Prop44ColorRGB
 90
      255
102
RTVSPost2010PropOp44
 70
     1
102
RTVSPost2010Prop45
280
     0
102
RTVSPost2010PropOp45
 70
     1
102
RTVSPost2010Prop46
 90
       50
102
RTVSPost2010PropOp46
 70
     1
102
RTVSPost2010Prop47
 90
       50
102
RTVSPost2010PropOp47
 70
     1
102
RTVSPost2010Prop48
 90
       50
102
RTVSPost2010PropOp48
 70
     1
102
RTVSPost2010Prop49
280
     0
102
RTVSPost2010PropOp49
 70
     1
102
RTVSPost2010Prop50
 90
       50
102
RTVSPost2010PropOp50
 70
     1
102
RTVSPost2010Prop51ColorIndex
 90
      256
102
RTVSPost2010Prop51ColorRGB
 90
-16777216
102
RTVSPost2010PropOp51
 70
     0
102
RTVSPost2010Prop52
140
1.0
102
RTVSPost2010PropOp52
 70
     0
102
RTVSPost2010Prop53
 90
        2
102
RTVSPost2010PropOp53
 70
     1
102
RTVSPost2010Prop54
  1
strokes_ogs.tif
102
RTVSPost2010PropOp54
 70
     1
102
RTVSPost2010Prop55
280
     0
102
RTVSPost2010PropOp55
 70
     1
102
RTVSPost2010Prop56
140
1.0
102
RTVSPost2010PropOp56
 70
     1
102
RTVSPost2010Prop57
140
1.0
102
RTVSPost2010PropOp57
 70
     1
  0
XRECORD
  5
32F
102
{ACAD_REACTORS
330
32E
102
}
330
32E
100
AcDbXrecord
280
     1
102
RTVSPropertyOp0
 70
     1
102
RTVSPropertyOp1
 70
     1
102
RTVSPropertyOp2
 70
     1
102
RTVSPropertyOp3
 70
     1
102
RTVSPropertyOp4
 70
     1
102
RTVSPropertyOp5
 70
     1
102
RTVSPropertyOp6
 70
     1
102
RTVSPropertyOp7
 70
     1
102
RTVSPropertyOp8
 70
     1
102
RTVSPropertyOp9
 70
     1
102
RTVSPropertyOp10
 70
     1
102
RTVSPropertyOp11
 70
     1
102
RTVSPropertyOp12
 70
     1
102
RTVSPropertyOp13
 70
     1
102
RTVSPropertyOp14
 70
     1
102
RTVSPropertyOp15
 70
     1
102
RTVSPropertyOp16
 70
     1
102
RTVSPropertyOp17
 70
     1
102
RTVSPropertyOp18
 70
     1
102
RTVSPropertyOp19
 70
     1
102
RTVSPropertyOp20
 70
     1
102
RTVSPropertyOp21
 70
     1
102
RTVSPropertyOp22
 70
     1
102
RTVSPropertyOp23
 70
     1
102
RTVSPropertyOp24
 70
     1
102
RTVSPropertyOp25
 70
     1
102
RTVSPropertyOp26
 70
     1
102
RTVSPropertyOp27
 70
     1
102
RTVSPropertyOp28
 70
     1
102
RTVSPropertyOp29
 70
     1
102
RTVSPropertyOp30
 70
     1
102
RTVSPropertyOp31
 70
     1
102
RTVSPropertyOp32
 70
     1
102
RTVSPropertyOp33
 70
     1
102
RTVSPropertyOp34
 70
     1
102
RTVSPropertyOp35
 70
     1
102
RTVSPropertyOp36
 70
     1
102
RTVSPropertyOp37
 70
     1
102
RTVSPropertyOp38
 70
     1
102
RTVSPropertyOp39
 70
     1
102
RTVSPropertyOp40
 70
     1
102
RTVSPropertyOp41
 70
     1
102
RTVSPropertyOp42
 70
     1
102
RTVSPropertyOp43
 70
     1
102
RTVSPropertyOp44
 70
     1
102
RTVSPropertyOp45
 70
     1
102
RTVSPropertyOp46
 70
     1
102
RTVSPropertyOp47
 70
     1
102
RTVSPropertyOp48
 70
     1
102
RTVSPropertyOp49
 70
     1
102
RTVSPropertyOp50
 70
     1
102
RTVSPropertyOp51
 70
     0
102
RTVSPropertyOp52
 70
     0
102
RTVSPropertyOp53
 70
     1
102
RTVSPropertyOp54
 70
     1
102
RTVSPropertyOp55
 70
     1
102
RTVSPropertyOp56
 70
     1
102
RTVSPropertyOp57
 70
     1
102
RTVSPost2010Prop28
280
     0
102
RTVSPost2010PropOp28
 70
     1
102
RTVSPost2010Prop29
280
     1
102
RTVSPost2010PropOp29
 70
     1
102
RTVSPost2010Prop30
280
     1
102
RTVSPost2010PropOp30
 70
     1
102
RTVSPost2010Prop31
280
     0
102
RTVSPost2010PropOp31
 70
     1
102
RTVSPost2010Prop32
280
     0
102
RTVSPost2010PropOp32
 70
     1
102
RTVSPost2010Prop33
280
     0
102
RTVSPost2010PropOp33
 70
     1
102
RTVSPost2010Prop34
280
     0
102
RTVSPost2010PropOp34
 70
     1
102
RTVSPost2010Prop35
280
     0
102
RTVSPost2010PropOp35
 70
     1
102
RTVSPost2010Prop36
280
     0
102
RTVSPost2010PropOp36
 70
     1
102
RTVSPost2010Prop37
 90
       50
102
RTVSPost2010PropOp37
 70
     1
102
RTVSPost2010Prop38
140
0.0
102
RTVSPost2010PropOp38
 70
     1
102
RTVSPost2010Prop39
140
1.0
102
RTVSPost2010PropOp39
 70
     1
102
RTVSPost2010Prop40
 90
        0
102
RTVSPost2010PropOp40
 70
     1
102
RTVSPost2010Prop41ColorIndex
 90
       18
102
RTVSPost2010Prop41ColorRGB
 90
        0
102
RTVSPost2010PropOp41
 70
     1
102
RTVSPost2010Prop42
 90
       50
102
RTVSPost2010PropOp42
 70
     1
102
RTVSPost2010Prop43
 90
        3
102
RTVSPost2010PropOp43
 70
     1
102
RTVSPost2010Prop44ColorIndex
 90
        5
102
RTVSPost2010Prop44ColorRGB
 90
      255
102
RTVSPost2010PropOp44
 70
     1
102
RTVSPost2010Prop45
280
     0
102
RTVSPost2010PropOp45
 70
     1
102
RTVSPost2010Prop46
 90
       50
102
RTVSPost2010PropOp46
 70
     1
102
RTVSPost2010Prop47
 90
       50
102
RTVSPost2010PropOp47
 70
     1
102
RTVSPost2010Prop48
 90
       50
102
RTVSPost2010PropOp48
 70
     1
102
RTVSPost2010Prop49
280
     0
102
RTVSPost2010PropOp49
 70
     1
102
RTVSPost2010Prop50
 90
       50
102
RTVSPost2010PropOp50
 70
     1
102
RTVSPost2010Prop51ColorIndex
 90
      256
102
RTVSPost2010Prop51ColorRGB
 90
-16777216
102
RTVSPost2010PropOp51
 70
     0
102
RTVSPost2010Prop52
140
1.0
102
RTVSPost2010PropOp52
 70
     0
102
RTVSPost2010Prop53
 90
        2
102
RTVSPost2010PropOp53
 70
     1
102
RTVSPost2010Prop54
  1
strokes_ogs.tif
102
RTVSPost2010PropOp54
 70
     1
102
RTVSPost2010Prop55
280
     0
102
RTVSPost2010PropOp55
 70
     1
102
RTVSPost2010Prop56
140
1.0
102
RTVSPost2010PropOp56
 70
     1
102
RTVSPost2010Prop57
140
1.0
102
RTVSPost2010PropOp57
 70
     1
  0
XRECORD
  5
343
102
{ACAD_REACTORS
330
342
102
}
330
342
100
AcDbXrecord
280
     1
102
RTVSPropertyOp0
 70
     0
102
RTVSPropertyOp1
 70
     0
102
RTVSPropertyOp2
 70
     0
102
RTVSPropertyOp3
 70
     0
102
RTVSPropertyOp4
 70
     0
102
RTVSPropertyOp5
 70
     0
102
RTVSPropertyOp6
 70
     0
102
RTVSPropertyOp7
 70
     0
102
RTVSPropertyOp8
 70
     0
102
RTVSPropertyOp9
 70
     0
102
RTVSPropertyOp10
 70
     0
102
RTVSPropertyOp11
 70
     0
102
RTVSPropertyOp12
 70
     0
102
RTVSPropertyOp13
 70
     0
102
RTVSPropertyOp14
 70
     2
102
RTVSPropertyOp15
 70
     0
102
RTVSPropertyOp16
 70
     0
102
RTVSPropertyOp17
 70
     0
102
RTVSPropertyOp18
 70
     0
102
RTVSPropertyOp19
 70
     0
102
RTVSPropertyOp20
 70
     0
102
RTVSPropertyOp21
 70
     0
102
RTVSPropertyOp22
 70
     0
102
RTVSPropertyOp23
 70
     0
102
RTVSPropertyOp24
 70
     0
102
RTVSPropertyOp25
 70
     0
102
RTVSPropertyOp26
 70
     0
102
RTVSPropertyOp27
 70
     0
102
RTVSPropertyOp28
 70
     0
102
RTVSPropertyOp29
 70
     0
102
RTVSPropertyOp30
 70
     0
102
RTVSPropertyOp31
 70
     0
102
RTVSPropertyOp32
 70
     0
102
RTVSPropertyOp33
 70
     0
102
RTVSPropertyOp34
 70
     0
102
RTVSPropertyOp35
 70
     0
102
RTVSPropertyOp36
 70
     0
102
RTVSPropertyOp37
 70
     0
102
RTVSPropertyOp38
 70
     0
102
RTVSPropertyOp39
 70
     0
102
RTVSPropertyOp40
 70
     0
102
RTVSPropertyOp41
 70
     0
102
RTVSPropertyOp42
 70
     0
102
RTVSPropertyOp43
 70
     0
102
RTVSPropertyOp44
 70
     0
102
RTVSPropertyOp45
 70
     0
102
RTVSPropertyOp46
 70
     0
102
RTVSPropertyOp47
 70
     0
102
RTVSPropertyOp48
 70
     0
102
RTVSPropertyOp49
 70
     0
102
RTVSPropertyOp50
 70
     0
102
RTVSPropertyOp51
 70
     0
102
RTVSPropertyOp52
 70
     0
102
RTVSPropertyOp53
 70
     0
102
RTVSPropertyOp54
 70
     0
102
RTVSPropertyOp55
 70
     0
102
RTVSPropertyOp56
 70
     0
102
RTVSPropertyOp57
 70
     0
102
RTVSPost2010Prop28
280
     0
102
RTVSPost2010PropOp28
 70
     0
102
RTVSPost2010Prop29
280
     1
102
RTVSPost2010PropOp29
 70
     0
102
RTVSPost2010Prop30
280
     1
102
RTVSPost2010PropOp30
 70
     0
102
RTVSPost2010Prop31
280
     0
102
RTVSPost2010PropOp31
 70
     0
102
RTVSPost2010Prop32
280
     0
102
RTVSPost2010PropOp32
 70
     0
102
RTVSPost2010Prop33
280
     0
102
RTVSPost2010PropOp33
 70
     0
102
RTVSPost2010Prop34
280
     0
102
RTVSPost2010PropOp34
 70
     0
102
RTVSPost2010Prop35
280
     0
102
RTVSPost2010PropOp35
 70
     0
102
RTVSPost2010Prop36
280
     0
102
RTVSPost2010PropOp36
 70
     0
102
RTVSPost2010Prop37
 90
       50
102
RTVSPost2010PropOp37
 70
     0
102
RTVSPost2010Prop38
140
0.0
102
RTVSPost2010PropOp38
 70
     0
102
RTVSPost2010Prop39
140
1.0
102
RTVSPost2010PropOp39
 70
     0
102
RTVSPost2010Prop40
 90
        0
102
RTVSPost2010PropOp40
 70
     0
102
RTVSPost2010Prop41ColorIndex
 90
       18
102
RTVSPost2010Prop41ColorRGB
 90
        0
102
RTVSPost2010PropOp41
 70
     0
102
RTVSPost2010Prop42
 90
       50
102
RTVSPost2010PropOp42
 70
     0
102
RTVSPost2010Prop43
 90
        3
102
RTVSPost2010PropOp43
 70
     0
102
RTVSPost2010Prop44ColorIndex
 90
        5
102
RTVSPost2010Prop44ColorRGB
 90
      255
102
RTVSPost2010PropOp44
 70
     0
102
RTVSPost2010Prop45
280
     0
102
RTVSPost2010PropOp45
 70
     0
102
RTVSPost2010Prop46
 90
       50
102
RTVSPost2010PropOp46
 70
     0
102
RTVSPost2010Prop47
 90
       50
102
RTVSPost2010PropOp47
 70
     0
102
RTVSPost2010Prop48
 90
       50
102
RTVSPost2010PropOp48
 70
     0
102
RTVSPost2010Prop49
280
     0
102
RTVSPost2010PropOp49
 70
     0
102
RTVSPost2010Prop50
 90
       50
102
RTVSPost2010PropOp50
 70
     0
102
RTVSPost2010Prop51ColorIndex
 90
      256
102
RTVSPost2010Prop51ColorRGB
 90
-16777216
102
RTVSPost2010PropOp51
 70
     0
102
RTVSPost2010Prop52
140
1.0
102
RTVSPost2010PropOp52
 70
     0
102
RTVSPost2010Prop53
 90
        2
102
RTVSPost2010PropOp53
 70
     0
102
RTVSPost2010Prop54
  1
strokes_ogs.tif
102
RTVSPost2010PropOp54
 70
     0
102
RTVSPost2010Prop55
280
     0
102
RTVSPost2010PropOp55
 70
     0
102
RTVSPost2010Prop56
140
1.0
102
RTVSPost2010PropOp56
 70
     0
102
RTVSPost2010Prop57
140
1.0
102
RTVSPost2010PropOp57
 70
     0
  0
XRECORD
  5
33D
102
{ACAD_REACTORS
330
33C
102
}
330
33C
100
AcDbXrecord
280
     1
102
RTVSPropertyOp0
 70
     1
102
RTVSPropertyOp1
 70
     1
102
RTVSPropertyOp2
 70
     1
102
RTVSPropertyOp3
 70
     1
102
RTVSPropertyOp4
 70
     1
102
RTVSPropertyOp5
 70
     1
102
RTVSPropertyOp6
 70
     1
102
RTVSPropertyOp7
 70
     1
102
RTVSPropertyOp8
 70
     1
102
RTVSPropertyOp9
 70
     1
102
RTVSPropertyOp10
 70
     1
102
RTVSPropertyOp11
 70
     1
102
RTVSPropertyOp12
 70
     1
102
RTVSPropertyOp13
 70
     1
102
RTVSPropertyOp14
 70
     1
102
RTVSPropertyOp15
 70
     1
102
RTVSPropertyOp16
 70
     1
102
RTVSPropertyOp17
 70
     1
102
RTVSPropertyOp18
 70
     1
102
RTVSPropertyOp19
 70
     1
102
RTVSPropertyOp20
 70
     1
102
RTVSPropertyOp21
 70
     1
102
RTVSPropertyOp22
 70
     1
102
RTVSPropertyOp23
 70
     1
102
RTVSPropertyOp24
 70
     1
102
RTVSPropertyOp25
 70
     1
102
RTVSPropertyOp26
 70
     1
102
RTVSPropertyOp27
 70
     1
102
RTVSPropertyOp28
 70
     1
102
RTVSPropertyOp29
 70
     1
102
RTVSPropertyOp30
 70
     1
102
RTVSPropertyOp31
 70
     1
102
RTVSPropertyOp32
 70
     1
102
RTVSPropertyOp33
 70
     1
102
RTVSPropertyOp34
 70
     1
102
RTVSPropertyOp35
 70
     1
102
RTVSPropertyOp36
 70
     1
102
RTVSPropertyOp37
 70
     1
102
RTVSPropertyOp38
 70
     1
102
RTVSPropertyOp39
 70
     1
102
RTVSPropertyOp40
 70
     1
102
RTVSPropertyOp41
 70
     1
102
RTVSPropertyOp42
 70
     1
102
RTVSPropertyOp43
 70
     1
102
RTVSPropertyOp44
 70
     1
102
RTVSPropertyOp45
 70
     1
102
RTVSPropertyOp46
 70
     1
102
RTVSPropertyOp47
 70
     1
102
RTVSPropertyOp48
 70
     1
102
RTVSPropertyOp49
 70
     1
102
RTVSPropertyOp50
 70
     1
102
RTVSPropertyOp51
 70
     0
102
RTVSPropertyOp52
 70
     0
102
RTVSPropertyOp53
 70
     1
102
RTVSPropertyOp54
 70
     1
102
RTVSPropertyOp55
 70
     1
102
RTVSPropertyOp56
 70
     1
102
RTVSPropertyOp57
 70
     1
102
RTVSPost2010Prop28
280
     0
102
RTVSPost2010PropOp28
 70
     1
102
RTVSPost2010Prop29
280
     1
102
RTVSPost2010PropOp29
 70
     1
102
RTVSPost2010Prop30
280
     1
102
RTVSPost2010PropOp30
 70
     1
102
RTVSPost2010Prop31
280
     0
102
RTVSPost2010PropOp31
 70
     1
102
RTVSPost2010Prop32
280
     0
102
RTVSPost2010PropOp32
 70
     1
102
RTVSPost2010Prop33
280
     0
102
RTVSPost2010PropOp33
 70
     1
102
RTVSPost2010Prop34
280
     0
102
RTVSPost2010PropOp34
 70
     1
102
RTVSPost2010Prop35
280
     0
102
RTVSPost2010PropOp35
 70
     1
102
RTVSPost2010Prop36
280
     0
102
RTVSPost2010PropOp36
 70
     1
102
RTVSPost2010Prop37
 90
       50
102
RTVSPost2010PropOp37
 70
     1
102
RTVSPost2010Prop38
140
0.0
102
RTVSPost2010PropOp38
 70
     1
102
RTVSPost2010Prop39
140
1.0
102
RTVSPost2010PropOp39
 70
     1
102
RTVSPost2010Prop40
 90
        0
102
RTVSPost2010PropOp40
 70
     1
102
RTVSPost2010Prop41ColorIndex
 90
       18
102
RTVSPost2010Prop41ColorRGB
 90
        0
102
RTVSPost2010PropOp41
 70
     1
102
RTVSPost2010Prop42
 90
       50
102
RTVSPost2010PropOp42
 70
     1
102
RTVSPost2010Prop43
 90
        3
102
RTVSPost2010PropOp43
 70
     1
102
RTVSPost2010Prop44ColorIndex
 90
        5
102
RTVSPost2010Prop44ColorRGB
 90
      255
102
RTVSPost2010PropOp44
 70
     1
102
RTVSPost2010Prop45
280
     0
102
RTVSPost2010PropOp45
 70
     1
102
RTVSPost2010Prop46
 90
       50
102
RTVSPost2010PropOp46
 70
     1
102
RTVSPost2010Prop47
 90
       50
102
RTVSPost2010PropOp47
 70
     1
102
RTVSPost2010Prop48
 90
       50
102
RTVSPost2010PropOp48
 70
     1
102
RTVSPost2010Prop49
280
     0
102
RTVSPost2010PropOp49
 70
     1
102
RTVSPost2010Prop50
 90
       50
102
RTVSPost2010PropOp50
 70
     1
102
RTVSPost2010Prop51ColorIndex
 90
      256
102
RTVSPost2010Prop51ColorRGB
 90
-16777216
102
RTVSPost2010PropOp51
 70
     0
102
RTVSPost2010Prop52
140
1.0
102
RTVSPost2010PropOp52
 70
     0
102
RTVSPost2010Prop53
 90
        2
102
RTVSPost2010PropOp53
 70
     1
102
RTVSPost2010Prop54
  1
strokes_ogs.tif
102
RTVSPost2010PropOp54
 70
     1
102
RTVSPost2010Prop55
280
     0
102
RTVSPost2010PropOp55
 70
     1
102
RTVSPost2010Prop56
140
1.0
102
RTVSPost2010PropOp56
 70
     1
102
RTVSPost2010Prop57
140
1.0
102
RTVSPost2010PropOp57
 70
     1
  0
XRECORD
  5
345
102
{ACAD_REACTORS
330
344
102
}
330
344
100
AcDbXrecord
280
     1
102
RTVSPropertyOp0
 70
     0
102
RTVSPropertyOp1
 70
     0
102
RTVSPropertyOp2
 70
     0
102
RTVSPropertyOp3
 70
     0
102
RTVSPropertyOp4
 70
     0
102
RTVSPropertyOp5
 70
     0
102
RTVSPropertyOp6
 70
     0
102
RTVSPropertyOp7
 70
     0
102
RTVSPropertyOp8
 70
     0
102
RTVSPropertyOp9
 70
     0
102
RTVSPropertyOp10
 70
     0
102
RTVSPropertyOp11
 70
     0
102
RTVSPropertyOp12
 70
     0
102
RTVSPropertyOp13
 70
     0
102
RTVSPropertyOp14
 70
     2
102
RTVSPropertyOp15
 70
     0
102
RTVSPropertyOp16
 70
     0
102
RTVSPropertyOp17
 70
     0
102
RTVSPropertyOp18
 70
     0
102
RTVSPropertyOp19
 70
     0
102
RTVSPropertyOp20
 70
     0
102
RTVSPropertyOp21
 70
     0
102
RTVSPropertyOp22
 70
     0
102
RTVSPropertyOp23
 70
     0
102
RTVSPropertyOp24
 70
     0
102
RTVSPropertyOp25
 70
     0
102
RTVSPropertyOp26
 70
     0
102
RTVSPropertyOp27
 70
     0
102
RTVSPropertyOp28
 70
     0
102
RTVSPropertyOp29
 70
     0
102
RTVSPropertyOp30
 70
     0
102
RTVSPropertyOp31
 70
     0
102
RTVSPropertyOp32
 70
     0
102
RTVSPropertyOp33
 70
     0
102
RTVSPropertyOp34
 70
     0
102
RTVSPropertyOp35
 70
     0
102
RTVSPropertyOp36
 70
     0
102
RTVSPropertyOp37
 70
     0
102
RTVSPropertyOp38
 70
     0
102
RTVSPropertyOp39
 70
     0
102
RTVSPropertyOp40
 70
     0
102
RTVSPropertyOp41
 70
     0
102
RTVSPropertyOp42
 70
     0
102
RTVSPropertyOp43
 70
     0
102
RTVSPropertyOp44
 70
     0
102
RTVSPropertyOp45
 70
     0
102
RTVSPropertyOp46
 70
     0
102
RTVSPropertyOp47
 70
     0
102
RTVSPropertyOp48
 70
     0
102
RTVSPropertyOp49
 70
     0
102
RTVSPropertyOp50
 70
     0
102
RTVSPropertyOp51
 70
     0
102
RTVSPropertyOp52
 70
     0
102
RTVSPropertyOp53
 70
     0
102
RTVSPropertyOp54
 70
     0
102
RTVSPropertyOp55
 70
     0
102
RTVSPropertyOp56
 70
     0
102
RTVSPropertyOp57
 70
     0
102
RTVSPost2010Prop28
280
     0
102
RTVSPost2010PropOp28
 70
     0
102
RTVSPost2010Prop29
280
     1
102
RTVSPost2010PropOp29
 70
     0
102
RTVSPost2010Prop30
280
     1
102
RTVSPost2010PropOp30
 70
     0
102
RTVSPost2010Prop31
280
     0
102
RTVSPost2010PropOp31
 70
     0
102
RTVSPost2010Prop32
280
     0
102
RTVSPost2010PropOp32
 70
     0
102
RTVSPost2010Prop33
280
     0
102
RTVSPost2010PropOp33
 70
     0
102
RTVSPost2010Prop34
280
     0
102
RTVSPost2010PropOp34
 70
     0
102
RTVSPost2010Prop35
280
     0
102
RTVSPost2010PropOp35
 70
     0
102
RTVSPost2010Prop36
280
     0
102
RTVSPost2010PropOp36
 70
     0
102
RTVSPost2010Prop37
 90
       50
102
RTVSPost2010PropOp37
 70
     0
102
RTVSPost2010Prop38
140
0.0
102
RTVSPost2010PropOp38
 70
     0
102
RTVSPost2010Prop39
140
1.0
102
RTVSPost2010PropOp39
 70
     0
102
RTVSPost2010Prop40
 90
        0
102
RTVSPost2010PropOp40
 70
     0
102
RTVSPost2010Prop41ColorIndex
 90
       18
102
RTVSPost2010Prop41ColorRGB
 90
        0
102
RTVSPost2010PropOp41
 70
     0
102
RTVSPost2010Prop42
 90
       50
102
RTVSPost2010PropOp42
 70
     0
102
RTVSPost2010Prop43
 90
        3
102
RTVSPost2010PropOp43
 70
     0
102
RTVSPost2010Prop44ColorIndex
 90
        5
102
RTVSPost2010Prop44ColorRGB
 90
      255
102
RTVSPost2010PropOp44
 70
     0
102
RTVSPost2010Prop45
280
     0
102
RTVSPost2010PropOp45
 70
     0
102
RTVSPost2010Prop46
 90
       50
102
RTVSPost2010PropOp46
 70
     0
102
RTVSPost2010Prop47
 90
       50
102
RTVSPost2010PropOp47
 70
     0
102
RTVSPost2010Prop48
 90
       50
102
RTVSPost2010PropOp48
 70
     0
102
RTVSPost2010Prop49
280
     0
102
RTVSPost2010PropOp49
 70
     0
102
RTVSPost2010Prop50
 90
       50
102
RTVSPost2010PropOp50
 70
     0
102
RTVSPost2010Prop51ColorIndex
 90
      256
102
RTVSPost2010Prop51ColorRGB
 90
-16777216
102
RTVSPost2010PropOp51
 70
     0
102
RTVSPost2010Prop52
140
1.0
102
RTVSPost2010PropOp52
 70
     0
102
RTVSPost2010Prop53
 90
        2
102
RTVSPost2010PropOp53
 70
     0
102
RTVSPost2010Prop54
  1
strokes_ogs.tif
102
RTVSPost2010PropOp54
 70
     0
102
RTVSPost2010Prop55
280
     0
102
RTVSPost2010PropOp55
 70
     0
102
RTVSPost2010Prop56
140
1.0
102
RTVSPost2010PropOp56
 70
     0
102
RTVSPost2010Prop57
140
1.0
102
RTVSPost2010PropOp57
 70
     0
  0
XRECORD
  5
333
102
{ACAD_REACTORS
330
332
102
}
330
332
100
AcDbXrecord
280
     1
102
RTVSPropertyOp0
 70
     1
102
RTVSPropertyOp1
 70
     1
102
RTVSPropertyOp2
 70
     1
102
RTVSPropertyOp3
 70
     1
102
RTVSPropertyOp4
 70
     1
102
RTVSPropertyOp5
 70
     1
102
RTVSPropertyOp6
 70
     1
102
RTVSPropertyOp7
 70
     1
102
RTVSPropertyOp8
 70
     1
102
RTVSPropertyOp9
 70
     1
102
RTVSPropertyOp10
 70
     1
102
RTVSPropertyOp11
 70
     1
102
RTVSPropertyOp12
 70
     1
102
RTVSPropertyOp13
 70
     1
102
RTVSPropertyOp14
 70
     1
102
RTVSPropertyOp15
 70
     1
102
RTVSPropertyOp16
 70
     1
102
RTVSPropertyOp17
 70
     1
102
RTVSPropertyOp18
 70
     1
102
RTVSPropertyOp19
 70
     1
102
RTVSPropertyOp20
 70
     1
102
RTVSPropertyOp21
 70
     1
102
RTVSPropertyOp22
 70
     1
102
RTVSPropertyOp23
 70
     1
102
RTVSPropertyOp24
 70
     1
102
RTVSPropertyOp25
 70
     1
102
RTVSPropertyOp26
 70
     1
102
RTVSPropertyOp27
 70
     1
102
RTVSPropertyOp28
 70
     1
102
RTVSPropertyOp29
 70
     1
102
RTVSPropertyOp30
 70
     1
102
RTVSPropertyOp31
 70
     1
102
RTVSPropertyOp32
 70
     1
102
RTVSPropertyOp33
 70
     1
102
RTVSPropertyOp34
 70
     1
102
RTVSPropertyOp35
 70
     1
102
RTVSPropertyOp36
 70
     1
102
RTVSPropertyOp37
 70
     1
102
RTVSPropertyOp38
 70
     1
102
RTVSPropertyOp39
 70
     1
102
RTVSPropertyOp40
 70
     1
102
RTVSPropertyOp41
 70
     1
102
RTVSPropertyOp42
 70
     1
102
RTVSPropertyOp43
 70
     1
102
RTVSPropertyOp44
 70
     1
102
RTVSPropertyOp45
 70
     1
102
RTVSPropertyOp46
 70
     1
102
RTVSPropertyOp47
 70
     1
102
RTVSPropertyOp48
 70
     1
102
RTVSPropertyOp49
 70
     1
102
RTVSPropertyOp50
 70
     1
102
RTVSPropertyOp51
 70
     0
102
RTVSPropertyOp52
 70
     0
102
RTVSPropertyOp53
 70
     1
102
RTVSPropertyOp54
 70
     1
102
RTVSPropertyOp55
 70
     1
102
RTVSPropertyOp56
 70
     1
102
RTVSPropertyOp57
 70
     1
102
RTVSPost2010Prop28
280
     0
102
RTVSPost2010PropOp28
 70
     1
102
RTVSPost2010Prop29
280
     1
102
RTVSPost2010PropOp29
 70
     1
102
RTVSPost2010Prop30
280
     1
102
RTVSPost2010PropOp30
 70
     1
102
RTVSPost2010Prop31
280
     0
102
RTVSPost2010PropOp31
 70
     1
102
RTVSPost2010Prop32
280
     0
102
RTVSPost2010PropOp32
 70
     1
102
RTVSPost2010Prop33
280
     0
102
RTVSPost2010PropOp33
 70
     1
102
RTVSPost2010Prop34
280
     0
102
RTVSPost2010PropOp34
 70
     1
102
RTVSPost2010Prop35
280
     0
102
RTVSPost2010PropOp35
 70
     1
102
RTVSPost2010Prop36
280
     0
102
RTVSPost2010PropOp36
 70
     1
102
RTVSPost2010Prop37
 90
       50
102
RTVSPost2010PropOp37
 70
     1
102
RTVSPost2010Prop38
140
0.0
102
RTVSPost2010PropOp38
 70
     1
102
RTVSPost2010Prop39
140
1.0
102
RTVSPost2010PropOp39
 70
     1
102
RTVSPost2010Prop40
 90
        0
102
RTVSPost2010PropOp40
 70
     1
102
RTVSPost2010Prop41ColorIndex
 90
       18
102
RTVSPost2010Prop41ColorRGB
 90
        0
102
RTVSPost2010PropOp41
 70
     1
102
RTVSPost2010Prop42
 90
       50
102
RTVSPost2010PropOp42
 70
     1
102
RTVSPost2010Prop43
 90
        3
102
RTVSPost2010PropOp43
 70
     1
102
RTVSPost2010Prop44ColorIndex
 90
        5
102
RTVSPost2010Prop44ColorRGB
 90
      255
102
RTVSPost2010PropOp44
 70
     1
102
RTVSPost2010Prop45
280
     0
102
RTVSPost2010PropOp45
 70
     1
102
RTVSPost2010Prop46
 90
       50
102
RTVSPost2010PropOp46
 70
     1
102
RTVSPost2010Prop47
 90
       50
102
RTVSPost2010PropOp47
 70
     1
102
RTVSPost2010Prop48
 90
       50
102
RTVSPost2010PropOp48
 70
     1
102
RTVSPost2010Prop49
280
     0
102
RTVSPost2010PropOp49
 70
     1
102
RTVSPost2010Prop50
 90
       50
102
RTVSPost2010PropOp50
 70
     1
102
RTVSPost2010Prop51ColorIndex
 90
      256
102
RTVSPost2010Prop51ColorRGB
 90
-16777216
102
RTVSPost2010PropOp51
 70
     0
102
RTVSPost2010Prop52
140
1.0
102
RTVSPost2010PropOp52
 70
     0
102
RTVSPost2010Prop53
 90
        2
102
RTVSPost2010PropOp53
 70
     1
102
RTVSPost2010Prop54
  1
strokes_ogs.tif
102
RTVSPost2010PropOp54
 70
     1
102
RTVSPost2010Prop55
280
     0
102
RTVSPost2010PropOp55
 70
     1
102
RTVSPost2010Prop56
140
1.0
102
RTVSPost2010PropOp56
 70
     1
102
RTVSPost2010Prop57
140
1.0
102
RTVSPost2010PropOp57
 70
     1
  0
XRECORD
  5
351
102
{ACAD_REACTORS
330
350
102
}
330
350
100
AcDbXrecord
280
     1
102
RTVSPropertyOp0
 70
     1
102
RTVSPropertyOp1
 70
     1
102
RTVSPropertyOp2
 70
     1
102
RTVSPropertyOp3
 70
     1
102
RTVSPropertyOp4
 70
     1
102
RTVSPropertyOp5
 70
     1
102
RTVSPropertyOp6
 70
     1
102
RTVSPropertyOp7
 70
     1
102
RTVSPropertyOp8
 70
     1
102
RTVSPropertyOp9
 70
     1
102
RTVSPropertyOp10
 70
     1
102
RTVSPropertyOp11
 70
     1
102
RTVSPropertyOp12
 70
     1
102
RTVSPropertyOp13
 70
     1
102
RTVSPropertyOp14
 70
     1
102
RTVSPropertyOp15
 70
     1
102
RTVSPropertyOp16
 70
     1
102
RTVSPropertyOp17
 70
     1
102
RTVSPropertyOp18
 70
     1
102
RTVSPropertyOp19
 70
     1
102
RTVSPropertyOp20
 70
     1
102
RTVSPropertyOp21
 70
     1
102
RTVSPropertyOp22
 70
     1
102
RTVSPropertyOp23
 70
     1
102
RTVSPropertyOp24
 70
     1
102
RTVSPropertyOp25
 70
     1
102
RTVSPropertyOp26
 70
     1
102
RTVSPropertyOp27
 70
     1
102
RTVSPropertyOp28
 70
     1
102
RTVSPropertyOp29
 70
     1
102
RTVSPropertyOp30
 70
     1
102
RTVSPropertyOp31
 70
     1
102
RTVSPropertyOp32
 70
     1
102
RTVSPropertyOp33
 70
     1
102
RTVSPropertyOp34
 70
     1
102
RTVSPropertyOp35
 70
     1
102
RTVSPropertyOp36
 70
     1
102
RTVSPropertyOp37
 70
     1
102
RTVSPropertyOp38
 70
     1
102
RTVSPropertyOp39
 70
     1
102
RTVSPropertyOp40
 70
     1
102
RTVSPropertyOp41
 70
     1
102
RTVSPropertyOp42
 70
     1
102
RTVSPropertyOp43
 70
     1
102
RTVSPropertyOp44
 70
     1
102
RTVSPropertyOp45
 70
     1
102
RTVSPropertyOp46
 70
     1
102
RTVSPropertyOp47
 70
     1
102
RTVSPropertyOp48
 70
     1
102
RTVSPropertyOp49
 70
     1
102
RTVSPropertyOp50
 70
     1
102
RTVSPropertyOp51
 70
     0
102
RTVSPropertyOp52
 70
     0
102
RTVSPropertyOp53
 70
     1
102
RTVSPropertyOp54
 70
     1
102
RTVSPropertyOp55
 70
     1
102
RTVSPropertyOp56
 70
     1
102
RTVSPropertyOp57
 70
     1
102
RTVSPost2010Prop28
280
     0
102
RTVSPost2010PropOp28
 70
     1
102
RTVSPost2010Prop29
280
     1
102
RTVSPost2010PropOp29
 70
     1
102
RTVSPost2010Prop30
280
     1
102
RTVSPost2010PropOp30
 70
     1
102
RTVSPost2010Prop31
280
     0
102
RTVSPost2010PropOp31
 70
     1
102
RTVSPost2010Prop32
280
     0
102
RTVSPost2010PropOp32
 70
     1
102
RTVSPost2010Prop33
280
     0
102
RTVSPost2010PropOp33
 70
     1
102
RTVSPost2010Prop34
280
     0
102
RTVSPost2010PropOp34
 70
     1
102
RTVSPost2010Prop35
280
     0
102
RTVSPost2010PropOp35
 70
     1
102
RTVSPost2010Prop36
280
     0
102
RTVSPost2010PropOp36
 70
     1
102
RTVSPost2010Prop37
 90
       50
102
RTVSPost2010PropOp37
 70
     1
102
RTVSPost2010Prop38
140
0.0
102
RTVSPost2010PropOp38
 70
     1
102
RTVSPost2010Prop39
140
1.0
102
RTVSPost2010PropOp39
 70
     1
102
RTVSPost2010Prop40
 90
        0
102
RTVSPost2010PropOp40
 70
     1
102
RTVSPost2010Prop41ColorIndex
 90
       18
102
RTVSPost2010Prop41ColorRGB
 90
        0
102
RTVSPost2010PropOp41
 70
     1
102
RTVSPost2010Prop42
 90
       50
102
RTVSPost2010PropOp42
 70
     1
102
RTVSPost2010Prop43
 90
        3
102
RTVSPost2010PropOp43
 70
     1
102
RTVSPost2010Prop44ColorIndex
 90
        5
102
RTVSPost2010Prop44ColorRGB
 90
      255
102
RTVSPost2010PropOp44
 70
     1
102
RTVSPost2010Prop45
280
     0
102
RTVSPost2010PropOp45
 70
     1
102
RTVSPost2010Prop46
 90
       50
102
RTVSPost2010PropOp46
 70
     1
102
RTVSPost2010Prop47
 90
       50
102
RTVSPost2010PropOp47
 70
     1
102
RTVSPost2010Prop48
 90
       50
102
RTVSPost2010PropOp48
 70
     1
102
RTVSPost2010Prop49
280
     0
102
RTVSPost2010PropOp49
 70
     1
102
RTVSPost2010Prop50
 90
       50
102
RTVSPost2010PropOp50
 70
     1
102
RTVSPost2010Prop51ColorIndex
 90
      256
102
RTVSPost2010Prop51ColorRGB
 90
-16777216
102
RTVSPost2010PropOp51
 70
     0
102
RTVSPost2010Prop52
140
1.0
102
RTVSPost2010PropOp52
 70
     0
102
RTVSPost2010Prop53
 90
        2
102
RTVSPost2010PropOp53
 70
     1
102
RTVSPost2010Prop54
  1
strokes_ogs.tif
102
RTVSPost2010PropOp54
 70
     1
102
RTVSPost2010Prop55
280
     0
102
RTVSPost2010PropOp55
 70
     1
102
RTVSPost2010Prop56
140
1.0
102
RTVSPost2010PropOp56
 70
     1
102
RTVSPost2010Prop57
140
1.0
102
RTVSPost2010PropOp57
 70
     1
  0
XRECORD
  5
34F
102
{ACAD_REACTORS
330
34E
102
}
330
34E
100
AcDbXrecord
280
     1
102
RTVSPropertyOp0
 70
     1
102
RTVSPropertyOp1
 70
     1
102
RTVSPropertyOp2
 70
     1
102
RTVSPropertyOp3
 70
     1
102
RTVSPropertyOp4
 70
     1
102
RTVSPropertyOp5
 70
     1
102
RTVSPropertyOp6
 70
     1
102
RTVSPropertyOp7
 70
     1
102
RTVSPropertyOp8
 70
     1
102
RTVSPropertyOp9
 70
     1
102
RTVSPropertyOp10
 70
     1
102
RTVSPropertyOp11
 70
     1
102
RTVSPropertyOp12
 70
     1
102
RTVSPropertyOp13
 70
     1
102
RTVSPropertyOp14
 70
     1
102
RTVSPropertyOp15
 70
     1
102
RTVSPropertyOp16
 70
     1
102
RTVSPropertyOp17
 70
     1
102
RTVSPropertyOp18
 70
     1
102
RTVSPropertyOp19
 70
     1
102
RTVSPropertyOp20
 70
     1
102
RTVSPropertyOp21
 70
     1
102
RTVSPropertyOp22
 70
     1
102
RTVSPropertyOp23
 70
     1
102
RTVSPropertyOp24
 70
     1
102
RTVSPropertyOp25
 70
     1
102
RTVSPropertyOp26
 70
     1
102
RTVSPropertyOp27
 70
     1
102
RTVSPropertyOp28
 70
     1
102
RTVSPropertyOp29
 70
     1
102
RTVSPropertyOp30
 70
     1
102
RTVSPropertyOp31
 70
     1
102
RTVSPropertyOp32
 70
     1
102
RTVSPropertyOp33
 70
     1
102
RTVSPropertyOp34
 70
     1
102
RTVSPropertyOp35
 70
     1
102
RTVSPropertyOp36
 70
     1
102
RTVSPropertyOp37
 70
     1
102
RTVSPropertyOp38
 70
     1
102
RTVSPropertyOp39
 70
     1
102
RTVSPropertyOp40
 70
     1
102
RTVSPropertyOp41
 70
     1
102
RTVSPropertyOp42
 70
     1
102
RTVSPropertyOp43
 70
     1
102
RTVSPropertyOp44
 70
     1
102
RTVSPropertyOp45
 70
     1
102
RTVSPropertyOp46
 70
     1
102
RTVSPropertyOp47
 70
     1
102
RTVSPropertyOp48
 70
     1
102
RTVSPropertyOp49
 70
     1
102
RTVSPropertyOp50
 70
     1
102
RTVSPropertyOp51
 70
     0
102
RTVSPropertyOp52
 70
     0
102
RTVSPropertyOp53
 70
     1
102
RTVSPropertyOp54
 70
     1
102
RTVSPropertyOp55
 70
     1
102
RTVSPropertyOp56
 70
     1
102
RTVSPropertyOp57
 70
     1
102
RTVSPost2010Prop28
280
     0
102
RTVSPost2010PropOp28
 70
     1
102
RTVSPost2010Prop29
280
     1
102
RTVSPost2010PropOp29
 70
     1
102
RTVSPost2010Prop30
280
     1
102
RTVSPost2010PropOp30
 70
     1
102
RTVSPost2010Prop31
280
     0
102
RTVSPost2010PropOp31
 70
     1
102
RTVSPost2010Prop32
280
     0
102
RTVSPost2010PropOp32
 70
     1
102
RTVSPost2010Prop33
280
     0
102
RTVSPost2010PropOp33
 70
     1
102
RTVSPost2010Prop34
280
     0
102
RTVSPost2010PropOp34
 70
     1
102
RTVSPost2010Prop35
280
     0
102
RTVSPost2010PropOp35
 70
     1
102
RTVSPost2010Prop36
280
     0
102
RTVSPost2010PropOp36
 70
     1
102
RTVSPost2010Prop37
 90
       50
102
RTVSPost2010PropOp37
 70
     1
102
RTVSPost2010Prop38
140
0.0
102
RTVSPost2010PropOp38
 70
     1
102
RTVSPost2010Prop39
140
1.0
102
RTVSPost2010PropOp39
 70
     1
102
RTVSPost2010Prop40
 90
        0
102
RTVSPost2010PropOp40
 70
     1
102
RTVSPost2010Prop41ColorIndex
 90
       18
102
RTVSPost2010Prop41ColorRGB
 90
        0
102
RTVSPost2010PropOp41
 70
     1
102
RTVSPost2010Prop42
 90
       50
102
RTVSPost2010PropOp42
 70
     1
102
RTVSPost2010Prop43
 90
        3
102
RTVSPost2010PropOp43
 70
     1
102
RTVSPost2010Prop44ColorIndex
 90
        5
102
RTVSPost2010Prop44ColorRGB
 90
      255
102
RTVSPost2010PropOp44
 70
     1
102
RTVSPost2010Prop45
280
     0
102
RTVSPost2010PropOp45
 70
     1
102
RTVSPost2010Prop46
 90
       50
102
RTVSPost2010PropOp46
 70
     1
102
RTVSPost2010Prop47
 90
       50
102
RTVSPost2010PropOp47
 70
     1
102
RTVSPost2010Prop48
 90
       50
102
RTVSPost2010PropOp48
 70
     1
102
RTVSPost2010Prop49
280
     0
102
RTVSPost2010PropOp49
 70
     1
102
RTVSPost2010Prop50
 90
       50
102
RTVSPost2010PropOp50
 70
     1
102
RTVSPost2010Prop51ColorIndex
 90
      256
102
RTVSPost2010Prop51ColorRGB
 90
-16777216
102
RTVSPost2010PropOp51
 70
     0
102
RTVSPost2010Prop52
140
1.0
102
RTVSPost2010PropOp52
 70
     0
102
RTVSPost2010Prop53
 90
        2
102
RTVSPost2010PropOp53
 70
     1
102
RTVSPost2010Prop54
  1
strokes_ogs.tif
102
RTVSPost2010PropOp54
 70
     1
102
RTVSPost2010Prop55
280
     0
102
RTVSPost2010PropOp55
 70
     1
102
RTVSPost2010Prop56
140
1.0
102
RTVSPost2010PropOp56
 70
     1
102
RTVSPost2010Prop57
140
1.0
102
RTVSPost2010PropOp57
 70
     1
  0
XRECORD
  5
349
102
{ACAD_REACTORS
330
348
102
}
330
348
100
AcDbXrecord
280
     1
102
RTVSPropertyOp0
 70
     1
102
RTVSPropertyOp1
 70
     1
102
RTVSPropertyOp2
 70
     1
102
RTVSPropertyOp3
 70
     1
102
RTVSPropertyOp4
 70
     1
102
RTVSPropertyOp5
 70
     1
102
RTVSPropertyOp6
 70
     1
102
RTVSPropertyOp7
 70
     1
102
RTVSPropertyOp8
 70
     1
102
RTVSPropertyOp9
 70
     1
102
RTVSPropertyOp10
 70
     1
102
RTVSPropertyOp11
 70
     1
102
RTVSPropertyOp12
 70
     1
102
RTVSPropertyOp13
 70
     1
102
RTVSPropertyOp14
 70
     1
102
RTVSPropertyOp15
 70
     1
102
RTVSPropertyOp16
 70
     1
102
RTVSPropertyOp17
 70
     1
102
RTVSPropertyOp18
 70
     1
102
RTVSPropertyOp19
 70
     1
102
RTVSPropertyOp20
 70
     1
102
RTVSPropertyOp21
 70
     1
102
RTVSPropertyOp22
 70
     1
102
RTVSPropertyOp23
 70
     1
102
RTVSPropertyOp24
 70
     1
102
RTVSPropertyOp25
 70
     1
102
RTVSPropertyOp26
 70
     1
102
RTVSPropertyOp27
 70
     1
102
RTVSPropertyOp28
 70
     1
102
RTVSPropertyOp29
 70
     1
102
RTVSPropertyOp30
 70
     1
102
RTVSPropertyOp31
 70
     1
102
RTVSPropertyOp32
 70
     1
102
RTVSPropertyOp33
 70
     1
102
RTVSPropertyOp34
 70
     1
102
RTVSPropertyOp35
 70
     1
102
RTVSPropertyOp36
 70
     1
102
RTVSPropertyOp37
 70
     1
102
RTVSPropertyOp38
 70
     1
102
RTVSPropertyOp39
 70
     1
102
RTVSPropertyOp40
 70
     1
102
RTVSPropertyOp41
 70
     1
102
RTVSPropertyOp42
 70
     1
102
RTVSPropertyOp43
 70
     1
102
RTVSPropertyOp44
 70
     1
102
RTVSPropertyOp45
 70
     1
102
RTVSPropertyOp46
 70
     1
102
RTVSPropertyOp47
 70
     1
102
RTVSPropertyOp48
 70
     1
102
RTVSPropertyOp49
 70
     1
102
RTVSPropertyOp50
 70
     1
102
RTVSPropertyOp51
 70
     0
102
RTVSPropertyOp52
 70
     0
102
RTVSPropertyOp53
 70
     1
102
RTVSPropertyOp54
 70
     1
102
RTVSPropertyOp55
 70
     1
102
RTVSPropertyOp56
 70
     1
102
RTVSPropertyOp57
 70
     1
102
RTVSPost2010Prop28
280
     0
102
RTVSPost2010PropOp28
 70
     1
102
RTVSPost2010Prop29
280
     1
102
RTVSPost2010PropOp29
 70
     1
102
RTVSPost2010Prop30
280
     1
102
RTVSPost2010PropOp30
 70
     1
102
RTVSPost2010Prop31
280
     0
102
RTVSPost2010PropOp31
 70
     1
102
RTVSPost2010Prop32
280
     0
102
RTVSPost2010PropOp32
 70
     1
102
RTVSPost2010Prop33
280
     0
102
RTVSPost2010PropOp33
 70
     1
102
RTVSPost2010Prop34
280
     0
102
RTVSPost2010PropOp34
 70
     1
102
RTVSPost2010Prop35
280
     0
102
RTVSPost2010PropOp35
 70
     1
102
RTVSPost2010Prop36
280
     0
102
RTVSPost2010PropOp36
 70
     1
102
RTVSPost2010Prop37
 90
       50
102
RTVSPost2010PropOp37
 70
     1
102
RTVSPost2010Prop38
140
0.0
102
RTVSPost2010PropOp38
 70
     1
102
RTVSPost2010Prop39
140
1.0
102
RTVSPost2010PropOp39
 70
     1
102
RTVSPost2010Prop40
 90
        0
102
RTVSPost2010PropOp40
 70
     1
102
RTVSPost2010Prop41ColorIndex
 90
       18
102
RTVSPost2010Prop41ColorRGB
 90
        0
102
RTVSPost2010PropOp41
 70
     1
102
RTVSPost2010Prop42
 90
       50
102
RTVSPost2010PropOp42
 70
     1
102
RTVSPost2010Prop43
 90
        3
102
RTVSPost2010PropOp43
 70
     1
102
RTVSPost2010Prop44ColorIndex
 90
        5
102
RTVSPost2010Prop44ColorRGB
 90
      255
102
RTVSPost2010PropOp44
 70
     1
102
RTVSPost2010Prop45
280
     0
102
RTVSPost2010PropOp45
 70
     1
102
RTVSPost2010Prop46
 90
       50
102
RTVSPost2010PropOp46
 70
     1
102
RTVSPost2010Prop47
 90
       50
102
RTVSPost2010PropOp47
 70
     1
102
RTVSPost2010Prop48
 90
       50
102
RTVSPost2010PropOp48
 70
     1
102
RTVSPost2010Prop49
280
     0
102
RTVSPost2010PropOp49
 70
     1
102
RTVSPost2010Prop50
 90
       50
102
RTVSPost2010PropOp50
 70
     1
102
RTVSPost2010Prop51ColorIndex
 90
      256
102
RTVSPost2010Prop51ColorRGB
 90
-16777216
102
RTVSPost2010PropOp51
 70
     0
102
RTVSPost2010Prop52
140
1.0
102
RTVSPost2010PropOp52
 70
     0
102
RTVSPost2010Prop53
 90
        2
102
RTVSPost2010PropOp53
 70
     1
102
RTVSPost2010Prop54
  1
strokes_ogs.tif
102
RTVSPost2010PropOp54
 70
     1
102
RTVSPost2010Prop55
280
     0
102
RTVSPost2010PropOp55
 70
     1
102
RTVSPost2010Prop56
140
1.0
102
RTVSPost2010PropOp56
 70
     1
102
RTVSPost2010Prop57
140
1.0
102
RTVSPost2010PropOp57
 70
     1
  0
XRECORD
  5
34B
102
{ACAD_REACTORS
330
34A
102
}
330
34A
100
AcDbXrecord
280
     1
102
RTVSPropertyOp0
 70
     1
102
RTVSPropertyOp1
 70
     1
102
RTVSPropertyOp2
 70
     1
102
RTVSPropertyOp3
 70
     1
102
RTVSPropertyOp4
 70
     1
102
RTVSPropertyOp5
 70
     1
102
RTVSPropertyOp6
 70
     1
102
RTVSPropertyOp7
 70
     1
102
RTVSPropertyOp8
 70
     1
102
RTVSPropertyOp9
 70
     1
102
RTVSPropertyOp10
 70
     1
102
RTVSPropertyOp11
 70
     1
102
RTVSPropertyOp12
 70
     1
102
RTVSPropertyOp13
 70
     1
102
RTVSPropertyOp14
 70
     1
102
RTVSPropertyOp15
 70
     1
102
RTVSPropertyOp16
 70
     1
102
RTVSPropertyOp17
 70
     1
102
RTVSPropertyOp18
 70
     1
102
RTVSPropertyOp19
 70
     1
102
RTVSPropertyOp20
 70
     1
102
RTVSPropertyOp21
 70
     1
102
RTVSPropertyOp22
 70
     1
102
RTVSPropertyOp23
 70
     1
102
RTVSPropertyOp24
 70
     1
102
RTVSPropertyOp25
 70
     1
102
RTVSPropertyOp26
 70
     1
102
RTVSPropertyOp27
 70
     1
102
RTVSPropertyOp28
 70
     1
102
RTVSPropertyOp29
 70
     1
102
RTVSPropertyOp30
 70
     1
102
RTVSPropertyOp31
 70
     1
102
RTVSPropertyOp32
 70
     1
102
RTVSPropertyOp33
 70
     1
102
RTVSPropertyOp34
 70
     1
102
RTVSPropertyOp35
 70
     1
102
RTVSPropertyOp36
 70
     1
102
RTVSPropertyOp37
 70
     1
102
RTVSPropertyOp38
 70
     1
102
RTVSPropertyOp39
 70
     1
102
RTVSPropertyOp40
 70
     1
102
RTVSPropertyOp41
 70
     1
102
RTVSPropertyOp42
 70
     1
102
RTVSPropertyOp43
 70
     1
102
RTVSPropertyOp44
 70
     1
102
RTVSPropertyOp45
 70
     1
102
RTVSPropertyOp46
 70
     1
102
RTVSPropertyOp47
 70
     1
102
RTVSPropertyOp48
 70
     1
102
RTVSPropertyOp49
 70
     1
102
RTVSPropertyOp50
 70
     1
102
RTVSPropertyOp51
 70
     0
102
RTVSPropertyOp52
 70
     0
102
RTVSPropertyOp53
 70
     1
102
RTVSPropertyOp54
 70
     1
102
RTVSPropertyOp55
 70
     1
102
RTVSPropertyOp56
 70
     1
102
RTVSPropertyOp57
 70
     1
102
RTVSPost2010Prop28
280
     0
102
RTVSPost2010PropOp28
 70
     1
102
RTVSPost2010Prop29
280
     1
102
RTVSPost2010PropOp29
 70
     1
102
RTVSPost2010Prop30
280
     1
102
RTVSPost2010PropOp30
 70
     1
102
RTVSPost2010Prop31
280
     0
102
RTVSPost2010PropOp31
 70
     1
102
RTVSPost2010Prop32
280
     0
102
RTVSPost2010PropOp32
 70
     1
102
RTVSPost2010Prop33
280
     0
102
RTVSPost2010PropOp33
 70
     1
102
RTVSPost2010Prop34
280
     0
102
RTVSPost2010PropOp34
 70
     1
102
RTVSPost2010Prop35
280
     0
102
RTVSPost2010PropOp35
 70
     1
102
RTVSPost2010Prop36
280
     0
102
RTVSPost2010PropOp36
 70
     1
102
RTVSPost2010Prop37
 90
       50
102
RTVSPost2010PropOp37
 70
     1
102
RTVSPost2010Prop38
140
0.0
102
RTVSPost2010PropOp38
 70
     1
102
RTVSPost2010Prop39
140
1.0
102
RTVSPost2010PropOp39
 70
     1
102
RTVSPost2010Prop40
 90
        0
102
RTVSPost2010PropOp40
 70
     1
102
RTVSPost2010Prop41ColorIndex
 90
       18
102
RTVSPost2010Prop41ColorRGB
 90
        0
102
RTVSPost2010PropOp41
 70
     1
102
RTVSPost2010Prop42
 90
       50
102
RTVSPost2010PropOp42
 70
     1
102
RTVSPost2010Prop43
 90
        3
102
RTVSPost2010PropOp43
 70
     1
102
RTVSPost2010Prop44ColorIndex
 90
        5
102
RTVSPost2010Prop44ColorRGB
 90
      255
102
RTVSPost2010PropOp44
 70
     1
102
RTVSPost2010Prop45
280
     0
102
RTVSPost2010PropOp45
 70
     1
102
RTVSPost2010Prop46
 90
       50
102
RTVSPost2010PropOp46
 70
     1
102
RTVSPost2010Prop47
 90
       50
102
RTVSPost2010PropOp47
 70
     1
102
RTVSPost2010Prop48
 90
       50
102
RTVSPost2010PropOp48
 70
     1
102
RTVSPost2010Prop49
280
     0
102
RTVSPost2010PropOp49
 70
     1
102
RTVSPost2010Prop50
 90
       50
102
RTVSPost2010PropOp50
 70
     1
102
RTVSPost2010Prop51ColorIndex
 90
      256
102
RTVSPost2010Prop51ColorRGB
 90
-16777216
102
RTVSPost2010PropOp51
 70
     0
102
RTVSPost2010Prop52
140
1.0
102
RTVSPost2010PropOp52
 70
     0
102
RTVSPost2010Prop53
 90
        2
102
RTVSPost2010PropOp53
 70
     1
102
RTVSPost2010Prop54
  1
strokes_ogs.tif
102
RTVSPost2010PropOp54
 70
     1
102
RTVSPost2010Prop55
280
     0
102
RTVSPost2010PropOp55
 70
     1
102
RTVSPost2010Prop56
140
1.0
102
RTVSPost2010PropOp56
 70
     1
102
RTVSPost2010Prop57
140
1.0
102
RTVSPost2010PropOp57
 70
     1
  0
XRECORD
  5
33B
102
{ACAD_REACTORS
330
33A
102
}
330
33A
100
AcDbXrecord
280
     1
102
RTVSPropertyOp0
 70
     1
102
RTVSPropertyOp1
 70
     1
102
RTVSPropertyOp2
 70
     1
102
RTVSPropertyOp3
 70
     1
102
RTVSPropertyOp4
 70
     1
102
RTVSPropertyOp5
 70
     1
102
RTVSPropertyOp6
 70
     1
102
RTVSPropertyOp7
 70
     1
102
RTVSPropertyOp8
 70
     1
102
RTVSPropertyOp9
 70
     1
102
RTVSPropertyOp10
 70
     1
102
RTVSPropertyOp11
 70
     1
102
RTVSPropertyOp12
 70
     1
102
RTVSPropertyOp13
 70
     1
102
RTVSPropertyOp14
 70
     1
102
RTVSPropertyOp15
 70
     1
102
RTVSPropertyOp16
 70
     1
102
RTVSPropertyOp17
 70
     1
102
RTVSPropertyOp18
 70
     1
102
RTVSPropertyOp19
 70
     1
102
RTVSPropertyOp20
 70
     1
102
RTVSPropertyOp21
 70
     1
102
RTVSPropertyOp22
 70
     1
102
RTVSPropertyOp23
 70
     1
102
RTVSPropertyOp24
 70
     1
102
RTVSPropertyOp25
 70
     1
102
RTVSPropertyOp26
 70
     1
102
RTVSPropertyOp27
 70
     1
102
RTVSPropertyOp28
 70
     1
102
RTVSPropertyOp29
 70
     1
102
RTVSPropertyOp30
 70
     1
102
RTVSPropertyOp31
 70
     1
102
RTVSPropertyOp32
 70
     1
102
RTVSPropertyOp33
 70
     1
102
RTVSPropertyOp34
 70
     1
102
RTVSPropertyOp35
 70
     1
102
RTVSPropertyOp36
 70
     1
102
RTVSPropertyOp37
 70
     1
102
RTVSPropertyOp38
 70
     1
102
RTVSPropertyOp39
 70
     1
102
RTVSPropertyOp40
 70
     1
102
RTVSPropertyOp41
 70
     1
102
RTVSPropertyOp42
 70
     1
102
RTVSPropertyOp43
 70
     1
102
RTVSPropertyOp44
 70
     1
102
RTVSPropertyOp45
 70
     1
102
RTVSPropertyOp46
 70
     1
102
RTVSPropertyOp47
 70
     1
102
RTVSPropertyOp48
 70
     1
102
RTVSPropertyOp49
 70
     1
102
RTVSPropertyOp50
 70
     1
102
RTVSPropertyOp51
 70
     0
102
RTVSPropertyOp52
 70
     0
102
RTVSPropertyOp53
 70
     1
102
RTVSPropertyOp54
 70
     1
102
RTVSPropertyOp55
 70
     1
102
RTVSPropertyOp56
 70
     1
102
RTVSPropertyOp57
 70
     1
102
RTVSPost2010Prop28
280
     0
102
RTVSPost2010PropOp28
 70
     1
102
RTVSPost2010Prop29
280
     1
102
RTVSPost2010PropOp29
 70
     1
102
RTVSPost2010Prop30
280
     1
102
RTVSPost2010PropOp30
 70
     1
102
RTVSPost2010Prop31
280
     0
102
RTVSPost2010PropOp31
 70
     1
102
RTVSPost2010Prop32
280
     0
102
RTVSPost2010PropOp32
 70
     1
102
RTVSPost2010Prop33
280
     0
102
RTVSPost2010PropOp33
 70
     1
102
RTVSPost2010Prop34
280
     0
102
RTVSPost2010PropOp34
 70
     1
102
RTVSPost2010Prop35
280
     0
102
RTVSPost2010PropOp35
 70
     1
102
RTVSPost2010Prop36
280
     0
102
RTVSPost2010PropOp36
 70
     1
102
RTVSPost2010Prop37
 90
       50
102
RTVSPost2010PropOp37
 70
     1
102
RTVSPost2010Prop38
140
0.0
102
RTVSPost2010PropOp38
 70
     1
102
RTVSPost2010Prop39
140
1.0
102
RTVSPost2010PropOp39
 70
     1
102
RTVSPost2010Prop40
 90
        0
102
RTVSPost2010PropOp40
 70
     1
102
RTVSPost2010Prop41ColorIndex
 90
       18
102
RTVSPost2010Prop41ColorRGB
 90
        0
102
RTVSPost2010PropOp41
 70
     1
102
RTVSPost2010Prop42
 90
       50
102
RTVSPost2010PropOp42
 70
     1
102
RTVSPost2010Prop43
 90
        3
102
RTVSPost2010PropOp43
 70
     1
102
RTVSPost2010Prop44ColorIndex
 90
        5
102
RTVSPost2010Prop44ColorRGB
 90
      255
102
RTVSPost2010PropOp44
 70
     1
102
RTVSPost2010Prop45
280
     0
102
RTVSPost2010PropOp45
 70
     1
102
RTVSPost2010Prop46
 90
       50
102
RTVSPost2010PropOp46
 70
     1
102
RTVSPost2010Prop47
 90
       50
102
RTVSPost2010PropOp47
 70
     1
102
RTVSPost2010Prop48
 90
       50
102
RTVSPost2010PropOp48
 70
     1
102
RTVSPost2010Prop49
280
     0
102
RTVSPost2010PropOp49
 70
     1
102
RTVSPost2010Prop50
 90
       50
102
RTVSPost2010PropOp50
 70
     1
102
RTVSPost2010Prop51ColorIndex
 90
      256
102
RTVSPost2010Prop51ColorRGB
 90
-16777216
102
RTVSPost2010PropOp51
 70
     0
102
RTVSPost2010Prop52
140
1.0
102
RTVSPost2010PropOp52
 70
     0
102
RTVSPost2010Prop53
 90
        2
102
RTVSPost2010PropOp53
 70
     1
102
RTVSPost2010Prop54
  1
strokes_ogs.tif
102
RTVSPost2010PropOp54
 70
     1
102
RTVSPost2010Prop55
280
     0
102
RTVSPost2010PropOp55
 70
     1
102
RTVSPost2010Prop56
140
1.0
102
RTVSPost2010PropOp56
 70
     1
102
RTVSPost2010Prop57
140
1.0
102
RTVSPost2010PropOp57
 70
     1
  0
XRECORD
  5
32D
102
{ACAD_REACTORS
330
32C
102
}
330
32C
100
AcDbXrecord
280
     1
102
RTVSPropertyOp0
 70
     1
102
RTVSPropertyOp1
 70
     1
102
RTVSPropertyOp2
 70
     1
102
RTVSPropertyOp3
 70
     1
102
RTVSPropertyOp4
 70
     1
102
RTVSPropertyOp5
 70
     1
102
RTVSPropertyOp6
 70
     1
102
RTVSPropertyOp7
 70
     1
102
RTVSPropertyOp8
 70
     1
102
RTVSPropertyOp9
 70
     1
102
RTVSPropertyOp10
 70
     1
102
RTVSPropertyOp11
 70
     1
102
RTVSPropertyOp12
 70
     1
102
RTVSPropertyOp13
 70
     1
102
RTVSPropertyOp14
 70
     1
102
RTVSPropertyOp15
 70
     1
102
RTVSPropertyOp16
 70
     1
102
RTVSPropertyOp17
 70
     1
102
RTVSPropertyOp18
 70
     1
102
RTVSPropertyOp19
 70
     1
102
RTVSPropertyOp20
 70
     1
102
RTVSPropertyOp21
 70
     1
102
RTVSPropertyOp22
 70
     1
102
RTVSPropertyOp23
 70
     1
102
RTVSPropertyOp24
 70
     1
102
RTVSPropertyOp25
 70
     1
102
RTVSPropertyOp26
 70
     1
102
RTVSPropertyOp27
 70
     1
102
RTVSPropertyOp28
 70
     1
102
RTVSPropertyOp29
 70
     1
102
RTVSPropertyOp30
 70
     1
102
RTVSPropertyOp31
 70
     1
102
RTVSPropertyOp32
 70
     1
102
RTVSPropertyOp33
 70
     1
102
RTVSPropertyOp34
 70
     1
102
RTVSPropertyOp35
 70
     1
102
RTVSPropertyOp36
 70
     1
102
RTVSPropertyOp37
 70
     1
102
RTVSPropertyOp38
 70
     1
102
RTVSPropertyOp39
 70
     1
102
RTVSPropertyOp40
 70
     1
102
RTVSPropertyOp41
 70
     1
102
RTVSPropertyOp42
 70
     1
102
RTVSPropertyOp43
 70
     1
102
RTVSPropertyOp44
 70
     1
102
RTVSPropertyOp45
 70
     1
102
RTVSPropertyOp46
 70
     1
102
RTVSPropertyOp47
 70
     1
102
RTVSPropertyOp48
 70
     1
102
RTVSPropertyOp49
 70
     1
102
RTVSPropertyOp50
 70
     1
102
RTVSPropertyOp51
 70
     0
102
RTVSPropertyOp52
 70
     0
102
RTVSPropertyOp53
 70
     1
102
RTVSPropertyOp54
 70
     1
102
RTVSPropertyOp55
 70
     1
102
RTVSPropertyOp56
 70
     1
102
RTVSPropertyOp57
 70
     1
102
RTVSPost2010Prop28
280
     0
102
RTVSPost2010PropOp28
 70
     1
102
RTVSPost2010Prop29
280
     1
102
RTVSPost2010PropOp29
 70
     1
102
RTVSPost2010Prop30
280
     1
102
RTVSPost2010PropOp30
 70
     1
102
RTVSPost2010Prop31
280
     0
102
RTVSPost2010PropOp31
 70
     1
102
RTVSPost2010Prop32
280
     0
102
RTVSPost2010PropOp32
 70
     1
102
RTVSPost2010Prop33
280
     0
102
RTVSPost2010PropOp33
 70
     1
102
RTVSPost2010Prop34
280
     0
102
RTVSPost2010PropOp34
 70
     1
102
RTVSPost2010Prop35
280
     0
102
RTVSPost2010PropOp35
 70
     1
102
RTVSPost2010Prop36
280
     0
102
RTVSPost2010PropOp36
 70
     1
102
RTVSPost2010Prop37
 90
       50
102
RTVSPost2010PropOp37
 70
     1
102
RTVSPost2010Prop38
140
0.0
102
RTVSPost2010PropOp38
 70
     1
102
RTVSPost2010Prop39
140
1.0
102
RTVSPost2010PropOp39
 70
     1
102
RTVSPost2010Prop40
 90
        0
102
RTVSPost2010PropOp40
 70
     1
102
RTVSPost2010Prop41ColorIndex
 90
       18
102
RTVSPost2010Prop41ColorRGB
 90
        0
102
RTVSPost2010PropOp41
 70
     1
102
RTVSPost2010Prop42
 90
       50
102
RTVSPost2010PropOp42
 70
     1
102
RTVSPost2010Prop43
 90
        3
102
RTVSPost2010PropOp43
 70
     1
102
RTVSPost2010Prop44ColorIndex
 90
        5
102
RTVSPost2010Prop44ColorRGB
 90
      255
102
RTVSPost2010PropOp44
 70
     1
102
RTVSPost2010Prop45
280
     0
102
RTVSPost2010PropOp45
 70
     1
102
RTVSPost2010Prop46
 90
       50
102
RTVSPost2010PropOp46
 70
     1
102
RTVSPost2010Prop47
 90
       50
102
RTVSPost2010PropOp47
 70
     1
102
RTVSPost2010Prop48
 90
       50
102
RTVSPost2010PropOp48
 70
     1
102
RTVSPost2010Prop49
280
     0
102
RTVSPost2010PropOp49
 70
     1
102
RTVSPost2010Prop50
 90
       50
102
RTVSPost2010PropOp50
 70
     1
102
RTVSPost2010Prop51ColorIndex
 90
      256
102
RTVSPost2010Prop51ColorRGB
 90
-16777216
102
RTVSPost2010PropOp51
 70
     0
102
RTVSPost2010Prop52
140
1.0
102
RTVSPost2010PropOp52
 70
     0
102
RTVSPost2010Prop53
 90
        2
102
RTVSPost2010PropOp53
 70
     1
102
RTVSPost2010Prop54
  1
strokes_ogs.tif
102
RTVSPost2010PropOp54
 70
     1
102
RTVSPost2010Prop55
280
     0
102
RTVSPost2010PropOp55
 70
     1
102
RTVSPost2010Prop56
140
1.0
102
RTVSPost2010PropOp56
 70
     1
102
RTVSPost2010Prop57
140
1.0
102
RTVSPost2010PropOp57
 70
     1
  0
XRECORD
  5
34D
102
{ACAD_REACTORS
330
34C
102
}
330
34C
100
AcDbXrecord
280
     1
102
RTVSPropertyOp0
 70
     1
102
RTVSPropertyOp1
 70
     1
102
RTVSPropertyOp2
 70
     1
102
RTVSPropertyOp3
 70
     1
102
RTVSPropertyOp4
 70
     1
102
RTVSPropertyOp5
 70
     1
102
RTVSPropertyOp6
 70
     1
102
RTVSPropertyOp7
 70
     1
102
RTVSPropertyOp8
 70
     1
102
RTVSPropertyOp9
 70
     1
102
RTVSPropertyOp10
 70
     1
102
RTVSPropertyOp11
 70
     1
102
RTVSPropertyOp12
 70
     1
102
RTVSPropertyOp13
 70
     1
102
RTVSPropertyOp14
 70
     1
102
RTVSPropertyOp15
 70
     1
102
RTVSPropertyOp16
 70
     1
102
RTVSPropertyOp17
 70
     1
102
RTVSPropertyOp18
 70
     1
102
RTVSPropertyOp19
 70
     1
102
RTVSPropertyOp20
 70
     1
102
RTVSPropertyOp21
 70
     1
102
RTVSPropertyOp22
 70
     1
102
RTVSPropertyOp23
 70
     1
102
RTVSPropertyOp24
 70
     1
102
RTVSPropertyOp25
 70
     1
102
RTVSPropertyOp26
 70
     1
102
RTVSPropertyOp27
 70
     1
102
RTVSPropertyOp28
 70
     1
102
RTVSPropertyOp29
 70
     1
102
RTVSPropertyOp30
 70
     1
102
RTVSPropertyOp31
 70
     1
102
RTVSPropertyOp32
 70
     1
102
RTVSPropertyOp33
 70
     1
102
RTVSPropertyOp34
 70
     1
102
RTVSPropertyOp35
 70
     1
102
RTVSPropertyOp36
 70
     1
102
RTVSPropertyOp37
 70
     1
102
RTVSPropertyOp38
 70
     1
102
RTVSPropertyOp39
 70
     1
102
RTVSPropertyOp40
 70
     1
102
RTVSPropertyOp41
 70
     1
102
RTVSPropertyOp42
 70
     1
102
RTVSPropertyOp43
 70
     1
102
RTVSPropertyOp44
 70
     1
102
RTVSPropertyOp45
 70
     1
102
RTVSPropertyOp46
 70
     1
102
RTVSPropertyOp47
 70
     1
102
RTVSPropertyOp48
 70
     1
102
RTVSPropertyOp49
 70
     1
102
RTVSPropertyOp50
 70
     1
102
RTVSPropertyOp51
 70
     0
102
RTVSPropertyOp52
 70
     0
102
RTVSPropertyOp53
 70
     1
102
RTVSPropertyOp54
 70
     1
102
RTVSPropertyOp55
 70
     1
102
RTVSPropertyOp56
 70
     1
102
RTVSPropertyOp57
 70
     1
102
RTVSPost2010Prop28
280
     0
102
RTVSPost2010PropOp28
 70
     1
102
RTVSPost2010Prop29
280
     1
102
RTVSPost2010PropOp29
 70
     1
102
RTVSPost2010Prop30
280
     1
102
RTVSPost2010PropOp30
 70
     1
102
RTVSPost2010Prop31
280
     0
102
RTVSPost2010PropOp31
 70
     1
102
RTVSPost2010Prop32
280
     0
102
RTVSPost2010PropOp32
 70
     1
102
RTVSPost2010Prop33
280
     0
102
RTVSPost2010PropOp33
 70
     1
102
RTVSPost2010Prop34
280
     0
102
RTVSPost2010PropOp34
 70
     1
102
RTVSPost2010Prop35
280
     0
102
RTVSPost2010PropOp35
 70
     1
102
RTVSPost2010Prop36
280
     0
102
RTVSPost2010PropOp36
 70
     1
102
RTVSPost2010Prop37
 90
       50
102
RTVSPost2010PropOp37
 70
     1
102
RTVSPost2010Prop38
140
0.0
102
RTVSPost2010PropOp38
 70
     1
102
RTVSPost2010Prop39
140
1.0
102
RTVSPost2010PropOp39
 70
     1
102
RTVSPost2010Prop40
 90
        0
102
RTVSPost2010PropOp40
 70
     1
102
RTVSPost2010Prop41ColorIndex
 90
       18
102
RTVSPost2010Prop41ColorRGB
 90
        0
102
RTVSPost2010PropOp41
 70
     1
102
RTVSPost2010Prop42
 90
       50
102
RTVSPost2010PropOp42
 70
     1
102
RTVSPost2010Prop43
 90
        3
102
RTVSPost2010PropOp43
 70
     1
102
RTVSPost2010Prop44ColorIndex
 90
        5
102
RTVSPost2010Prop44ColorRGB
 90
      255
102
RTVSPost2010PropOp44
 70
     1
102
RTVSPost2010Prop45
280
     0
102
RTVSPost2010PropOp45
 70
     1
102
RTVSPost2010Prop46
 90
       50
102
RTVSPost2010PropOp46
 70
     1
102
RTVSPost2010Prop47
 90
       50
102
RTVSPost2010PropOp47
 70
     1
102
RTVSPost2010Prop48
 90
       50
102
RTVSPost2010PropOp48
 70
     1
102
RTVSPost2010Prop49
280
     0
102
RTVSPost2010PropOp49
 70
     1
102
RTVSPost2010Prop50
 90
       50
102
RTVSPost2010PropOp50
 70
     1
102
RTVSPost2010Prop51ColorIndex
 90
      256
102
RTVSPost2010Prop51ColorRGB
 90
-16777216
102
RTVSPost2010PropOp51
 70
     0
102
RTVSPost2010Prop52
140
1.0
102
RTVSPost2010PropOp52
 70
     0
102
RTVSPost2010Prop53
 90
        2
102
RTVSPost2010PropOp53
 70
     1
102
RTVSPost2010Prop54
  1
strokes_ogs.tif
102
RTVSPost2010PropOp54
 70
     1
102
RTVSPost2010Prop55
280
     0
102
RTVSPost2010PropOp55
 70
     1
102
RTVSPost2010Prop56
140
1.0
102
RTVSPost2010PropOp56
 70
     1
102
RTVSPost2010Prop57
140
1.0
102
RTVSPost2010PropOp57
 70
     1
  0
ENDSEC
  0
EOF
