  0
SECTION
  2
HEADER
  9
$ACADVER
  1
AC1021
  9
$ACADMAINTVER
 70
    25
  9
$DWGCODEPAGE
  3
ANSI_1252
  9
$COMMENTS
  1
File was created by Mastercam X4
  9
$INSBASE
 10
0.0
 20
0.0
 30
0.0
  9
$EXTMIN
 10
1.000000000000000E+20
 20
1.000000000000000E+20
 30
1.000000000000000E+20
  9
$EXTMAX
 10
-1.000000000000000E+20
 20
-1.000000000000000E+20
 30
-1.000000000000000E+20
  9
$LIMMIN
 10
0.0
 20
0.0
  9
$LIMMAX
 10
12.0
 20
9.0
  9
$ORTHOMODE
 70
     0
  9
$REGENMODE
 70
     1
  9
$FILLMODE
 70
     1
  9
$QTEXTMODE
 70
     0
  9
$MIRRTEXT
 70
     1
  9
$LTSCALE
 40
1.0
  9
$ATTMODE
 70
     1
  9
$TEXTSIZE
 40
0.2
  9
$TRACEWID
 40
0.05
  9
$TEXTSTYLE
  7
Standard
  9
$CLAYER
  8
0
  9
$CELTYPE
  6
ByLayer
  9
$CECOLOR
 62
   256
  9
$CELTSCALE
 40
1.0
  9
$DISPSILH
 70
     0
  9
$DIMSCALE
 40
1.0
  9
$DIMASZ
 40
0.18
  9
$DIMEXO
 40
0.0625
  9
$DIMDLI
 40
0.38
  9
$DIMRND
 40
0.0
  9
$DIMDLE
 40
0.0
  9
$DIMEXE
 40
0.18
  9
$DIMTP
 40
0.0
  9
$DIMTM
 40
0.0
  9
$DIMTXT
 40
0.18
  9
$DIMCEN
 40
0.09
  9
$DIMTSZ
 40
0.0
  9
$DIMTOL
 70
     0
  9
$DIMLIM
 70
     0
  9
$DIMTIH
 70
     1
  9
$DIMTOH
 70
     1
  9
$DIMSE1
 70
     0
  9
$DIMSE2
 70
     0
  9
$DIMTAD
 70
     0
  9
$DIMZIN
 70
     0
  9
$DIMBLK
  1

  9
$DIMASO
 70
     1
  9
$DIMSHO
 70
     1
  9
$DIMPOST
  1

  9
$DIMAPOST
  1

  9
$DIMALT
 70
     0
  9
$DIMALTD
 70
     2
  9
$DIMALTF
 40
25.4
  9
$DIMLFAC
 40
1.0
  9
$DIMTOFL
 70
     0
  9
$DIMTVP
 40
0.0
  9
$DIMTIX
 70
     0
  9
$DIMSOXD
 70
     0
  9
$DIMSAH
 70
     0
  9
$DIMBLK1
  1

  9
$DIMBLK2
  1

  9
$DIMSTYLE
  2
Standard
  9
$DIMCLRD
 70
     0
  9
$DIMCLRE
 70
     0
  9
$DIMCLRT
 70
     0
  9
$DIMTFAC
 40
1.0
  9
$DIMGAP
 40
0.09
  9
$DIMJUST
 70
     0
  9
$DIMSD1
 70
     0
  9
$DIMSD2
 70
     0
  9
$DIMTOLJ
 70
     1
  9
$DIMTZIN
 70
     0
  9
$DIMALTZ
 70
     0
  9
$DIMALTTZ
 70
     0
  9
$DIMUPT
 70
     0
  9
$DIMDEC
 70
     4
  9
$DIMTDEC
 70
     4
  9
$DIMALTU
 70
     2
  9
$DIMALTTD
 70
     2
  9
$DIMTXSTY
  7
Standard
  9
$DIMAUNIT
 70
     0
  9
$DIMADEC
 70
     0
  9
$DIMALTRND
 40
0.0
  9
$DIMAZIN
 70
     0
  9
$DIMDSEP
 70
    46
  9
$DIMATFIT
 70
     3
  9
$DIMFRAC
 70
     0
  9
$DIMLDRBLK
  1

  9
$DIMLUNIT
 70
     2
  9
$DIMLWD
 70
    -2
  9
$DIMLWE
 70
    -2
  9
$DIMTMOVE
 70
     0
  9
$DIMFXL
 40
1.0
  9
$DIMFXLON
 70
     0
  9
$DIMJOGANG
 40
0.7853981633974483
  9
$DIMTFILL
 70
     0
  9
$DIMTFILLCLR
 70
     0
  9
$DIMARCSYM
 70
     0
  9
$DIMLTYPE
  6

  9
$DIMLTEX1
  6

  9
$DIMLTEX2
  6

  9
$LUNITS
 70
     2
  9
$LUPREC
 70
     4
  9
$SKETCHINC
 40
0.1
  9
$FILLETRAD
 40
0.5
  9
$AUNITS
 70
     0
  9
$AUPREC
 70
     0
  9
$MENU
  1
.
  9
$ELEVATION
 40
0.0
  9
$PELEVATION
 40
0.0
  9
$THICKNESS
 40
0.0
  9
$LIMCHECK
 70
     0
  9
$CHAMFERA
 40
0.5
  9
$CHAMFERB
 40
0.5
  9
$CHAMFERC
 40
1.0
  9
$CHAMFERD
 40
0.0
  9
$SKPOLY
 70
     0
  9
$TDCREATE
 40
2453737.5
  9
$TDUCREATE
 40
2453737.708333333
  9
$TDUPDATE
 40
2457021.666342986
  9
$TDUUPDATE
 40
2457021.874676319
  9
$TDINDWG
 40
0.0000000116
  9
$TDUSRTIMER
 40
0.0000000116
  9
$USRTIMER
 70
     1
  9
$ANGBASE
 50
0.0
  9
$ANGDIR
 70
     0
  9
$PDMODE
 70
     2
  9
$PDSIZE
 40
0.1
  9
$PLINEWID
 40
0.0
  9
$SPLFRAME
 70
     0
  9
$SPLINETYPE
 70
     6
  9
$SPLINESEGS
 70
     8
  9
$HANDSEED
  5
1F5
  9
$SURFTAB1
 70
     6
  9
$SURFTAB2
 70
     6
  9
$SURFTYPE
 70
     6
  9
$SURFU
 70
     6
  9
$SURFV
 70
     6
  9
$UCSBASE
  2

  9
$UCSNAME
  2

  9
$UCSORG
 10
0.0
 20
0.0
 30
0.0
  9
$UCSXDIR
 10
1.0
 20
0.0
 30
0.0
  9
$UCSYDIR
 10
0.0
 20
1.0
 30
0.0
  9
$UCSORTHOREF
  2

  9
$UCSORTHOVIEW
 70
     0
  9
$UCSORGTOP
 10
0.0
 20
0.0
 30
0.0
  9
$UCSORGBOTTOM
 10
0.0
 20
0.0
 30
0.0
  9
$UCSORGLEFT
 10
0.0
 20
0.0
 30
0.0
  9
$UCSORGRIGHT
 10
0.0
 20
0.0
 30
0.0
  9
$UCSORGFRONT
 10
0.0
 20
0.0
 30
0.0
  9
$UCSORGBACK
 10
0.0
 20
0.0
 30
0.0
  9
$PUCSBASE
  2

  9
$PUCSNAME
  2

  9
$PUCSORG
 10
0.0
 20
0.0
 30
0.0
  9
$PUCSXDIR
 10
1.0
 20
0.0
 30
0.0
  9
$PUCSYDIR
 10
0.0
 20
1.0
 30
0.0
  9
$PUCSORTHOREF
  2

  9
$PUCSORTHOVIEW
 70
     0
  9
$PUCSORGTOP
 10
0.0
 20
0.0
 30
0.0
  9
$PUCSORGBOTTOM
 10
0.0
 20
0.0
 30
0.0
  9
$PUCSORGLEFT
 10
0.0
 20
0.0
 30
0.0
  9
$PUCSORGRIGHT
 10
0.0
 20
0.0
 30
0.0
  9
$PUCSORGFRONT
 10
0.0
 20
0.0
 30
0.0
  9
$PUCSORGBACK
 10
0.0
 20
0.0
 30
0.0
  9
$USERI1
 70
     0
  9
$USERI2
 70
     0
  9
$USERI3
 70
     0
  9
$USERI4
 70
     0
  9
$USERI5
 70
     0
  9
$USERR1
 40
0.0
  9
$USERR2
 40
0.0
  9
$USERR3
 40
0.0
  9
$USERR4
 40
0.0
  9
$USERR5
 40
0.0
  9
$WORLDVIEW
 70
     1
  9
$SHADEDGE
 70
     3
  9
$SHADEDIF
 70
    70
  9
$TILEMODE
 70
     1
  9
$MAXACTVP
 70
    64
  9
$PINSBASE
 10
0.0
 20
0.0
 30
0.0
  9
$PLIMCHECK
 70
     0
  9
$PEXTMIN
 10
1.000000000000000E+20
 20
1.000000000000000E+20
 30
1.000000000000000E+20
  9
$PEXTMAX
 10
-1.000000000000000E+20
 20
-1.000000000000000E+20
 30
-1.000000000000000E+20
  9
$PLIMMIN
 10
0.0
 20
0.0
  9
$PLIMMAX
 10
12.0
 20
9.0
  9
$UNITMODE
 70
     0
  9
$VISRETAIN
 70
     1
  9
$PLINEGEN
 70
     0
  9
$PSLTSCALE
 70
     1
  9
$TREEDEPTH
 70
  3020
  9
$CMLSTYLE
  2
Standard
  9
$CMLJUST
 70
     0
  9
$CMLSCALE
 40
1.0
  9
$PROXYGRAPHICS
 70
     1
  9
$MEASUREMENT
 70
     0
  9
$CELWEIGHT
370
    -1
  9
$ENDCAPS
280
     0
  9
$JOINSTYLE
280
     0
  9
$LWDISPLAY
290
     0
  9
$INSUNITS
 70
     1
  9
$HYPERLINKBASE
  1

  9
$STYLESHEET
  1

  9
$XEDIT
290
     1
  9
$CEPSNTYPE
380
     0
  9
$PSTYLEMODE
290
     1
  9
$FINGERPRINTGUID
  2
{3CCE3808-E100-472C-906F-232EDB317B18}
  9
$VERSIONGUID
  2
{FAEB1C32-E019-11D5-929B-00C0DF256EC4}
  9
$EXTNAMES
290
     1
  9
$PSVPSCALE
 40
0.0
  9
$OLESTARTUP
290
     0
  9
$SORTENTS
280
   127
  9
$INDEXCTL
280
     0
  9
$HIDETEXT
280
     1
  9
$XCLIPFRAME
290
     0
  9
$HALOGAP
280
     0
  9
$OBSCOLOR
 70
   257
  9
$OBSLTYPE
280
     0
  9
$INTERSECTIONDISPLAY
280
     0
  9
$INTERSECTIONCOLOR
 70
   257
  9
$DIMASSOC
280
     2
  9
$PROJECTNAME
  1

  9
$CAMERADISPLAY
290
     0
  9
$LENSLENGTH
 40
50.0
  9
$CAMERAHEIGHT
 40
0.0
  9
$STEPSPERSEC
 40
2.0
  9
$STEPSIZE
 40
6.0
  9
$3DDWFPREC
 40
2.0
  9
$PSOLWIDTH
 40
0.25
  9
$PSOLHEIGHT
 40
4.0
  9
$LOFTANG1
 40
1.570796326794897
  9
$LOFTANG2
 40
1.570796326794897
  9
$LOFTMAG1
 40
0.0
  9
$LOFTMAG2
 40
0.0
  9
$LOFTPARAM
 70
     7
  9
$LOFTNORMALS
280
     1
  9
$LATITUDE
 40
37.795
  9
$LONGITUDE
 40
-122.394
  9
$NORTHDIRECTION
 40
0.0
  9
$TIMEZONE
 70
 -8000
  9
$LIGHTGLYPHDISPLAY
280
     1
  9
$TILEMODELIGHTSYNCH
280
     1
  9
$SOLIDHIST
280
     1
  9
$SHOWHIST
280
     1
  9
$DWFFRAME
280
     2
  9
$DGNFRAME
280
     2
  9
$REALWORLDSCALE
290
     1
  9
$INTERFERECOLOR
 62
   256
  9
$CSHADOW
280
     0
  9
$SHADOWPLANELOCATION
 40
0.0
  0
ENDSEC
  0
SECTION
  2
CLASSES
  0
CLASS
  1
ACDBDICTIONARYWDFLT
  2
AcDbDictionaryWithDefault
  3
ObjectDBX Classes
 90
        0
 91
        4
280
     0
281
     0
  0
CLASS
  1
VISUALSTYLE
  2
AcDbVisualStyle
  3
ObjectDBX Classes
 90
     4095
 91
        4
280
     0
281
     0
  0
CLASS
  1
MATERIAL
  2
AcDbMaterial
  3
ObjectDBX Classes
 90
     1153
 91
        4
280
     0
281
     0
  0
CLASS
  1
SCALE
  2
AcDbScale
  3
ObjectDBX Classes
 90
     1153
 91
        4
280
     0
281
     0
  0
CLASS
  1
DICTIONARYVAR
  2
AcDbDictionaryVar
  3
ObjectDBX Classes
 90
        0
 91
        4
280
     0
281
     0
  0
ENDSEC
  0
SECTION
  2
TABLES
  0
TABLE
  2
VPORT
  5
8
330
0
100
AcDbSymbolTable
 70
     1
  0
VPORT
  5
29
330
8
100
AcDbSymbolTableRecord
100
AcDbViewportTableRecord
  2
*Active
 70
     0
 10
0.0
 20
0.0
 11
1.0
 21
1.0
 12
10.42990654205607
 22
4.5
 13
0.0
 23
0.0
 14
0.5
 24
0.5
 15
0.5
 25
0.5
 16
0.0
 26
0.0
 36
1.0
 17
0.0
 27
0.0
 37
0.0
 40
9.0
 41
1.972972972850329
 42
50.0
 43
0.0
 44
0.0
 50
0.0
 51
0.0
 71
     0
 72
   100
 73
     1
 74
     3
 75
     0
 76
     0
 77
     0
 78
     0
281
     0
 65
     1
110
0.0
120
0.0
130
0.0
111
1.0
121
0.0
131
0.0
112
0.0
122
1.0
132
0.0
 79
     0
146
0.0
 60
     3
 61
     5
292
     1
282
     1
141
0.0
142
0.0
 63
   250
  0
ENDTAB
  0
TABLE
  2
LTYPE
  5
5
330
0
100
AcDbSymbolTable
 70
     5
  0
LTYPE
  5
14
330
5
100
AcDbSymbolTableRecord
100
AcDbLinetypeTableRecord
  2
ByBlock
 70
     0
  3

 72
    65
 73
     0
 40
0.0
  0
LTYPE
  5
15
330
5
100
AcDbSymbolTableRecord
100
AcDbLinetypeTableRecord
  2
ByLayer
 70
     0
  3

 72
    65
 73
     0
 40
0.0
  0
LTYPE
  5
16
330
5
100
AcDbSymbolTableRecord
100
AcDbLinetypeTableRecord
  2
Continuous
 70
     0
  3
Solid line
 72
    65
 73
     0
 40
0.0
  0
LTYPE
  5
40
330
5
100
AcDbSymbolTableRecord
100
AcDbLinetypeTableRecord
  2
Continuous2
 70
     0
  3
Solid Line
 72
    65
 73
     0
 40
0.0
  0
LTYPE
  5
41
330
5
100
AcDbSymbolTableRecord
100
AcDbLinetypeTableRecord
  2
DASHED
 70
     0
  3
__ __ __ __ __ __ __ __ __ __ __ __ __ __ __ __
 72
    83
 73
     2
 40
0.5
 49
0.375
 74
     0
 49
-0.125
 74
     0
  0
LTYPE
  5
42
330
5
100
AcDbSymbolTableRecord
100
AcDbLinetypeTableRecord
  2
CENTER
 70
     0
  3
____ _ ____ _ ____ _ ____ _ ____ _ ____ _ ____ _
 72
    83
 73
     4
 40
1.0
 49
0.625
 74
     0
 49
-0.125
 74
     0
 49
0.125
 74
     0
 49
-0.125
 74
     0
  0
LTYPE
  5
43
330
5
100
AcDbSymbolTableRecord
100
AcDbLinetypeTableRecord
  2
PHANTOM
 70
     0
  3
___ _ _ ___ _ _ ___ _ _ ___ _ _ ___ _ _ ___ _ _ 
 72
    83
 73
     6
 40
1.0
 49
0.5
 74
     0
 49
-0.1
 74
     0
 49
0.1
 74
     0
 49
-0.1
 74
     0
 49
0.1
 74
     0
 49
-0.1
 74
     0
  0
ENDTAB
  0
TABLE
  2
LAYER
  5
2
330
0
100
AcDbSymbolTable
 70
     4
  0
LAYER
  5
10
330
2
100
AcDbSymbolTableRecord
100
AcDbLayerTableRecord
  2
0
 70
     0
 62
     7
  6
Continuous
370
    -3
390
F
347
3E
  0
LAYER
  5
44
330
2
100
AcDbSymbolTableRecord
100
AcDbLayerTableRecord
  2
BLF5781K5_ASB
 70
     0
 62
     1
  6
Continuous
370
    -3
390
F
347
3E
  0
LAYER
  5
45
330
2
100
AcDbSymbolTableRecord
100
AcDbLayerTableRecord
  2
BLF5781K5_AST
 70
     0
 62
     1
  6
Continuous
370
    -3
390
F
347
3E
  0
LAYER
  5
46
330
2
100
AcDbSymbolTableRecord
100
AcDbLayerTableRecord
  2
BLF5781K5_DRD
 70
     0
 62
     1
  6
Continuous
370
    -3
390
F
347
3E
  0
ENDTAB
  0
TABLE
  2
STYLE
  5
3
330
0
100
AcDbSymbolTable
 70
     2
  0
STYLE
  5
11
330
3
100
AcDbSymbolTableRecord
100
AcDbTextStyleTableRecord
  2
Standard
 70
     0
 40
0.0
 41
1.0
 50
0.0
 71
     0
 42
0.2
  3
txt
  4

  0
STYLE
  5
16F
330
3
100
AcDbSymbolTableRecord
100
AcDbTextStyleTableRecord
  2
MCStick_A0.500000_S0.000000
 70
     0
 40
0.0
 41
0.5
 50
0.0
 71
     0
 42
0.2
  3
Simplex
  4

  0
ENDTAB
  0
TABLE
  2
VIEW
  5
6
330
0
100
AcDbSymbolTable
 70
     0
  0
ENDTAB
  0
TABLE
  2
UCS
  5
7
330
0
100
AcDbSymbolTable
 70
     0
  0
ENDTAB
  0
TABLE
  2
APPID
  5
9
330
0
100
AcDbSymbolTable
 70
     2
  0
APPID
  5
12
330
9
100
AcDbSymbolTableRecord
100
AcDbRegAppTableRecord
  2
ACAD
 70
     0
  0
APPID
  5
3F
330
9
100
AcDbSymbolTableRecord
100
AcDbRegAppTableRecord
  2
Mastercam X4
 70
     0
  0
ENDTAB
  0
TABLE
  2
DIMSTYLE
  5
A
330
0
100
AcDbSymbolTable
 70
     1
100
AcDbDimStyleTable
  0
DIMSTYLE
105
27
330
A
100
AcDbSymbolTableRecord
100
AcDbDimStyleTableRecord
  2
Standard
 70
     0
340
11
  0
ENDTAB
  0
TABLE
  2
BLOCK_RECORD
  5
1
330
0
100
AcDbSymbolTable
 70
     1
  0
BLOCK_RECORD
  5
1F
330
1
100
AcDbSymbolTableRecord
100
AcDbBlockTableRecord
  2
*Model_Space
340
22
 70
     0
280
     1
281
     0
  0
BLOCK_RECORD
  5
1B
330
1
100
AcDbSymbolTableRecord
100
AcDbBlockTableRecord
  2
*Paper_Space
340
1E
 70
     0
280
     1
281
     0
  0
BLOCK_RECORD
  5
23
330
1
100
AcDbSymbolTableRecord
100
AcDbBlockTableRecord
  2
*Paper_Space0
340
26
 70
     0
280
     1
281
     0
  0
ENDTAB
  0
ENDSEC
  0
SECTION
  2
BLOCKS
  0
BLOCK
  5
20
330
1F
100
AcDbEntity
  8
0
100
AcDbBlockBegin
  2
*Model_Space
 70
     0
 10
0.0
 20
0.0
 30
0.0
  3
*Model_Space
  1

  0
ENDBLK
  5
21
330
1F
100
AcDbEntity
  8
0
100
AcDbBlockEnd
  0
BLOCK
  5
1C
330
1B
100
AcDbEntity
 67
     1
  8
0
100
AcDbBlockBegin
  2
*Paper_Space
 70
     0
 10
0.0
 20
0.0
 30
0.0
  3
*Paper_Space
  1

  0
ENDBLK
  5
1D
330
1B
100
AcDbEntity
 67
     1
  8
0
100
AcDbBlockEnd
  0
BLOCK
  5
24
330
23
100
AcDbEntity
  8
0
100
AcDbBlockBegin
  2
*Paper_Space0
 70
     0
 10
0.0
 20
0.0
 30
0.0
  3
*Paper_Space0
  1

  0
ENDBLK
  5
25
330
23
100
AcDbEntity
  8
0
100
AcDbBlockEnd
  0
ENDSEC
  0
SECTION
  2
ENTITIES
  0
LINE
  5
47
330
1F
100
AcDbEntity
  8
BLF5781K5_ASB
  6
Continuous2
 62
     9
370
    -3
100
AcDbLine
 10
0.0
 20
4.0
 30
0.0
 11
4.0
 21
4.0
 31
0.0
  0
LINE
  5
48
330
1F
100
AcDbEntity
  8
BLF5781K5_ASB
  6
Continuous2
 62
     9
370
    -3
100
AcDbLine
 10
4.0
 20
4.0
 30
0.0
 11
4.0
 21
0.0
 31
0.0
  0
LINE
  5
49
330
1F
100
AcDbEntity
  8
BLF5781K5_ASB
  6
Continuous2
 62
     9
370
    -3
100
AcDbLine
 10
4.0
 20
0.0
 30
0.0
 11
0.0
 21
0.0
 31
0.0
  0
LINE
  5
4A
330
1F
100
AcDbEntity
  8
BLF5781K5_ASB
  6
Continuous2
 62
     9
370
    -3
100
AcDbLine
 10
0.0
 20
0.0
 30
0.0
 11
0.0
 21
4.0
 31
0.0
  0
LINE
  5
4B
330
1F
100
AcDbEntity
  8
BLF5781K5_AST
  6
Continuous2
 62
     6
370
    -3
100
AcDbLine
 10
4.015
 20
3.335
 30
0.0
 11
3.965
 21
3.335
 31
0.0
  0
LINE
  5
4C
330
1F
100
AcDbEntity
  8
BLF5781K5_AST
  6
Continuous2
 62
     6
370
    -3
100
AcDbLine
 10
3.925
 20
0.665
 30
0.0
 11
3.875
 21
0.665
 31
0.0
  0
LINE
  5
4D
330
1F
100
AcDbEntity
  8
BLF5781K5_AST
  6
Continuous2
 62
     6
370
    -3
100
AcDbLine
 10
3.965
 20
0.505
 30
0.0
 11
3.915
 21
0.505
 31
0.0
  0
LINE
  5
4E
330
1F
100
AcDbEntity
  8
BLF5781K5_AST
  6
Continuous2
 62
     6
370
    -3
100
AcDbLine
 10
3.94
 20
0.59
 30
0.0
 11
3.94
 21
0.64
 31
0.0
  0
LINE
  5
4F
330
1F
100
AcDbEntity
  8
BLF5781K5_AST
  6
Continuous2
 62
     6
370
    -3
100
AcDbLine
 10
3.99
 20
0.42
 30
0.0
 11
3.99
 21
0.47
 31
0.0
  0
LINE
  5
50
330
1F
100
AcDbEntity
  8
BLF5781K5_AST
  6
Continuous2
 62
     6
370
    -3
100
AcDbLine
 10
3.9
 20
3.31
 30
0.0
 11
3.9
 21
3.36
 31
0.0
  0
LINE
  5
51
330
1F
100
AcDbEntity
  8
BLF5781K5_AST
  6
Continuous2
 62
     6
370
    -3
100
AcDbLine
 10
3.99
 20
0.64
 30
0.0
 11
3.99
 21
0.69
 31
0.0
  0
LINE
  5
52
330
1F
100
AcDbEntity
  8
BLF5781K5_AST
  6
Continuous2
 62
     6
370
    -3
100
AcDbLine
 10
4.015
 20
0.445
 30
0.0
 11
3.965
 21
0.445
 31
0.0
  0
LINE
  5
53
330
1F
100
AcDbEntity
  8
BLF5781K5_AST
  6
Continuous2
 62
     6
370
    -3
100
AcDbLine
 10
4.015
 20
0.665
 30
0.0
 11
3.965
 21
0.665
 31
0.0
  0
LINE
  5
54
330
1F
100
AcDbEntity
  8
BLF5781K5_AST
  6
Continuous2
 62
     6
370
    -3
100
AcDbLine
 10
6.635
 20
0.53
 30
0.0
 11
6.635
 21
0.58
 31
0.0
  0
LINE
  5
55
330
1F
100
AcDbEntity
  8
BLF5781K5_AST
  6
Continuous2
 62
     6
370
    -3
100
AcDbLine
 10
6.66
 20
0.555
 30
0.0
 11
6.61
 21
0.555
 31
0.0
  0
LINE
  5
56
330
1F
100
AcDbEntity
  8
BLF5781K5_AST
  6
Continuous2
 62
     6
370
    -3
100
AcDbLine
 10
3.94
 20
0.48
 30
0.0
 11
3.94
 21
0.53
 31
0.0
  0
LINE
  5
57
330
1F
100
AcDbEntity
  8
BLF5781K5_AST
  6
Continuous2
 62
     6
370
    -3
100
AcDbLine
 10
5.63
 20
0.0
 30
0.0
 11
4.02
 21
0.0
 31
0.0
  0
LINE
  5
58
330
1F
100
AcDbEntity
  8
BLF5781K5_AST
  6
Continuous2
 62
     6
370
    -3
100
AcDbLine
 10
4.02
 20
0.0
 30
0.0
 11
4.02
 21
0.4
 31
0.0
  0
LINE
  5
59
330
1F
100
AcDbEntity
  8
BLF5781K5_AST
  6
Continuous2
 62
     6
370
    -3
100
AcDbLine
 10
4.02
 20
0.4
 30
0.0
 11
3.87
 21
0.4
 31
0.0
  0
LINE
  5
5A
330
1F
100
AcDbEntity
  8
BLF5781K5_AST
  6
Continuous2
 62
     6
370
    -3
100
AcDbLine
 10
3.87
 20
0.4
 30
0.0
 11
3.87
 21
0.71
 31
0.0
  0
LINE
  5
5B
330
1F
100
AcDbEntity
  8
BLF5781K5_AST
  6
Continuous2
 62
     6
370
    -3
100
AcDbLine
 10
3.87
 20
0.71
 30
0.0
 11
4.02
 21
0.71
 31
0.0
  0
LINE
  5
5C
330
1F
100
AcDbEntity
  8
BLF5781K5_AST
  6
Continuous2
 62
     6
370
    -3
100
AcDbLine
 10
4.02
 20
0.71
 30
0.0
 11
4.02
 21
3.289
 31
0.0
  0
LINE
  5
5D
330
1F
100
AcDbEntity
  8
BLF5781K5_AST
  6
Continuous2
 62
     6
370
    -3
100
AcDbLine
 10
4.02
 20
3.289
 30
0.0
 11
3.86
 21
3.289
 31
0.0
  0
LINE
  5
5E
330
1F
100
AcDbEntity
  8
BLF5781K5_AST
  6
Continuous2
 62
     6
370
    -3
100
AcDbLine
 10
3.86
 20
3.289
 30
0.0
 11
3.86
 21
3.6
 31
0.0
  0
LINE
  5
5F
330
1F
100
AcDbEntity
  8
BLF5781K5_AST
  6
Continuous2
 62
     6
370
    -3
100
AcDbLine
 10
3.86
 20
3.6
 30
0.0
 11
4.02
 21
3.6
 31
0.0
  0
LINE
  5
60
330
1F
100
AcDbEntity
  8
BLF5781K5_AST
  6
Continuous2
 62
     6
370
    -3
100
AcDbLine
 10
4.02
 20
3.6
 30
0.0
 11
4.02
 21
4.0
 31
0.0
  0
LINE
  5
61
330
1F
100
AcDbEntity
  8
BLF5781K5_AST
  6
Continuous2
 62
     6
370
    -3
100
AcDbLine
 10
4.02
 20
4.0
 30
0.0
 11
6.52
 21
4.0
 31
0.0
  0
LINE
  5
62
330
1F
100
AcDbEntity
  8
BLF5781K5_AST
  6
Continuous2
 62
     6
370
    -3
100
AcDbLine
 10
6.52
 20
4.0
 30
0.0
 11
6.52
 21
3.6
 31
0.0
  0
LINE
  5
63
330
1F
100
AcDbEntity
  8
BLF5781K5_AST
  6
Continuous2
 62
     6
370
    -3
100
AcDbLine
 10
6.52
 20
3.6
 30
0.0
 11
6.68
 21
3.6
 31
0.0
  0
LINE
  5
64
330
1F
100
AcDbEntity
  8
BLF5781K5_AST
  6
Continuous2
 62
     6
370
    -3
100
AcDbLine
 10
6.68
 20
3.6
 30
0.0
 11
6.68
 21
3.29
 31
0.0
  0
LINE
  5
65
330
1F
100
AcDbEntity
  8
BLF5781K5_AST
  6
Continuous2
 62
     6
370
    -3
100
AcDbLine
 10
6.68
 20
3.29
 30
0.0
 11
6.52
 21
3.29
 31
0.0
  0
LINE
  5
66
330
1F
100
AcDbEntity
  8
BLF5781K5_AST
  6
Continuous2
 62
     6
370
    -3
100
AcDbLine
 10
6.52
 20
3.29
 30
0.0
 11
6.52
 21
0.71
 31
0.0
  0
LINE
  5
67
330
1F
100
AcDbEntity
  8
BLF5781K5_AST
  6
Continuous2
 62
     6
370
    -3
100
AcDbLine
 10
6.52
 20
0.71
 30
0.0
 11
6.68
 21
0.71
 31
0.0
  0
LINE
  5
68
330
1F
100
AcDbEntity
  8
BLF5781K5_AST
  6
Continuous2
 62
     6
370
    -3
100
AcDbLine
 10
6.68
 20
0.71
 30
0.0
 11
6.68
 21
0.4
 31
0.0
  0
LINE
  5
69
330
1F
100
AcDbEntity
  8
BLF5781K5_AST
  6
Continuous2
 62
     6
370
    -3
100
AcDbLine
 10
6.68
 20
0.4
 30
0.0
 11
6.52
 21
0.4
 31
0.0
  0
LINE
  5
6A
330
1F
100
AcDbEntity
  8
BLF5781K5_AST
  6
Continuous2
 62
     6
370
    -3
100
AcDbLine
 10
6.52
 20
0.4
 30
0.0
 11
6.52
 21
0.0
 31
0.0
  0
LINE
  5
6B
330
1F
100
AcDbEntity
  8
BLF5781K5_AST
  6
Continuous2
 62
     6
370
    -3
100
AcDbLine
 10
6.52
 20
0.0
 30
0.0
 11
5.63
 21
0.0
 31
0.0
  0
LINE
  5
6C
330
1F
100
AcDbEntity
  8
BLF5781K5_AST
  6
Continuous2
 62
     6
370
    -3
100
AcDbLine
 10
6.59
 20
3.37
 30
0.0
 11
6.59
 21
3.42
 31
0.0
  0
LINE
  5
6D
330
1F
100
AcDbEntity
  8
BLF5781K5_AST
  6
Continuous2
 62
     6
370
    -3
100
AcDbLine
 10
6.615
 20
3.395
 30
0.0
 11
6.565
 21
3.395
 31
0.0
  0
LINE
  5
6E
330
1F
100
AcDbEntity
  8
BLF5781K5_AST
  6
Continuous2
 62
     6
370
    -3
100
AcDbLine
 10
6.59
 20
0.48
 30
0.0
 11
6.59
 21
0.53
 31
0.0
  0
LINE
  5
6F
330
1F
100
AcDbEntity
  8
BLF5781K5_AST
  6
Continuous2
 62
     6
370
    -3
100
AcDbLine
 10
3.965
 20
3.395
 30
0.0
 11
3.915
 21
3.395
 31
0.0
  0
LINE
  5
70
330
1F
100
AcDbEntity
  8
BLF5781K5_AST
  6
Continuous2
 62
     6
370
    -3
100
AcDbLine
 10
6.665
 20
3.555
 30
0.0
 11
6.615
 21
3.555
 31
0.0
  0
LINE
  5
71
330
1F
100
AcDbEntity
  8
BLF5781K5_AST
  6
Continuous2
 62
     6
370
    -3
100
AcDbLine
 10
6.635
 20
3.42
 30
0.0
 11
6.635
 21
3.47
 31
0.0
  0
LINE
  5
72
330
1F
100
AcDbEntity
  8
BLF5781K5_AST
  6
Continuous2
 62
     6
370
    -3
100
AcDbLine
 10
3.94
 20
3.48
 30
0.0
 11
3.94
 21
3.53
 31
0.0
  0
LINE
  5
73
330
1F
100
AcDbEntity
  8
BLF5781K5_AST
  6
Continuous2
 62
     6
370
    -3
100
AcDbLine
 10
6.615
 20
0.505
 30
0.0
 11
6.565
 21
0.505
 31
0.0
  0
LINE
  5
74
330
1F
100
AcDbEntity
  8
BLF5781K5_AST
  6
Continuous2
 62
     6
370
    -3
100
AcDbLine
 10
3.9
 20
0.42
 30
0.0
 11
3.9
 21
0.47
 31
0.0
  0
LINE
  5
75
330
1F
100
AcDbEntity
  8
BLF5781K5_AST
  6
Continuous2
 62
     6
370
    -3
100
AcDbLine
 10
3.985
 20
0.53
 30
0.0
 11
3.985
 21
0.58
 31
0.0
  0
LINE
  5
76
330
1F
100
AcDbEntity
  8
BLF5781K5_AST
  6
Continuous2
 62
     6
370
    -3
100
AcDbLine
 10
6.59
 20
3.48
 30
0.0
 11
6.59
 21
3.53
 31
0.0
  0
LINE
  5
77
330
1F
100
AcDbEntity
  8
BLF5781K5_AST
  6
Continuous2
 62
     6
370
    -3
100
AcDbLine
 10
6.615
 20
3.505
 30
0.0
 11
6.565
 21
3.505
 31
0.0
  0
LINE
  5
78
330
1F
100
AcDbEntity
  8
BLF5781K5_AST
  6
Continuous2
 62
     6
370
    -3
100
AcDbLine
 10
6.64
 20
3.31
 30
0.0
 11
6.64
 21
3.36
 31
0.0
  0
LINE
  5
79
330
1F
100
AcDbEntity
  8
BLF5781K5_AST
  6
Continuous2
 62
     6
370
    -3
100
AcDbLine
 10
3.925
 20
0.445
 30
0.0
 11
3.875
 21
0.445
 31
0.0
  0
LINE
  5
7A
330
1F
100
AcDbEntity
  8
BLF5781K5_AST
  6
Continuous2
 62
     6
370
    -3
100
AcDbLine
 10
4.01
 20
0.555
 30
0.0
 11
3.96
 21
0.555
 31
0.0
  0
LINE
  5
7B
330
1F
100
AcDbEntity
  8
BLF5781K5_AST
  6
Continuous2
 62
     6
370
    -3
100
AcDbLine
 10
3.9
 20
0.53
 30
0.0
 11
3.9
 21
0.58
 31
0.0
  0
LINE
  5
7C
330
1F
100
AcDbEntity
  8
BLF5781K5_AST
  6
Continuous2
 62
     6
370
    -3
100
AcDbLine
 10
6.665
 20
3.335
 30
0.0
 11
6.615
 21
3.335
 31
0.0
  0
LINE
  5
7D
330
1F
100
AcDbEntity
  8
BLF5781K5_AST
  6
Continuous2
 62
     6
370
    -3
100
AcDbLine
 10
6.55
 20
3.31
 30
0.0
 11
6.55
 21
3.36
 31
0.0
  0
LINE
  5
7E
330
1F
100
AcDbEntity
  8
BLF5781K5_AST
  6
Continuous2
 62
     6
370
    -3
100
AcDbLine
 10
6.575
 20
3.335
 30
0.0
 11
6.525
 21
3.335
 31
0.0
  0
LINE
  5
7F
330
1F
100
AcDbEntity
  8
BLF5781K5_AST
  6
Continuous2
 62
     6
370
    -3
100
AcDbLine
 10
6.55
 20
3.42
 30
0.0
 11
6.55
 21
3.47
 31
0.0
  0
LINE
  5
80
330
1F
100
AcDbEntity
  8
BLF5781K5_AST
  6
Continuous2
 62
     6
370
    -3
100
AcDbLine
 10
3.925
 20
0.555
 30
0.0
 11
3.875
 21
0.555
 31
0.0
  0
LINE
  5
81
330
1F
100
AcDbEntity
  8
BLF5781K5_AST
  6
Continuous2
 62
     6
370
    -3
100
AcDbLine
 10
3.965
 20
3.505
 30
0.0
 11
3.915
 21
3.505
 31
0.0
  0
LINE
  5
82
330
1F
100
AcDbEntity
  8
BLF5781K5_AST
  6
Continuous2
 62
     6
370
    -3
100
AcDbLine
 10
3.99
 20
3.31
 30
0.0
 11
3.99
 21
3.36
 31
0.0
  0
LINE
  5
83
330
1F
100
AcDbEntity
  8
BLF5781K5_AST
  6
Continuous2
 62
     6
370
    -3
100
AcDbLine
 10
0.0
 20
4.0
 30
0.0
 11
4.0
 21
4.0
 31
0.0
  0
LINE
  5
84
330
1F
100
AcDbEntity
  8
BLF5781K5_AST
  6
Continuous2
 62
     6
370
    -3
100
AcDbLine
 10
4.0
 20
4.0
 30
0.0
 11
4.0
 21
0.0
 31
0.0
  0
LINE
  5
85
330
1F
100
AcDbEntity
  8
BLF5781K5_AST
  6
Continuous2
 62
     6
370
    -3
100
AcDbLine
 10
4.0
 20
0.0
 30
0.0
 11
0.0
 21
0.0
 31
0.0
  0
LINE
  5
86
330
1F
100
AcDbEntity
  8
BLF5781K5_AST
  6
Continuous2
 62
     6
370
    -3
100
AcDbLine
 10
0.0
 20
0.0
 30
0.0
 11
0.0
 21
4.0
 31
0.0
  0
LINE
  5
87
330
1F
100
AcDbEntity
  8
BLF5781K5_AST
  6
Continuous2
 62
     6
370
    -3
100
AcDbLine
 10
3.965
 20
0.615
 30
0.0
 11
3.915
 21
0.615
 31
0.0
  0
LINE
  5
88
330
1F
100
AcDbEntity
  8
BLF5781K5_AST
  6
Continuous2
 62
     6
370
    -3
100
AcDbLine
 10
6.59
 20
0.59
 30
0.0
 11
6.59
 21
0.64
 31
0.0
  0
LINE
  5
89
330
1F
100
AcDbEntity
  8
BLF5781K5_AST
  6
Continuous2
 62
     6
370
    -3
100
AcDbLine
 10
6.55
 20
0.64
 30
0.0
 11
6.55
 21
0.69
 31
0.0
  0
LINE
  5
8A
330
1F
100
AcDbEntity
  8
BLF5781K5_AST
  6
Continuous2
 62
     6
370
    -3
100
AcDbLine
 10
6.575
 20
0.665
 30
0.0
 11
6.525
 21
0.665
 31
0.0
  0
LINE
  5
8B
330
1F
100
AcDbEntity
  8
BLF5781K5_AST
  6
Continuous2
 62
     6
370
    -3
100
AcDbLine
 10
6.64
 20
0.64
 30
0.0
 11
6.64
 21
0.69
 31
0.0
  0
LINE
  5
8C
330
1F
100
AcDbEntity
  8
BLF5781K5_AST
  6
Continuous2
 62
     6
370
    -3
100
AcDbLine
 10
6.665
 20
0.665
 30
0.0
 11
6.615
 21
0.665
 31
0.0
  0
LINE
  5
8D
330
1F
100
AcDbEntity
  8
BLF5781K5_AST
  6
Continuous2
 62
     6
370
    -3
100
AcDbLine
 10
-1.275
 20
0.0
 30
0.0
 11
-1.275
 21
0.64
 31
0.0
  0
LINE
  5
8E
330
1F
100
AcDbEntity
  8
BLF5781K5_AST
  6
Continuous2
 62
     6
370
    -3
100
AcDbLine
 10
-1.275
 20
0.64
 30
0.0
 11
-1.43
 21
0.64
 31
0.0
  0
LINE
  5
8F
330
1F
100
AcDbEntity
  8
BLF5781K5_AST
  6
Continuous2
 62
     6
370
    -3
100
AcDbLine
 10
-1.43
 20
0.64
 30
0.0
 11
-1.43
 21
0.76
 31
0.0
  0
LINE
  5
90
330
1F
100
AcDbEntity
  8
BLF5781K5_AST
  6
Continuous2
 62
     6
370
    -3
100
AcDbLine
 10
-1.43
 20
0.76
 30
0.0
 11
-1.275
 21
0.76
 31
0.0
  0
LINE
  5
91
330
1F
100
AcDbEntity
  8
BLF5781K5_AST
  6
Continuous2
 62
     6
370
    -3
100
AcDbLine
 10
-1.275
 20
0.76
 30
0.0
 11
-1.275
 21
3.24
 31
0.0
  0
LINE
  5
92
330
1F
100
AcDbEntity
  8
BLF5781K5_AST
  6
Continuous2
 62
     6
370
    -3
100
AcDbLine
 10
-1.275
 20
3.24
 30
0.0
 11
-1.43
 21
3.24
 31
0.0
  0
LINE
  5
93
330
1F
100
AcDbEntity
  8
BLF5781K5_AST
  6
Continuous2
 62
     6
370
    -3
100
AcDbLine
 10
-1.43
 20
3.24
 30
0.0
 11
-1.43
 21
3.36
 31
0.0
  0
LINE
  5
94
330
1F
100
AcDbEntity
  8
BLF5781K5_AST
  6
Continuous2
 62
     6
370
    -3
100
AcDbLine
 10
-1.43
 20
3.36
 30
0.0
 11
-1.275
 21
3.36
 31
0.0
  0
LINE
  5
95
330
1F
100
AcDbEntity
  8
BLF5781K5_AST
  6
Continuous2
 62
     6
370
    -3
100
AcDbLine
 10
-1.275
 20
3.36
 30
0.0
 11
-1.275
 21
4.0
 31
0.0
  0
LINE
  5
96
330
1F
100
AcDbEntity
  8
BLF5781K5_AST
  6
Continuous2
 62
     6
370
    -3
100
AcDbLine
 10
-1.275
 20
4.0
 30
0.0
 11
-0.025
 21
4.0
 31
0.0
  0
LINE
  5
97
330
1F
100
AcDbEntity
  8
BLF5781K5_AST
  6
Continuous2
 62
     6
370
    -3
100
AcDbLine
 10
-0.025
 20
4.0
 30
0.0
 11
-0.025
 21
3.36
 31
0.0
  0
LINE
  5
98
330
1F
100
AcDbEntity
  8
BLF5781K5_AST
  6
Continuous2
 62
     6
370
    -3
100
AcDbLine
 10
-0.025
 20
3.36
 30
0.0
 11
0.13
 21
3.36
 31
0.0
  0
LINE
  5
99
330
1F
100
AcDbEntity
  8
BLF5781K5_AST
  6
Continuous2
 62
     6
370
    -3
100
AcDbLine
 10
0.13
 20
3.36
 30
0.0
 11
0.13
 21
3.24
 31
0.0
  0
LINE
  5
9A
330
1F
100
AcDbEntity
  8
BLF5781K5_AST
  6
Continuous2
 62
     6
370
    -3
100
AcDbLine
 10
0.13
 20
3.24
 30
0.0
 11
-0.025
 21
3.24
 31
0.0
  0
LINE
  5
9B
330
1F
100
AcDbEntity
  8
BLF5781K5_AST
  6
Continuous2
 62
     6
370
    -3
100
AcDbLine
 10
-0.025
 20
3.24
 30
0.0
 11
-0.025
 21
0.76
 31
0.0
  0
LINE
  5
9C
330
1F
100
AcDbEntity
  8
BLF5781K5_AST
  6
Continuous2
 62
     6
370
    -3
100
AcDbLine
 10
-0.025
 20
0.76
 30
0.0
 11
0.13
 21
0.76
 31
0.0
  0
LINE
  5
9D
330
1F
100
AcDbEntity
  8
BLF5781K5_AST
  6
Continuous2
 62
     6
370
    -3
100
AcDbLine
 10
0.13
 20
0.76
 30
0.0
 11
0.13
 21
0.64
 31
0.0
  0
LINE
  5
9E
330
1F
100
AcDbEntity
  8
BLF5781K5_AST
  6
Continuous2
 62
     6
370
    -3
100
AcDbLine
 10
0.13
 20
0.64
 30
0.0
 11
-0.025
 21
0.64
 31
0.0
  0
LINE
  5
9F
330
1F
100
AcDbEntity
  8
BLF5781K5_AST
  6
Continuous2
 62
     6
370
    -3
100
AcDbLine
 10
-0.025
 20
0.64
 30
0.0
 11
-0.025
 21
0.0
 31
0.0
  0
LINE
  5
A0
330
1F
100
AcDbEntity
  8
BLF5781K5_AST
  6
Continuous2
 62
     6
370
    -3
100
AcDbLine
 10
-0.025
 20
0.0
 30
0.0
 11
-1.275
 21
0.0
 31
0.0
  0
LINE
  5
A1
330
1F
100
AcDbEntity
  8
BLF5781K5_AST
  6
Continuous2
 62
     6
370
    -3
100
AcDbLine
 10
3.925
 20
3.335
 30
0.0
 11
3.875
 21
3.335
 31
0.0
  0
LINE
  5
A2
330
1F
100
AcDbEntity
  8
BLF5781K5_AST
  6
Continuous2
 62
     6
370
    -3
100
AcDbLine
 10
3.9
 20
3.42
 30
0.0
 11
3.9
 21
3.47
 31
0.0
  0
LINE
  5
A3
330
1F
100
AcDbEntity
  8
BLF5781K5_AST
  6
Continuous2
 62
     6
370
    -3
100
AcDbLine
 10
3.925
 20
3.445
 30
0.0
 11
3.875
 21
3.445
 31
0.0
  0
LINE
  5
A4
330
1F
100
AcDbEntity
  8
BLF5781K5_AST
  6
Continuous2
 62
     6
370
    -3
100
AcDbLine
 10
6.575
 20
3.445
 30
0.0
 11
6.525
 21
3.445
 31
0.0
  0
LINE
  5
A5
330
1F
100
AcDbEntity
  8
BLF5781K5_AST
  6
Continuous2
 62
     6
370
    -3
100
AcDbLine
 10
6.55
 20
3.53
 30
0.0
 11
6.55
 21
3.58
 31
0.0
  0
LINE
  5
A6
330
1F
100
AcDbEntity
  8
BLF5781K5_AST
  6
Continuous2
 62
     6
370
    -3
100
AcDbLine
 10
6.55
 20
0.53
 30
0.0
 11
6.55
 21
0.58
 31
0.0
  0
LINE
  5
A7
330
1F
100
AcDbEntity
  8
BLF5781K5_AST
  6
Continuous2
 62
     6
370
    -3
100
AcDbLine
 10
6.575
 20
0.555
 30
0.0
 11
6.525
 21
0.555
 31
0.0
  0
LINE
  5
A8
330
1F
100
AcDbEntity
  8
BLF5781K5_AST
  6
Continuous2
 62
     6
370
    -3
100
AcDbLine
 10
6.615
 20
0.615
 30
0.0
 11
6.565
 21
0.615
 31
0.0
  0
LINE
  5
A9
330
1F
100
AcDbEntity
  8
BLF5781K5_AST
  6
Continuous2
 62
     6
370
    -3
100
AcDbLine
 10
6.64
 20
0.42
 30
0.0
 11
6.64
 21
0.47
 31
0.0
  0
LINE
  5
AA
330
1F
100
AcDbEntity
  8
BLF5781K5_AST
  6
Continuous2
 62
     6
370
    -3
100
AcDbLine
 10
6.665
 20
0.445
 30
0.0
 11
6.615
 21
0.445
 31
0.0
  0
LINE
  5
AB
330
1F
100
AcDbEntity
  8
BLF5781K5_AST
  6
Continuous2
 62
     6
370
    -3
100
AcDbLine
 10
6.55
 20
0.42
 30
0.0
 11
6.55
 21
0.47
 31
0.0
  0
LINE
  5
AC
330
1F
100
AcDbEntity
  8
BLF5781K5_AST
  6
Continuous2
 62
     6
370
    -3
100
AcDbLine
 10
6.575
 20
0.445
 30
0.0
 11
6.525
 21
0.445
 31
0.0
  0
LINE
  5
AD
330
1F
100
AcDbEntity
  8
BLF5781K5_AST
  6
Continuous2
 62
     6
370
    -3
100
AcDbLine
 10
3.9
 20
3.53
 30
0.0
 11
3.9
 21
3.58
 31
0.0
  0
LINE
  5
AE
330
1F
100
AcDbEntity
  8
BLF5781K5_AST
  6
Continuous2
 62
     6
370
    -3
100
AcDbLine
 10
3.9
 20
0.64
 30
0.0
 11
3.9
 21
0.69
 31
0.0
  0
LINE
  5
AF
330
1F
100
AcDbEntity
  8
BLF5781K5_AST
  6
Continuous2
 62
     6
370
    -3
100
AcDbLine
 10
3.925
 20
3.555
 30
0.0
 11
3.875
 21
3.555
 31
0.0
  0
LINE
  5
B0
330
1F
100
AcDbEntity
  8
BLF5781K5_AST
  6
Continuous2
 62
     6
370
    -3
100
AcDbLine
 10
3.99
 20
3.53
 30
0.0
 11
3.99
 21
3.58
 31
0.0
  0
LINE
  5
B1
330
1F
100
AcDbEntity
  8
BLF5781K5_AST
  6
Continuous2
 62
     6
370
    -3
100
AcDbLine
 10
4.015
 20
3.555
 30
0.0
 11
3.965
 21
3.555
 31
0.0
  0
LINE
  5
B2
330
1F
100
AcDbEntity
  8
BLF5781K5_AST
  6
Continuous2
 62
     6
370
    -3
100
AcDbLine
 10
3.985
 20
3.42
 30
0.0
 11
3.985
 21
3.47
 31
0.0
  0
LINE
  5
B3
330
1F
100
AcDbEntity
  8
BLF5781K5_AST
  6
Continuous2
 62
     6
370
    -3
100
AcDbLine
 10
6.66
 20
3.445
 30
0.0
 11
6.61
 21
3.445
 31
0.0
  0
LINE
  5
B4
330
1F
100
AcDbEntity
  8
BLF5781K5_AST
  6
Continuous2
 62
     6
370
    -3
100
AcDbLine
 10
6.575
 20
3.555
 30
0.0
 11
6.525
 21
3.555
 31
0.0
  0
LINE
  5
B5
330
1F
100
AcDbEntity
  8
BLF5781K5_AST
  6
Continuous2
 62
     6
370
    -3
100
AcDbLine
 10
3.94
 20
3.37
 30
0.0
 11
3.94
 21
3.42
 31
0.0
  0
LINE
  5
B6
330
1F
100
AcDbEntity
  8
BLF5781K5_AST
  6
Continuous2
 62
     6
370
    -3
100
AcDbLine
 10
6.64
 20
3.53
 30
0.0
 11
6.64
 21
3.58
 31
0.0
  0
LINE
  5
B7
330
1F
100
AcDbEntity
  8
BLF5781K5_AST
  6
Continuous2
 62
     6
370
    -3
100
AcDbLine
 10
4.01
 20
3.445
 30
0.0
 11
3.96
 21
3.445
 31
0.0
  0
LINE
  5
B8
330
1F
100
AcDbEntity
  8
BLF5781K5_DRD
  6
Continuous2
 62
     4
370
    -3
100
AcDbLine
 10
6.545
 20
0.0
 30
0.0
 11
6.545
 21
4.0
 31
0.0
  0
LINE
  5
B9
330
1F
100
AcDbEntity
  8
BLF5781K5_DRD
  6
Continuous2
 62
     4
370
    -3
100
AcDbLine
 10
6.545
 20
4.0
 30
0.0
 11
7.34
 21
4.0
 31
0.0
  0
LINE
  5
BA
330
1F
100
AcDbEntity
  8
BLF5781K5_DRD
  6
Continuous2
 62
     4
370
    -3
100
AcDbLine
 10
7.34
 20
4.0
 30
0.0
 11
7.34
 21
1.335
 31
0.0
  0
LINE
  5
BB
330
1F
100
AcDbEntity
  8
BLF5781K5_DRD
  6
Continuous2
 62
     4
370
    -3
100
AcDbLine
 10
7.34
 20
1.335
 30
0.0
 11
6.775
 21
1.335
 31
0.0
  0
LINE
  5
BC
330
1F
100
AcDbEntity
  8
BLF5781K5_DRD
  6
Continuous2
 62
     4
370
    -3
100
AcDbLine
 10
6.775
 20
1.335
 30
0.0
 11
6.775
 21
0.0
 31
0.0
  0
LINE
  5
BD
330
1F
100
AcDbEntity
  8
BLF5781K5_DRD
  6
Continuous2
 62
     4
370
    -3
100
AcDbLine
 10
6.775
 20
0.0
 30
0.0
 11
6.545
 21
0.0
 31
0.0
  0
LINE
  5
BE
330
1F
100
AcDbEntity
  8
BLF5781K5_DRD
  6
Continuous2
 62
     4
370
    -3
100
AcDbLine
 10
0.0
 20
4.0
 30
0.0
 11
4.0
 21
4.0
 31
0.0
  0
LINE
  5
BF
330
1F
100
AcDbEntity
  8
BLF5781K5_DRD
  6
Continuous2
 62
     4
370
    -3
100
AcDbLine
 10
4.0
 20
4.0
 30
0.0
 11
4.0
 21
0.0
 31
0.0
  0
LINE
  5
C0
330
1F
100
AcDbEntity
  8
BLF5781K5_DRD
  6
Continuous2
 62
     4
370
    -3
100
AcDbLine
 10
4.0
 20
0.0
 30
0.0
 11
0.0
 21
0.0
 31
0.0
  0
LINE
  5
C1
330
1F
100
AcDbEntity
  8
BLF5781K5_DRD
  6
Continuous2
 62
     4
370
    -3
100
AcDbLine
 10
0.0
 20
0.0
 30
0.0
 11
0.0
 21
4.0
 31
0.0
  0
LINE
  5
C2
330
1F
100
AcDbEntity
  8
BLF5781K5_DRD
  6
Continuous2
 62
     4
370
    -3
100
AcDbLine
 10
-1.44
 20
3.38
 30
0.0
 11
-1.6
 21
3.38
 31
0.0
  0
LINE
  5
C3
330
1F
100
AcDbEntity
  8
BLF5781K5_DRD
  6
Continuous2
 62
     4
370
    -3
100
AcDbLine
 10
-1.6
 20
3.38
 30
0.0
 11
-1.6
 21
0.0
 31
0.0
  0
LINE
  5
C4
330
1F
100
AcDbEntity
  8
BLF5781K5_DRD
  6
Continuous2
 62
     4
370
    -3
100
AcDbLine
 10
-1.295
 20
0.0
 30
0.0
 11
-1.295
 21
3.38
 31
0.0
  0
LINE
  5
C5
330
1F
100
AcDbEntity
  8
BLF5781K5_DRD
  6
Continuous2
 62
     4
370
    -3
100
AcDbLine
 10
-1.295
 20
3.38
 30
0.0
 11
-1.44
 21
3.38
 31
0.0
  0
LINE
  5
C6
330
1F
100
AcDbEntity
  8
BLF5781K5_DRD
  6
Continuous2
 62
     4
370
    -3
100
AcDbLine
 10
6.775
 20
2.975
 30
0.0
 11
6.775
 21
2.925
 31
0.0
  0
LINE
  5
C7
330
1F
100
AcDbEntity
  8
BLF5781K5_DRD
  6
Continuous2
 62
     4
370
    -3
100
AcDbLine
 10
6.825
 20
2.975
 30
0.0
 11
6.775
 21
2.975
 31
0.0
  0
LINE
  5
C8
330
1F
100
AcDbEntity
  8
BLF5781K5_DRD
  6
Continuous2
 62
     4
370
    -3
100
AcDbLine
 10
6.825
 20
2.925
 30
0.0
 11
6.825
 21
2.975
 31
0.0
  0
LINE
  5
C9
330
1F
100
AcDbEntity
  8
BLF5781K5_DRD
  6
Continuous2
 62
     4
370
    -3
100
AcDbLine
 10
6.775
 20
2.925
 30
0.0
 11
6.825
 21
2.925
 31
0.0
  0
LINE
  5
CA
330
1F
100
AcDbEntity
  8
BLF5781K5_DRD
  6
Continuous2
 62
     4
370
    -3
100
AcDbLine
 10
6.825
 20
2.975
 30
0.0
 11
6.775
 21
2.925
 31
0.0
  0
LINE
  5
CB
330
1F
100
AcDbEntity
  8
BLF5781K5_DRD
  6
Continuous2
 62
     4
370
    -3
100
AcDbLine
 10
6.825
 20
2.925
 30
0.0
 11
6.775
 21
2.975
 31
0.0
  0
LINE
  5
CC
330
1F
100
AcDbEntity
  8
BLF5781K5_DRD
  6
Continuous2
 62
     4
370
    -3
100
AcDbLine
 10
6.92
 20
1.625
 30
0.0
 11
6.92
 21
1.575
 31
0.0
  0
LINE
  5
CD
330
1F
100
AcDbEntity
  8
BLF5781K5_DRD
  6
Continuous2
 62
     4
370
    -3
100
AcDbLine
 10
6.97
 20
1.625
 30
0.0
 11
6.92
 21
1.625
 31
0.0
  0
LINE
  5
CE
330
1F
100
AcDbEntity
  8
BLF5781K5_DRD
  6
Continuous2
 62
     4
370
    -3
100
AcDbLine
 10
6.97
 20
1.575
 30
0.0
 11
6.97
 21
1.625
 31
0.0
  0
LINE
  5
CF
330
1F
100
AcDbEntity
  8
BLF5781K5_DRD
  6
Continuous2
 62
     4
370
    -3
100
AcDbLine
 10
6.92
 20
1.575
 30
0.0
 11
6.97
 21
1.575
 31
0.0
  0
LINE
  5
D0
330
1F
100
AcDbEntity
  8
BLF5781K5_DRD
  6
Continuous2
 62
     4
370
    -3
100
AcDbLine
 10
6.97
 20
1.625
 30
0.0
 11
6.92
 21
1.575
 31
0.0
  0
LINE
  5
D1
330
1F
100
AcDbEntity
  8
BLF5781K5_DRD
  6
Continuous2
 62
     4
370
    -3
100
AcDbLine
 10
6.97
 20
1.575
 30
0.0
 11
6.92
 21
1.625
 31
0.0
  0
LINE
  5
D2
330
1F
100
AcDbEntity
  8
BLF5781K5_DRD
  6
Continuous2
 62
     4
370
    -3
100
AcDbLine
 10
3.8
 20
2.025
 30
0.0
 11
3.8
 21
1.975
 31
0.0
  0
LINE
  5
D3
330
1F
100
AcDbEntity
  8
BLF5781K5_DRD
  6
Continuous2
 62
     4
370
    -3
100
AcDbLine
 10
3.85
 20
2.025
 30
0.0
 11
3.8
 21
2.025
 31
0.0
  0
LINE
  5
D4
330
1F
100
AcDbEntity
  8
BLF5781K5_DRD
  6
Continuous2
 62
     4
370
    -3
100
AcDbLine
 10
3.85
 20
1.975
 30
0.0
 11
3.85
 21
2.025
 31
0.0
  0
LINE
  5
D5
330
1F
100
AcDbEntity
  8
BLF5781K5_DRD
  6
Continuous2
 62
     4
370
    -3
100
AcDbLine
 10
3.8
 20
1.975
 30
0.0
 11
3.85
 21
1.975
 31
0.0
  0
LINE
  5
D6
330
1F
100
AcDbEntity
  8
BLF5781K5_DRD
  6
Continuous2
 62
     4
370
    -3
100
AcDbLine
 10
3.85
 20
2.025
 30
0.0
 11
3.8
 21
1.975
 31
0.0
  0
LINE
  5
D7
330
1F
100
AcDbEntity
  8
BLF5781K5_DRD
  6
Continuous2
 62
     4
370
    -3
100
AcDbLine
 10
3.85
 20
1.975
 30
0.0
 11
3.8
 21
2.025
 31
0.0
  0
LINE
  5
D8
330
1F
100
AcDbEntity
  8
BLF5781K5_DRD
  6
Continuous2
 62
     4
370
    -3
100
AcDbLine
 10
0.175
 20
2.025
 30
0.0
 11
0.175
 21
1.975
 31
0.0
  0
LINE
  5
D9
330
1F
100
AcDbEntity
  8
BLF5781K5_DRD
  6
Continuous2
 62
     4
370
    -3
100
AcDbLine
 10
0.225
 20
2.025
 30
0.0
 11
0.175
 21
2.025
 31
0.0
  0
LINE
  5
DA
330
1F
100
AcDbEntity
  8
BLF5781K5_DRD
  6
Continuous2
 62
     4
370
    -3
100
AcDbLine
 10
0.225
 20
1.975
 30
0.0
 11
0.225
 21
2.025
 31
0.0
  0
LINE
  5
DB
330
1F
100
AcDbEntity
  8
BLF5781K5_DRD
  6
Continuous2
 62
     4
370
    -3
100
AcDbLine
 10
0.175
 20
1.975
 30
0.0
 11
0.225
 21
1.975
 31
0.0
  0
LINE
  5
DC
330
1F
100
AcDbEntity
  8
BLF5781K5_DRD
  6
Continuous2
 62
     4
370
    -3
100
AcDbLine
 10
0.225
 20
2.025
 30
0.0
 11
0.175
 21
1.975
 31
0.0
  0
LINE
  5
DD
330
1F
100
AcDbEntity
  8
BLF5781K5_DRD
  6
Continuous2
 62
     4
370
    -3
100
AcDbLine
 10
0.225
 20
1.975
 30
0.0
 11
0.175
 21
2.025
 31
0.0
  0
LINE
  5
DE
330
1F
100
AcDbEntity
  8
BLF5781K5_DRD
  6
Continuous2
 62
     4
370
    -3
100
AcDbLine
 10
1.14
 20
3.84
 30
0.0
 11
1.14
 21
3.79
 31
0.0
  0
LINE
  5
DF
330
1F
100
AcDbEntity
  8
BLF5781K5_DRD
  6
Continuous2
 62
     4
370
    -3
100
AcDbLine
 10
1.19
 20
3.84
 30
0.0
 11
1.14
 21
3.84
 31
0.0
  0
LINE
  5
E0
330
1F
100
AcDbEntity
  8
BLF5781K5_DRD
  6
Continuous2
 62
     4
370
    -3
100
AcDbLine
 10
1.19
 20
3.79
 30
0.0
 11
1.19
 21
3.84
 31
0.0
  0
LINE
  5
E1
330
1F
100
AcDbEntity
  8
BLF5781K5_DRD
  6
Continuous2
 62
     4
370
    -3
100
AcDbLine
 10
1.14
 20
3.79
 30
0.0
 11
1.19
 21
3.79
 31
0.0
  0
LINE
  5
E2
330
1F
100
AcDbEntity
  8
BLF5781K5_DRD
  6
Continuous2
 62
     4
370
    -3
100
AcDbLine
 10
1.19
 20
3.84
 30
0.0
 11
1.14
 21
3.79
 31
0.0
  0
LINE
  5
E3
330
1F
100
AcDbEntity
  8
BLF5781K5_DRD
  6
Continuous2
 62
     4
370
    -3
100
AcDbLine
 10
1.19
 20
3.79
 30
0.0
 11
1.14
 21
3.84
 31
0.0
  0
LINE
  5
E4
330
1F
100
AcDbEntity
  8
BLF5781K5_DRD
  6
Continuous2
 62
     4
370
    -3
100
AcDbLine
 10
2.45
 20
3.84
 30
0.0
 11
2.45
 21
3.79
 31
0.0
  0
LINE
  5
E5
330
1F
100
AcDbEntity
  8
BLF5781K5_DRD
  6
Continuous2
 62
     4
370
    -3
100
AcDbLine
 10
2.5
 20
3.84
 30
0.0
 11
2.45
 21
3.84
 31
0.0
  0
LINE
  5
E6
330
1F
100
AcDbEntity
  8
BLF5781K5_DRD
  6
Continuous2
 62
     4
370
    -3
100
AcDbLine
 10
2.5
 20
3.79
 30
0.0
 11
2.5
 21
3.84
 31
0.0
  0
LINE
  5
E7
330
1F
100
AcDbEntity
  8
BLF5781K5_DRD
  6
Continuous2
 62
     4
370
    -3
100
AcDbLine
 10
2.45
 20
3.79
 30
0.0
 11
2.5
 21
3.79
 31
0.0
  0
LINE
  5
E8
330
1F
100
AcDbEntity
  8
BLF5781K5_DRD
  6
Continuous2
 62
     4
370
    -3
100
AcDbLine
 10
2.5
 20
3.84
 30
0.0
 11
2.45
 21
3.79
 31
0.0
  0
LINE
  5
E9
330
1F
100
AcDbEntity
  8
BLF5781K5_DRD
  6
Continuous2
 62
     4
370
    -3
100
AcDbLine
 10
2.5
 20
3.79
 30
0.0
 11
2.45
 21
3.84
 31
0.0
  0
LINE
  5
EA
330
1F
100
AcDbEntity
  8
BLF5781K5_DRD
  6
Continuous2
 62
     4
370
    -3
100
AcDbLine
 10
2.235
 20
2.231
 30
0.0
 11
2.235
 21
2.181
 31
0.0
  0
LINE
  5
EB
330
1F
100
AcDbEntity
  8
BLF5781K5_DRD
  6
Continuous2
 62
     4
370
    -3
100
AcDbLine
 10
2.285
 20
2.231
 30
0.0
 11
2.235
 21
2.231
 31
0.0
  0
LINE
  5
EC
330
1F
100
AcDbEntity
  8
BLF5781K5_DRD
  6
Continuous2
 62
     4
370
    -3
100
AcDbLine
 10
2.285
 20
2.181
 30
0.0
 11
2.285
 21
2.231
 31
0.0
  0
LINE
  5
ED
330
1F
100
AcDbEntity
  8
BLF5781K5_DRD
  6
Continuous2
 62
     4
370
    -3
100
AcDbLine
 10
2.235
 20
2.181
 30
0.0
 11
2.285
 21
2.181
 31
0.0
  0
LINE
  5
EE
330
1F
100
AcDbEntity
  8
BLF5781K5_DRD
  6
Continuous2
 62
     4
370
    -3
100
AcDbLine
 10
2.285
 20
2.231
 30
0.0
 11
2.235
 21
2.181
 31
0.0
  0
LINE
  5
EF
330
1F
100
AcDbEntity
  8
BLF5781K5_DRD
  6
Continuous2
 62
     4
370
    -3
100
AcDbLine
 10
2.285
 20
2.181
 30
0.0
 11
2.235
 21
2.231
 31
0.0
  0
LINE
  5
F0
330
1F
100
AcDbEntity
  8
BLF5781K5_DRD
  6
Continuous2
 62
     4
370
    -3
100
AcDbLine
 10
1.175
 20
1.775
 30
0.0
 11
1.175
 21
1.725
 31
0.0
  0
LINE
  5
F1
330
1F
100
AcDbEntity
  8
BLF5781K5_DRD
  6
Continuous2
 62
     4
370
    -3
100
AcDbLine
 10
1.225
 20
1.775
 30
0.0
 11
1.175
 21
1.775
 31
0.0
  0
LINE
  5
F2
330
1F
100
AcDbEntity
  8
BLF5781K5_DRD
  6
Continuous2
 62
     4
370
    -3
100
AcDbLine
 10
1.225
 20
1.725
 30
0.0
 11
1.225
 21
1.775
 31
0.0
  0
LINE
  5
F3
330
1F
100
AcDbEntity
  8
BLF5781K5_DRD
  6
Continuous2
 62
     4
370
    -3
100
AcDbLine
 10
1.175
 20
1.725
 30
0.0
 11
1.225
 21
1.725
 31
0.0
  0
LINE
  5
F4
330
1F
100
AcDbEntity
  8
BLF5781K5_DRD
  6
Continuous2
 62
     4
370
    -3
100
AcDbLine
 10
1.225
 20
1.775
 30
0.0
 11
1.175
 21
1.725
 31
0.0
  0
LINE
  5
F5
330
1F
100
AcDbEntity
  8
BLF5781K5_DRD
  6
Continuous2
 62
     4
370
    -3
100
AcDbLine
 10
1.225
 20
1.725
 30
0.0
 11
1.175
 21
1.775
 31
0.0
  0
LINE
  5
F6
330
1F
100
AcDbEntity
  8
BLF5781K5_DRD
  6
Continuous2
 62
     4
370
    -3
100
AcDbLine
 10
2.45
 20
0.21
 30
0.0
 11
2.45
 21
0.16
 31
0.0
  0
LINE
  5
F7
330
1F
100
AcDbEntity
  8
BLF5781K5_DRD
  6
Continuous2
 62
     4
370
    -3
100
AcDbLine
 10
2.5
 20
0.21
 30
0.0
 11
2.45
 21
0.21
 31
0.0
  0
LINE
  5
F8
330
1F
100
AcDbEntity
  8
BLF5781K5_DRD
  6
Continuous2
 62
     4
370
    -3
100
AcDbLine
 10
2.5
 20
0.16
 30
0.0
 11
2.5
 21
0.21
 31
0.0
  0
LINE
  5
F9
330
1F
100
AcDbEntity
  8
BLF5781K5_DRD
  6
Continuous2
 62
     4
370
    -3
100
AcDbLine
 10
2.45
 20
0.16
 30
0.0
 11
2.5
 21
0.16
 31
0.0
  0
LINE
  5
FA
330
1F
100
AcDbEntity
  8
BLF5781K5_DRD
  6
Continuous2
 62
     4
370
    -3
100
AcDbLine
 10
2.5
 20
0.21
 30
0.0
 11
2.45
 21
0.16
 31
0.0
  0
LINE
  5
FB
330
1F
100
AcDbEntity
  8
BLF5781K5_DRD
  6
Continuous2
 62
     4
370
    -3
100
AcDbLine
 10
2.5
 20
0.16
 30
0.0
 11
2.45
 21
0.21
 31
0.0
  0
LINE
  5
FC
330
1F
100
AcDbEntity
  8
BLF5781K5_DRD
  6
Continuous2
 62
     4
370
    -3
100
AcDbLine
 10
1.14
 20
0.21
 30
0.0
 11
1.14
 21
0.16
 31
0.0
  0
LINE
  5
FD
330
1F
100
AcDbEntity
  8
BLF5781K5_DRD
  6
Continuous2
 62
     4
370
    -3
100
AcDbLine
 10
1.19
 20
0.21
 30
0.0
 11
1.14
 21
0.21
 31
0.0
  0
LINE
  5
FE
330
1F
100
AcDbEntity
  8
BLF5781K5_DRD
  6
Continuous2
 62
     4
370
    -3
100
AcDbLine
 10
1.19
 20
0.16
 30
0.0
 11
1.19
 21
0.21
 31
0.0
  0
LINE
  5
FF
330
1F
100
AcDbEntity
  8
BLF5781K5_DRD
  6
Continuous2
 62
     4
370
    -3
100
AcDbLine
 10
1.14
 20
0.16
 30
0.0
 11
1.19
 21
0.16
 31
0.0
  0
LINE
  5
100
330
1F
100
AcDbEntity
  8
BLF5781K5_DRD
  6
Continuous2
 62
     4
370
    -3
100
AcDbLine
 10
1.19
 20
0.21
 30
0.0
 11
1.14
 21
0.16
 31
0.0
  0
LINE
  5
101
330
1F
100
AcDbEntity
  8
BLF5781K5_DRD
  6
Continuous2
 62
     4
370
    -3
100
AcDbLine
 10
1.19
 20
0.16
 30
0.0
 11
1.14
 21
0.21
 31
0.0
  0
LINE
  5
102
330
1F
100
AcDbEntity
  8
0
  6
Continuous2
 62
     3
370
    -3
100
AcDbLine
 10
-1.275000095367432
 20
3.380000114440918
 30
0.0
 11
-1.275000095367432
 21
3.329999923706055
 31
0.0
  0
LINE
  5
103
330
1F
100
AcDbEntity
  8
BLF5781K5_ASB
  6
Continuous2
 62
     6
370
    -3
100
AcDbLine
 10
0.0000003150115688
 20
4.000000048108153
 30
0.0
 11
4.000000315011564
 21
4.000000048108153
 31
0.0
  0
LINE
  5
104
330
1F
100
AcDbEntity
  8
BLF5781K5_ASB
  6
Continuous2
 62
     6
370
    -3
100
AcDbLine
 10
4.000000315011564
 20
4.000000048108153
 30
0.0
 11
4.000000315011564
 21
0.0000000481081486
 31
0.0
  0
LINE
  5
105
330
1F
100
AcDbEntity
  8
BLF5781K5_ASB
  6
Continuous2
 62
     6
370
    -3
100
AcDbLine
 10
4.000000315011564
 20
0.0000000481081486
 30
0.0
 11
0.0000003150115688
 21
0.0000000481081486
 31
0.0
  0
LINE
  5
106
330
1F
100
AcDbEntity
  8
BLF5781K5_ASB
  6
Continuous2
 62
     6
370
    -3
100
AcDbLine
 10
0.0000003150115688
 20
0.0000000481081486
 30
0.0
 11
0.0000003150115688
 21
4.000000048108153
 31
0.0
  0
LINE
  5
107
330
1F
100
AcDbEntity
  8
BLF5781K5_ASB
  6
Continuous2
 62
     6
370
    -3
100
AcDbLine
 10
2.450000315011573
 20
0.2100000481081494
 30
0.0
 11
2.450000315011573
 21
0.1600000481081487
 31
0.0
  0
LINE
  5
108
330
1F
100
AcDbEntity
  8
BLF5781K5_ASB
  6
Continuous2
 62
     6
370
    -3
100
AcDbLine
 10
2.500000315011573
 20
0.2100000481081494
 30
0.0
 11
2.450000315011573
 21
0.2100000481081494
 31
0.0
  0
LINE
  5
109
330
1F
100
AcDbEntity
  8
BLF5781K5_ASB
  6
Continuous2
 62
     6
370
    -3
100
AcDbLine
 10
2.500000315011573
 20
0.1600000481081487
 30
0.0
 11
2.500000315011573
 21
0.2100000481081494
 31
0.0
  0
LINE
  5
10A
330
1F
100
AcDbEntity
  8
BLF5781K5_ASB
  6
Continuous2
 62
     6
370
    -3
100
AcDbLine
 10
2.450000315011573
 20
0.1600000481081487
 30
0.0
 11
2.500000315011573
 21
0.1600000481081487
 31
0.0
  0
LINE
  5
10B
330
1F
100
AcDbEntity
  8
BLF5781K5_ASB
  6
Continuous2
 62
     6
370
    -3
100
AcDbLine
 10
2.500000315011573
 20
0.2100000481081494
 30
0.0
 11
2.450000315011573
 21
0.1600000481081487
 31
0.0
  0
LINE
  5
10C
330
1F
100
AcDbEntity
  8
BLF5781K5_ASB
  6
Continuous2
 62
     6
370
    -3
100
AcDbLine
 10
2.500000315011573
 20
0.1600000481081487
 30
0.0
 11
2.450000315011573
 21
0.2100000481081494
 31
0.0
  0
LINE
  5
10D
330
1F
100
AcDbEntity
  8
BLF5781K5_ASB
  6
Continuous2
 62
     6
370
    -3
100
AcDbLine
 10
1.140000315011568
 20
0.2100000481081494
 30
0.0
 11
1.140000315011568
 21
0.1600000481081487
 31
0.0
  0
LINE
  5
10E
330
1F
100
AcDbEntity
  8
BLF5781K5_ASB
  6
Continuous2
 62
     6
370
    -3
100
AcDbLine
 10
1.190000315011568
 20
0.2100000481081494
 30
0.0
 11
1.140000315011568
 21
0.2100000481081494
 31
0.0
  0
LINE
  5
10F
330
1F
100
AcDbEntity
  8
BLF5781K5_ASB
  6
Continuous2
 62
     6
370
    -3
100
AcDbLine
 10
1.190000315011568
 20
0.1600000481081487
 30
0.0
 11
1.190000315011568
 21
0.2100000481081494
 31
0.0
  0
LINE
  5
110
330
1F
100
AcDbEntity
  8
BLF5781K5_ASB
  6
Continuous2
 62
     6
370
    -3
100
AcDbLine
 10
1.140000315011568
 20
0.1600000481081487
 30
0.0
 11
1.190000315011568
 21
0.1600000481081487
 31
0.0
  0
LINE
  5
111
330
1F
100
AcDbEntity
  8
BLF5781K5_ASB
  6
Continuous2
 62
     6
370
    -3
100
AcDbLine
 10
1.190000315011568
 20
0.2100000481081494
 30
0.0
 11
1.140000315011568
 21
0.1600000481081487
 31
0.0
  0
LINE
  5
112
330
1F
100
AcDbEntity
  8
BLF5781K5_ASB
  6
Continuous2
 62
     6
370
    -3
100
AcDbLine
 10
1.190000315011568
 20
0.1600000481081487
 30
0.0
 11
1.140000315011568
 21
0.2100000481081494
 31
0.0
  0
LINE
  5
113
330
1F
100
AcDbEntity
  8
BLF5781K5_ASB
  6
Continuous2
 62
     6
370
    -3
100
AcDbLine
 10
3.80000031501157
 20
2.025000048108149
 30
0.0
 11
3.80000031501157
 21
1.975000048108148
 31
0.0
  0
LINE
  5
114
330
1F
100
AcDbEntity
  8
BLF5781K5_ASB
  6
Continuous2
 62
     6
370
    -3
100
AcDbLine
 10
3.850000315011569
 20
2.025000048108149
 30
0.0
 11
3.80000031501157
 21
2.025000048108149
 31
0.0
  0
LINE
  5
115
330
1F
100
AcDbEntity
  8
BLF5781K5_ASB
  6
Continuous2
 62
     6
370
    -3
100
AcDbLine
 10
3.850000315011569
 20
1.975000048108148
 30
0.0
 11
3.850000315011569
 21
2.025000048108149
 31
0.0
  0
LINE
  5
116
330
1F
100
AcDbEntity
  8
BLF5781K5_ASB
  6
Continuous2
 62
     6
370
    -3
100
AcDbLine
 10
3.80000031501157
 20
1.975000048108148
 30
0.0
 11
3.850000315011569
 21
1.975000048108148
 31
0.0
  0
LINE
  5
117
330
1F
100
AcDbEntity
  8
BLF5781K5_ASB
  6
Continuous2
 62
     6
370
    -3
100
AcDbLine
 10
3.850000315011569
 20
2.025000048108149
 30
0.0
 11
3.80000031501157
 21
1.975000048108148
 31
0.0
  0
LINE
  5
118
330
1F
100
AcDbEntity
  8
BLF5781K5_ASB
  6
Continuous2
 62
     6
370
    -3
100
AcDbLine
 10
3.850000315011569
 20
1.975000048108148
 30
0.0
 11
3.80000031501157
 21
2.025000048108149
 31
0.0
  0
LINE
  5
119
330
1F
100
AcDbEntity
  8
BLF5781K5_ASB
  6
Continuous2
 62
     6
370
    -3
100
AcDbLine
 10
0.1750003150115691
 20
2.025000048108149
 30
0.0
 11
0.1750003150115691
 21
1.975000048108148
 31
0.0
  0
LINE
  5
11A
330
1F
100
AcDbEntity
  8
BLF5781K5_ASB
  6
Continuous2
 62
     6
370
    -3
100
AcDbLine
 10
0.2250003150115681
 20
2.025000048108149
 30
0.0
 11
0.1750003150115691
 21
2.025000048108149
 31
0.0
  0
LINE
  5
11B
330
1F
100
AcDbEntity
  8
BLF5781K5_ASB
  6
Continuous2
 62
     6
370
    -3
100
AcDbLine
 10
0.2250003150115681
 20
1.975000048108148
 30
0.0
 11
0.2250003150115681
 21
2.025000048108149
 31
0.0
  0
LINE
  5
11C
330
1F
100
AcDbEntity
  8
BLF5781K5_ASB
  6
Continuous2
 62
     6
370
    -3
100
AcDbLine
 10
0.1750003150115691
 20
1.975000048108148
 30
0.0
 11
0.2250003150115681
 21
1.975000048108148
 31
0.0
  0
LINE
  5
11D
330
1F
100
AcDbEntity
  8
BLF5781K5_ASB
  6
Continuous2
 62
     6
370
    -3
100
AcDbLine
 10
0.2250003150115681
 20
2.025000048108149
 30
0.0
 11
0.1750003150115691
 21
1.975000048108148
 31
0.0
  0
LINE
  5
11E
330
1F
100
AcDbEntity
  8
BLF5781K5_ASB
  6
Continuous2
 62
     6
370
    -3
100
AcDbLine
 10
0.2250003150115681
 20
1.975000048108148
 30
0.0
 11
0.1750003150115691
 21
2.025000048108149
 31
0.0
  0
LINE
  5
11F
330
1F
100
AcDbEntity
  8
BLF5781K5_ASB
  6
Continuous2
 62
     6
370
    -3
100
AcDbLine
 10
1.140000315011568
 20
3.840000048108148
 30
0.0
 11
1.140000315011568
 21
3.790000048108148
 31
0.0
  0
LINE
  5
120
330
1F
100
AcDbEntity
  8
BLF5781K5_ASB
  6
Continuous2
 62
     6
370
    -3
100
AcDbLine
 10
1.190000315011568
 20
3.840000048108148
 30
0.0
 11
1.140000315011568
 21
3.840000048108148
 31
0.0
  0
LINE
  5
121
330
1F
100
AcDbEntity
  8
BLF5781K5_ASB
  6
Continuous2
 62
     6
370
    -3
100
AcDbLine
 10
1.190000315011568
 20
3.790000048108148
 30
0.0
 11
1.190000315011568
 21
3.840000048108148
 31
0.0
  0
LINE
  5
122
330
1F
100
AcDbEntity
  8
BLF5781K5_ASB
  6
Continuous2
 62
     6
370
    -3
100
AcDbLine
 10
1.140000315011568
 20
3.790000048108148
 30
0.0
 11
1.190000315011568
 21
3.790000048108148
 31
0.0
  0
LINE
  5
123
330
1F
100
AcDbEntity
  8
BLF5781K5_ASB
  6
Continuous2
 62
     6
370
    -3
100
AcDbLine
 10
1.190000315011568
 20
3.840000048108148
 30
0.0
 11
1.140000315011568
 21
3.790000048108148
 31
0.0
  0
LINE
  5
124
330
1F
100
AcDbEntity
  8
BLF5781K5_ASB
  6
Continuous2
 62
     6
370
    -3
100
AcDbLine
 10
1.190000315011568
 20
3.790000048108148
 30
0.0
 11
1.140000315011568
 21
3.840000048108148
 31
0.0
  0
LINE
  5
125
330
1F
100
AcDbEntity
  8
BLF5781K5_ASB
  6
Continuous2
 62
     6
370
    -3
100
AcDbLine
 10
2.450000315011573
 20
3.840000048108148
 30
0.0
 11
2.450000315011573
 21
3.790000048108148
 31
0.0
  0
LINE
  5
126
330
1F
100
AcDbEntity
  8
BLF5781K5_ASB
  6
Continuous2
 62
     6
370
    -3
100
AcDbLine
 10
2.500000315011573
 20
3.840000048108148
 30
0.0
 11
2.450000315011573
 21
3.840000048108148
 31
0.0
  0
LINE
  5
127
330
1F
100
AcDbEntity
  8
BLF5781K5_ASB
  6
Continuous2
 62
     6
370
    -3
100
AcDbLine
 10
2.500000315011573
 20
3.790000048108148
 30
0.0
 11
2.500000315011573
 21
3.840000048108148
 31
0.0
  0
LINE
  5
128
330
1F
100
AcDbEntity
  8
BLF5781K5_ASB
  6
Continuous2
 62
     6
370
    -3
100
AcDbLine
 10
2.450000315011573
 20
3.790000048108148
 30
0.0
 11
2.500000315011573
 21
3.790000048108148
 31
0.0
  0
LINE
  5
129
330
1F
100
AcDbEntity
  8
BLF5781K5_ASB
  6
Continuous2
 62
     6
370
    -3
100
AcDbLine
 10
2.500000315011573
 20
3.840000048108148
 30
0.0
 11
2.450000315011573
 21
3.790000048108148
 31
0.0
  0
LINE
  5
12A
330
1F
100
AcDbEntity
  8
BLF5781K5_ASB
  6
Continuous2
 62
     6
370
    -3
100
AcDbLine
 10
2.500000315011573
 20
3.790000048108148
 30
0.0
 11
2.450000315011573
 21
3.840000048108148
 31
0.0
  0
LINE
  5
12B
330
1F
100
AcDbEntity
  8
BLF5781K5_ASB
  6
Continuous2
 62
     6
370
    -3
100
AcDbLine
 10
2.235000315011573
 20
2.231000048108148
 30
0.0
 11
2.235000315011573
 21
2.18100004810815
 31
0.0
  0
LINE
  5
12C
330
1F
100
AcDbEntity
  8
BLF5781K5_ASB
  6
Continuous2
 62
     6
370
    -3
100
AcDbLine
 10
2.285000315011573
 20
2.231000048108148
 30
0.0
 11
2.235000315011573
 21
2.231000048108148
 31
0.0
  0
LINE
  5
12D
330
1F
100
AcDbEntity
  8
BLF5781K5_ASB
  6
Continuous2
 62
     6
370
    -3
100
AcDbLine
 10
2.285000315011573
 20
2.18100004810815
 30
0.0
 11
2.285000315011573
 21
2.231000048108148
 31
0.0
  0
LINE
  5
12E
330
1F
100
AcDbEntity
  8
BLF5781K5_ASB
  6
Continuous2
 62
     6
370
    -3
100
AcDbLine
 10
2.235000315011573
 20
2.18100004810815
 30
0.0
 11
2.285000315011573
 21
2.18100004810815
 31
0.0
  0
LINE
  5
12F
330
1F
100
AcDbEntity
  8
BLF5781K5_ASB
  6
Continuous2
 62
     6
370
    -3
100
AcDbLine
 10
2.285000315011573
 20
2.231000048108148
 30
0.0
 11
2.235000315011573
 21
2.18100004810815
 31
0.0
  0
LINE
  5
130
330
1F
100
AcDbEntity
  8
BLF5781K5_ASB
  6
Continuous2
 62
     6
370
    -3
100
AcDbLine
 10
2.285000315011573
 20
2.18100004810815
 30
0.0
 11
2.235000315011573
 21
2.231000048108148
 31
0.0
  0
LINE
  5
131
330
1F
100
AcDbEntity
  8
BLF5781K5_ASB
  6
Continuous2
 62
     6
370
    -3
100
AcDbLine
 10
1.175000315011568
 20
1.775000048108149
 30
0.0
 11
1.175000315011568
 21
1.725000048108148
 31
0.0
  0
LINE
  5
132
330
1F
100
AcDbEntity
  8
BLF5781K5_ASB
  6
Continuous2
 62
     6
370
    -3
100
AcDbLine
 10
1.225000315011568
 20
1.775000048108149
 30
0.0
 11
1.175000315011568
 21
1.775000048108149
 31
0.0
  0
LINE
  5
133
330
1F
100
AcDbEntity
  8
BLF5781K5_ASB
  6
Continuous2
 62
     6
370
    -3
100
AcDbLine
 10
1.225000315011568
 20
1.725000048108148
 30
0.0
 11
1.225000315011568
 21
1.775000048108149
 31
0.0
  0
LINE
  5
134
330
1F
100
AcDbEntity
  8
BLF5781K5_ASB
  6
Continuous2
 62
     6
370
    -3
100
AcDbLine
 10
1.175000315011568
 20
1.725000048108148
 30
0.0
 11
1.225000315011568
 21
1.725000048108148
 31
0.0
  0
LINE
  5
135
330
1F
100
AcDbEntity
  8
BLF5781K5_ASB
  6
Continuous2
 62
     6
370
    -3
100
AcDbLine
 10
1.225000315011568
 20
1.775000048108149
 30
0.0
 11
1.175000315011568
 21
1.725000048108148
 31
0.0
  0
LINE
  5
136
330
1F
100
AcDbEntity
  8
BLF5781K5_ASB
  6
Continuous2
 62
     6
370
    -3
100
AcDbLine
 10
1.225000315011568
 20
1.725000048108148
 30
0.0
 11
1.175000315011568
 21
1.775000048108149
 31
0.0
  0
CIRCLE
  5
137
330
1F
100
AcDbEntity
  8
0
  6
Continuous2
 62
     4
370
    -3
100
AcDbCircle
 10
6.800000000000001
 20
2.95
 30
0.0
 40
0.0780000000000003
  0
LINE
  5
138
330
1F
100
AcDbEntity
  8
BLF5781K5_DRD
  6
Continuous2
 62
     4
370
    -3
100
AcDbLine
 10
-1.6
 20
0.0
 30
0.0
 11
-1.295
 21
0.0
 31
0.0
  0
CIRCLE
  5
139
330
1F
100
AcDbEntity
  8
0
  6
Continuous2
 62
     4
370
    -3
100
AcDbCircle
 10
6.944999694824219
 20
1.600000023841858
 30
0.0
 40
0.0780000000000003
  0
CIRCLE
  5
13A
330
1F
100
AcDbEntity
  8
0
  6
Continuous2
 62
     4
370
    -3
100
AcDbCircle
 10
3.824999809265137
 20
2.0
 30
0.0
 40
0.0780000000000003
  0
CIRCLE
  5
13B
330
1F
100
AcDbEntity
  8
0
  6
Continuous2
 62
     4
370
    -3
100
AcDbCircle
 10
2.475000381469727
 20
3.815000057220459
 30
0.0
 40
0.0780000000000003
  0
CIRCLE
  5
13C
330
1F
100
AcDbEntity
  8
0
  6
Continuous2
 62
     4
370
    -3
100
AcDbCircle
 10
2.260000228881836
 20
2.205999851226807
 30
0.0
 40
0.0780000000000003
  0
CIRCLE
  5
13D
330
1F
100
AcDbEntity
  8
0
  6
Continuous2
 62
     4
370
    -3
100
AcDbCircle
 10
1.165000319480896
 20
3.815000057220459
 30
0.0
 40
0.0780000000000003
  0
CIRCLE
  5
13E
330
1F
100
AcDbEntity
  8
0
  6
Continuous2
 62
     4
370
    -3
100
AcDbCircle
 10
1.200000047683716
 20
1.75
 30
0.0
 40
0.0780000000000003
  0
CIRCLE
  5
13F
330
1F
100
AcDbEntity
  8
0
  6
Continuous2
 62
     4
370
    -3
100
AcDbCircle
 10
0.199999988079071
 20
2.0
 30
0.0
 40
0.0780000000000003
  0
CIRCLE
  5
140
330
1F
100
AcDbEntity
  8
0
  6
Continuous2
 62
     4
370
    -3
100
AcDbCircle
 10
1.165000319480896
 20
0.1850000470876694
 30
0.0
 40
0.0780000000000003
  0
CIRCLE
  5
141
330
1F
100
AcDbEntity
  8
0
  6
Continuous2
 62
     4
370
    -3
100
AcDbCircle
 10
2.475000381469727
 20
0.1850000470876694
 30
0.0
 40
0.0780000000000003
  0
LINE
  5
142
330
1F
100
AcDbEntity
  8
0
  6
Continuous2
 62
     3
370
    -3
100
AcDbLine
 10
-1.600000000000001
 20
-0.4521828358698897
 30
0.0
 11
-1.6
 21
-0.15
 31
0.0
  0
LINE
  5
143
330
1F
100
AcDbEntity
  8
0
  6
Continuous2
 62
     3
370
    -3
100
AcDbLine
 10
-1.450000000000001
 20
-0.3522078358698897
 30
0.0
 11
-1.600000000000001
 21
-0.3771828358698897
 31
0.0
  0
LINE
  5
144
330
1F
100
AcDbEntity
  8
0
  6
Continuous2
 62
     3
370
    -3
100
AcDbLine
 10
-1.450000000000001
 20
-0.4021578358698897
 30
0.0
 11
-1.600000000000001
 21
-0.3771828358698897
 31
0.0
  0
LINE
  5
145
330
1F
100
AcDbEntity
  8
0
  6
Continuous2
 62
     3
370
    -3
100
AcDbLine
 10
7.19
 20
-0.4021578358698897
 30
0.0
 11
7.34
 21
-0.3771828358698897
 31
0.0
  0
LINE
  5
146
330
1F
100
AcDbEntity
  8
0
  6
Continuous2
 62
     3
370
    -3
100
AcDbLine
 10
7.19
 20
-0.3522078358698896
 30
0.0
 11
7.34
 21
-0.3771828358698897
 31
0.0
  0
LINE
  5
147
330
1F
100
AcDbEntity
  8
0
  6
Continuous2
 62
     3
370
    -3
100
AcDbLine
 10
2.619701764705883
 20
-0.3771828358698897
 30
0.0
 11
-1.600000000000001
 21
-0.3771828358698897
 31
0.0
  0
LINE
  5
148
330
1F
100
AcDbEntity
  8
0
  6
Continuous2
 62
     3
370
    -3
100
AcDbLine
 10
-1.450000000000001
 20
-0.3522078358698897
 30
0.0
 11
-1.600000000000001
 21
-0.3771828358698897
 31
0.0
  0
LINE
  5
149
330
1F
100
AcDbEntity
  8
0
  6
Continuous2
 62
     3
370
    -3
100
AcDbLine
 10
-1.450000000000001
 20
-0.4021578358698897
 30
0.0
 11
-1.600000000000001
 21
-0.3771828358698897
 31
0.0
  0
LINE
  5
14A
330
1F
100
AcDbEntity
  8
0
  6
Continuous2
 62
     3
370
    -3
100
AcDbLine
 10
7.19
 20
-0.4021578358698897
 30
0.0
 11
7.34
 21
-0.3771828358698897
 31
0.0
  0
LINE
  5
14B
330
1F
100
AcDbEntity
  8
0
  6
Continuous2
 62
     3
370
    -3
100
AcDbLine
 10
7.19
 20
-0.3522078358698896
 30
0.0
 11
7.34
 21
-0.3771828358698897
 31
0.0
  0
TEXT
  5
14C
330
1F
100
AcDbEntity
  8
0
  6
Continuous2
 62
     3
370
    -3
100
AcDbText
 10
2.684411764705882
 20
-0.4521828358698896
 30
0.0
 40
0.15
  1
8.940
 41
0.5
  7
MCStick_A0.500000_S0.000000
100
AcDbText
  0
LINE
  5
170
330
1F
100
AcDbEntity
  8
0
  6
Continuous2
 62
     3
370
    -3
100
AcDbLine
 10
3.120298235294118
 20
-0.3771828358698897
 30
0.0
 11
7.34
 21
-0.3771828358698897
 31
0.0
  0
LINE
  5
171
330
1F
100
AcDbEntity
  8
0
  6
Continuous2
 62
     3
370
    -3
100
AcDbLine
 10
-1.450000000000001
 20
-0.3522078358698897
 30
0.0
 11
-1.600000000000001
 21
-0.3771828358698897
 31
0.0
  0
LINE
  5
172
330
1F
100
AcDbEntity
  8
0
  6
Continuous2
 62
     3
370
    -3
100
AcDbLine
 10
-1.450000000000001
 20
-0.4021578358698897
 30
0.0
 11
-1.600000000000001
 21
-0.3771828358698897
 31
0.0
  0
LINE
  5
173
330
1F
100
AcDbEntity
  8
0
  6
Continuous2
 62
     3
370
    -3
100
AcDbLine
 10
7.19
 20
-0.4021578358698897
 30
0.0
 11
7.34
 21
-0.3771828358698897
 31
0.0
  0
LINE
  5
174
330
1F
100
AcDbEntity
  8
0
  6
Continuous2
 62
     3
370
    -3
100
AcDbLine
 10
7.19
 20
-0.3522078358698896
 30
0.0
 11
7.34
 21
-0.3771828358698897
 31
0.0
  0
LINE
  5
175
330
1F
100
AcDbEntity
  8
0
  6
Continuous2
 62
     3
370
    -3
100
AcDbLine
 10
7.34
 20
-0.4521828358698897
 30
0.0
 11
7.34
 21
1.185
 31
0.0
  0
LINE
  5
176
330
1F
100
AcDbEntity
  8
0
  6
Continuous2
 62
     3
370
    -3
100
AcDbLine
 10
-1.450000000000001
 20
-0.3522078358698897
 30
0.0
 11
-1.600000000000001
 21
-0.3771828358698897
 31
0.0
  0
LINE
  5
177
330
1F
100
AcDbEntity
  8
0
  6
Continuous2
 62
     3
370
    -3
100
AcDbLine
 10
-1.450000000000001
 20
-0.4021578358698897
 30
0.0
 11
-1.600000000000001
 21
-0.3771828358698897
 31
0.0
  0
LINE
  5
178
330
1F
100
AcDbEntity
  8
0
  6
Continuous2
 62
     3
370
    -3
100
AcDbLine
 10
7.19
 20
-0.4021578358698897
 30
0.0
 11
7.34
 21
-0.3771828358698897
 31
0.0
  0
LINE
  5
179
330
1F
100
AcDbEntity
  8
0
  6
Continuous2
 62
     3
370
    -3
100
AcDbLine
 10
7.19
 20
-0.3522078358698896
 30
0.0
 11
7.34
 21
-0.3771828358698897
 31
0.0
  0
LINE
  5
17A
330
1F
100
AcDbEntity
  8
0
  6
Continuous2
 62
     3
370
    -3
100
AcDbLine
 10
-2.211625347548714
 20
0.0
 30
0.0
 11
-1.75
 21
0.0
 31
0.0
  0
LINE
  5
17B
330
1F
100
AcDbEntity
  8
0
  6
Continuous2
 62
     3
370
    -3
100
AcDbLine
 10
-2.161600347548714
 20
0.1500000000000001
 30
0.0
 11
-2.136625347548714
 21
0.0
 31
0.0
  0
LINE
  5
17C
330
1F
100
AcDbEntity
  8
0
  6
Continuous2
 62
     3
370
    -3
100
AcDbLine
 10
-2.111650347548714
 20
0.1499999999999999
 30
0.0
 11
-2.136625347548714
 21
0.0
 31
0.0
  0
LINE
  5
17D
330
1F
100
AcDbEntity
  8
0
  6
Continuous2
 62
     3
370
    -3
100
AcDbLine
 10
-2.111650347548712
 20
3.85
 30
0.0
 11
-2.136625347548712
 21
4.0
 31
0.0
  0
LINE
  5
17E
330
1F
100
AcDbEntity
  8
0
  6
Continuous2
 62
     3
370
    -3
100
AcDbLine
 10
-2.161600347548712
 20
3.85
 30
0.0
 11
-2.136625347548712
 21
4.0
 31
0.0
  0
LINE
  5
17F
330
1F
100
AcDbEntity
  8
0
  6
Continuous2
 62
     3
370
    -3
100
AcDbLine
 10
-2.136625347548713
 20
1.843342884615385
 30
0.0
 11
-2.136625347548714
 21
0.0
 31
0.0
  0
LINE
  5
180
330
1F
100
AcDbEntity
  8
0
  6
Continuous2
 62
     3
370
    -3
100
AcDbLine
 10
-2.161600347548714
 20
0.1500000000000001
 30
0.0
 11
-2.136625347548714
 21
0.0
 31
0.0
  0
LINE
  5
181
330
1F
100
AcDbEntity
  8
0
  6
Continuous2
 62
     3
370
    -3
100
AcDbLine
 10
-2.111650347548714
 20
0.1499999999999999
 30
0.0
 11
-2.136625347548714
 21
0.0
 31
0.0
  0
LINE
  5
182
330
1F
100
AcDbEntity
  8
0
  6
Continuous2
 62
     3
370
    -3
100
AcDbLine
 10
-2.111650347548712
 20
3.85
 30
0.0
 11
-2.136625347548712
 21
4.0
 31
0.0
  0
LINE
  5
183
330
1F
100
AcDbEntity
  8
0
  6
Continuous2
 62
     3
370
    -3
100
AcDbLine
 10
-2.161600347548712
 20
3.85
 30
0.0
 11
-2.136625347548712
 21
4.0
 31
0.0
  0
TEXT
  5
184
330
1F
100
AcDbEntity
  8
0
  6
Continuous2
 62
     3
370
    -3
100
AcDbText
 10
-2.322213582842831
 20
1.925
 30
0.0
 40
0.15
  1
4.000
 41
0.5
  7
MCStick_A0.500000_S0.000000
100
AcDbText
  0
LINE
  5
185
330
1F
100
AcDbEntity
  8
0
  6
Continuous2
 62
     3
370
    -3
100
AcDbLine
 10
-2.136625347548713
 20
2.156657115384615
 30
0.0
 11
-2.136625347548712
 21
4.0
 31
0.0
  0
LINE
  5
186
330
1F
100
AcDbEntity
  8
0
  6
Continuous2
 62
     3
370
    -3
100
AcDbLine
 10
-2.161600347548714
 20
0.1500000000000001
 30
0.0
 11
-2.136625347548714
 21
0.0
 31
0.0
  0
LINE
  5
187
330
1F
100
AcDbEntity
  8
0
  6
Continuous2
 62
     3
370
    -3
100
AcDbLine
 10
-2.111650347548714
 20
0.1499999999999999
 30
0.0
 11
-2.136625347548714
 21
0.0
 31
0.0
  0
LINE
  5
188
330
1F
100
AcDbEntity
  8
0
  6
Continuous2
 62
     3
370
    -3
100
AcDbLine
 10
-2.111650347548712
 20
3.85
 30
0.0
 11
-2.136625347548712
 21
4.0
 31
0.0
  0
LINE
  5
189
330
1F
100
AcDbEntity
  8
0
  6
Continuous2
 62
     3
370
    -3
100
AcDbLine
 10
-2.161600347548712
 20
3.85
 30
0.0
 11
-2.136625347548712
 21
4.0
 31
0.0
  0
LINE
  5
18A
330
1F
100
AcDbEntity
  8
0
  6
Continuous2
 62
     3
370
    -3
100
AcDbLine
 10
-2.211625347548712
 20
4.0
 30
0.0
 11
-1.425
 21
4.0
 31
0.0
  0
LINE
  5
18B
330
1F
100
AcDbEntity
  8
0
  6
Continuous2
 62
     3
370
    -3
100
AcDbLine
 10
-2.161600347548714
 20
0.1500000000000001
 30
0.0
 11
-2.136625347548714
 21
0.0
 31
0.0
  0
LINE
  5
18C
330
1F
100
AcDbEntity
  8
0
  6
Continuous2
 62
     3
370
    -3
100
AcDbLine
 10
-2.111650347548714
 20
0.1499999999999999
 30
0.0
 11
-2.136625347548714
 21
0.0
 31
0.0
  0
LINE
  5
18D
330
1F
100
AcDbEntity
  8
0
  6
Continuous2
 62
     3
370
    -3
100
AcDbLine
 10
-2.111650347548712
 20
3.85
 30
0.0
 11
-2.136625347548712
 21
4.0
 31
0.0
  0
LINE
  5
18E
330
1F
100
AcDbEntity
  8
0
  6
Continuous2
 62
     3
370
    -3
100
AcDbLine
 10
-2.161600347548712
 20
3.85
 30
0.0
 11
-2.136625347548712
 21
4.0
 31
0.0
  0
LINE
  5
18F
330
1F
100
AcDbEntity
  8
0
  6
Continuous2
 62
     3
370
    -3
100
AcDbLine
 10
7.34
 20
4.210015047372177
 30
0.0
 11
7.34
 21
4.0
 31
0.0
  0
LINE
  5
190
330
1F
100
AcDbEntity
  8
0
  6
Continuous2
 62
     3
370
    -3
100
AcDbLine
 10
7.34
 20
4.210015047372177
 30
0.0
 11
7.23284973946636
 21
4.40613310891692
 31
0.0
  0
LINE
  5
191
330
1F
100
AcDbEntity
  8
0
  6
Continuous2
 62
     3
370
    -3
100
AcDbLine
 10
7.23284973946636
 20
4.40613310891692
 30
0.0
 11
7.15784973946636
 21
4.40613310891692
 31
0.0
  0
LINE
  5
192
330
1F
100
AcDbEntity
  8
0
  6
Continuous2
 62
     3
370
    -3
100
AcDbLine
 10
7.315025
 20
4.15
 30
0.0
 11
7.34
 21
4.0
 31
0.0
  0
LINE
  5
193
330
1F
100
AcDbEntity
  8
0
  6
Continuous2
 62
     3
370
    -3
100
AcDbLine
 10
7.364975
 20
4.15
 30
0.0
 11
7.34
 21
4.0
 31
0.0
  0
TEXT
  5
194
330
1F
100
AcDbEntity
  8
0
  6
Continuous2
 62
     3
370
    -3
100
AcDbText
 10
5.88784768064283
 20
4.33113310891692
 30
0.0
 40
0.15
  1
X -0.000, Y 0.000
 41
0.5
  7
MCStick_A0.500000_S0.000000
100
AcDbText
  0
LINE
  5
195
330
1F
100
AcDbEntity
  8
0
  6
Continuous2
 62
     3
370
    -3
100
AcDbLine
 10
6.45242785350899
 20
2.95
 30
0.0
 11
6.800000000000001
 21
2.95
 31
0.0
  0
LINE
  5
196
330
1F
100
AcDbEntity
  8
0
  6
Continuous2
 62
     3
370
    -3
100
AcDbLine
 10
6.45242785350899
 20
2.95
 30
0.0
 11
6.104859675058304
 21
2.947651233211221
 31
0.0
  0
LINE
  5
197
330
1F
100
AcDbEntity
  8
0
  6
Continuous2
 62
     3
370
    -3
100
AcDbLine
 10
6.104859675058304
 20
2.947651233211221
 30
0.0
 11
6.054859675058303
 21
2.947651233211221
 31
0.0
  0
LINE
  5
198
330
1F
100
AcDbEntity
  8
0
  6
Continuous2
 62
     3
370
    -3
100
AcDbLine
 10
6.700000000000001
 20
2.93335
 30
0.0
 11
6.800000000000001
 21
2.95
 31
0.0
  0
LINE
  5
199
330
1F
100
AcDbEntity
  8
0
  6
Continuous2
 62
     3
370
    -3
100
AcDbLine
 10
6.700000000000001
 20
2.96665
 30
0.0
 11
6.800000000000001
 21
2.95
 31
0.0
  0
TEXT
  5
19A
330
1F
100
AcDbEntity
  8
0
  6
Continuous2
 62
     3
370
    -3
100
AcDbText
 10
5.17309359662693
 20
2.89765123321122
 30
0.0
 40
0.1
  1
X -0.540, Y -1.050
 41
0.5
  7
MCStick_A0.500000_S0.000000
100
AcDbText
  0
LINE
  5
19B
330
1F
100
AcDbEntity
  8
0
  6
Continuous2
 62
     3
370
    -3
100
AcDbLine
 10
6.537197438048914
 20
1.6
 30
0.0
 11
6.945
 21
1.6
 31
0.0
  0
LINE
  5
19C
330
1F
100
AcDbEntity
  8
0
  6
Continuous2
 62
     3
370
    -3
100
AcDbLine
 10
6.537197438048914
 20
1.6
 30
0.0
 11
6.129401858266083
 21
1.603374808981354
 31
0.0
  0
LINE
  5
19D
330
1F
100
AcDbEntity
  8
0
  6
Continuous2
 62
     3
370
    -3
100
AcDbLine
 10
6.129401858266083
 20
1.603374808981354
 30
0.0
 11
6.079401858266082
 21
1.603374808981354
 31
0.0
  0
LINE
  5
19E
330
1F
100
AcDbEntity
  8
0
  6
Continuous2
 62
     3
370
    -3
100
AcDbLine
 10
6.845000000000001
 20
1.58335
 30
0.0
 11
6.945
 21
1.6
 31
0.0
  0
LINE
  5
19F
330
1F
100
AcDbEntity
  8
0
  6
Continuous2
 62
     3
370
    -3
100
AcDbLine
 10
6.845000000000001
 20
1.61665
 30
0.0
 11
6.945
 21
1.6
 31
0.0
  0
TEXT
  5
1A0
330
1F
100
AcDbEntity
  8
0
  6
Continuous2
 62
     3
370
    -3
100
AcDbText
 10
5.172733819050396
 20
1.553374808981354
 30
0.0
 40
0.1
  1
X -0.395, Y -2.400
 41
0.5
  7
MCStick_A0.500000_S0.000000
100
AcDbText
  0
LINE
  5
1A1
330
1F
100
AcDbEntity
  8
0
  6
Continuous2
 62
     3
370
    -3
100
AcDbLine
 10
1.165000315011568
 20
3.510922070231608
 30
0.0
 11
1.165000315011568
 21
3.815000048108148
 31
0.0
  0
LINE
  5
1A2
330
1F
100
AcDbEntity
  8
0
  6
Continuous2
 62
     3
370
    -3
100
AcDbLine
 10
1.165000315011568
 20
3.510922070231608
 30
0.0
 11
1.497742685716572
 21
3.305945845438573
 31
0.0
  0
LINE
  5
1A3
330
1F
100
AcDbEntity
  8
0
  6
Continuous2
 62
     3
370
    -3
100
AcDbLine
 10
1.497742685716572
 20
3.305945845438573
 30
0.0
 11
1.547742685716572
 21
3.305945845438573
 31
0.0
  0
LINE
  5
1A4
330
1F
100
AcDbEntity
  8
0
  6
Continuous2
 62
     3
370
    -3
100
AcDbLine
 10
1.181650315011568
 20
3.715000048108148
 30
0.0
 11
1.165000315011568
 21
3.815000048108148
 31
0.0
  0
LINE
  5
1A5
330
1F
100
AcDbEntity
  8
0
  6
Continuous2
 62
     3
370
    -3
100
AcDbLine
 10
1.148350315011568
 20
3.715000048108148
 30
0.0
 11
1.165000315011568
 21
3.815000048108148
 31
0.0
  0
TEXT
  5
1A6
330
1F
100
AcDbEntity
  8
0
  6
Continuous2
 62
     3
370
    -3
100
AcDbText
 10
1.569312685716572
 20
3.255945845438573
 30
0.0
 40
0.1
  1
X -6.175, Y -0.185
 41
0.5
  7
MCStick_A0.500000_S0.000000
100
AcDbText
  0
LINE
  5
1A7
330
1F
100
AcDbEntity
  8
0
  6
Continuous2
 62
     3
370
    -3
100
AcDbLine
 10
2.701476592057809
 20
3.815
 30
0.0
 11
2.475
 21
3.815
 31
0.0
  0
LINE
  5
1A8
330
1F
100
AcDbEntity
  8
0
  6
Continuous2
 62
     3
370
    -3
100
AcDbLine
 10
2.701476592057809
 20
3.815
 30
0.0
 11
2.927947511536524
 21
3.817266890678308
 31
0.0
  0
LINE
  5
1A9
330
1F
100
AcDbEntity
  8
0
  6
Continuous2
 62
     3
370
    -3
100
AcDbLine
 10
2.927947511536524
 20
3.817266890678308
 30
0.0
 11
2.977947511536524
 21
3.817266890678308
 31
0.0
  0
LINE
  5
1AA
330
1F
100
AcDbEntity
  8
0
  6
Continuous2
 62
     3
370
    -3
100
AcDbLine
 10
2.575
 20
3.83165
 30
0.0
 11
2.475
 21
3.815
 31
0.0
  0
LINE
  5
1AB
330
1F
100
AcDbEntity
  8
0
  6
Continuous2
 62
     3
370
    -3
100
AcDbLine
 10
2.575
 20
3.79835
 30
0.0
 11
2.475
 21
3.815
 31
0.0
  0
TEXT
  5
1AC
330
1F
100
AcDbEntity
  8
0
  6
Continuous2
 62
     3
370
    -3
100
AcDbText
 10
2.999517511536524
 20
3.767266890678307
 30
0.0
 40
0.1
  1
X -4.865, Y -0.185
 41
0.5
  7
MCStick_A0.500000_S0.000000
100
AcDbText
  0
LINE
  5
1AD
330
1F
100
AcDbEntity
  8
0
  6
Continuous2
 62
     3
370
    -3
100
AcDbLine
 10
3.962586922469967
 20
2.0
 30
0.0
 11
3.825000286102295
 21
2.0
 31
0.0
  0
LINE
  5
1AE
330
1F
100
AcDbEntity
  8
0
  6
Continuous2
 62
     3
370
    -3
100
AcDbLine
 10
3.962586922469967
 20
2.0
 30
0.0
 11
4.100117592828877
 21
2.005549555603146
 31
0.0
  0
LINE
  5
1AF
330
1F
100
AcDbEntity
  8
0
  6
Continuous2
 62
     3
370
    -3
100
AcDbLine
 10
4.100117592828877
 20
2.005549555603146
 30
0.0
 11
4.150117592828877
 21
2.005549555603146
 31
0.0
  0
LINE
  5
1B0
330
1F
100
AcDbEntity
  8
0
  6
Continuous2
 62
     3
370
    -3
100
AcDbLine
 10
3.925000286102295
 20
2.01665
 30
0.0
 11
3.825000286102295
 21
2.0
 31
0.0
  0
LINE
  5
1B1
330
1F
100
AcDbEntity
  8
0
  6
Continuous2
 62
     3
370
    -3
100
AcDbLine
 10
3.925000286102295
 20
1.98335
 30
0.0
 11
3.825000286102295
 21
2.0
 31
0.0
  0
TEXT
  5
1B2
330
1F
100
AcDbEntity
  8
0
  6
Continuous2
 62
     3
370
    -3
100
AcDbText
 10
4.171687592828877
 20
1.955549555603145
 30
0.0
 40
0.1
  1
X -3.515, Y -2.000
 41
0.5
  7
MCStick_A0.500000_S0.000000
100
AcDbText
  0
LINE
  5
1B3
330
1F
100
AcDbEntity
  8
0
  6
Continuous2
 62
     3
370
    -3
100
AcDbLine
 10
2.491370241470984
 20
2.205999851226807
 30
0.0
 11
2.260000228881836
 21
2.205999851226807
 31
0.0
  0
LINE
  5
1B4
330
1F
100
AcDbEntity
  8
0
  6
Continuous2
 62
     3
370
    -3
100
AcDbLine
 10
2.491370241470984
 20
2.205999851226807
 30
0.0
 11
2.717297504066877
 21
2.276763775724725
 31
0.0
  0
LINE
  5
1B5
330
1F
100
AcDbEntity
  8
0
  6
Continuous2
 62
     3
370
    -3
100
AcDbLine
 10
2.717297504066877
 20
2.276763775724725
 30
0.0
 11
2.767297504066876
 21
2.276763775724725
 31
0.0
  0
LINE
  5
1B6
330
1F
100
AcDbEntity
  8
0
  6
Continuous2
 62
     3
370
    -3
100
AcDbLine
 10
2.360000228881836
 20
2.222649851226806
 30
0.0
 11
2.260000228881836
 21
2.205999851226807
 31
0.0
  0
LINE
  5
1B7
330
1F
100
AcDbEntity
  8
0
  6
Continuous2
 62
     3
370
    -3
100
AcDbLine
 10
2.360000228881836
 20
2.189349851226807
 30
0.0
 11
2.260000228881836
 21
2.205999851226807
 31
0.0
  0
TEXT
  5
1B8
330
1F
100
AcDbEntity
  8
0
  6
Continuous2
 62
     3
370
    -3
100
AcDbText
 10
2.788867504066876
 20
2.226763775724725
 30
0.0
 40
0.1
  1
X -5.080, Y -1.794
 41
0.5
  7
MCStick_A0.500000_S0.000000
100
AcDbText
  0
LINE
  5
1B9
330
1F
100
AcDbEntity
  8
0
  6
Continuous2
 62
     3
370
    -3
100
AcDbLine
 10
1.398222267517455
 20
1.75
 30
0.0
 11
1.200000286102295
 21
1.75
 31
0.0
  0
LINE
  5
1BA
330
1F
100
AcDbEntity
  8
0
  6
Continuous2
 62
     3
370
    -3
100
AcDbLine
 10
1.398222267517455
 20
1.75
 30
0.0
 11
1.596428895253128
 21
1.753489055938861
 31
0.0
  0
LINE
  5
1BB
330
1F
100
AcDbEntity
  8
0
  6
Continuous2
 62
     3
370
    -3
100
AcDbLine
 10
1.596428895253128
 20
1.753489055938861
 30
0.0
 11
1.646428895253128
 21
1.753489055938861
 31
0.0
  0
LINE
  5
1BC
330
1F
100
AcDbEntity
  8
0
  6
Continuous2
 62
     3
370
    -3
100
AcDbLine
 10
1.300000286102295
 20
1.76665
 30
0.0
 11
1.200000286102295
 21
1.75
 31
0.0
  0
LINE
  5
1BD
330
1F
100
AcDbEntity
  8
0
  6
Continuous2
 62
     3
370
    -3
100
AcDbLine
 10
1.300000286102295
 20
1.73335
 30
0.0
 11
1.200000286102295
 21
1.75
 31
0.0
  0
TEXT
  5
1BE
330
1F
100
AcDbEntity
  8
0
  6
Continuous2
 62
     3
370
    -3
100
AcDbText
 10
1.667998895253128
 20
1.703489055938861
 30
0.0
 40
0.1
  1
X -6.140, Y -2.250
 41
0.5
  7
MCStick_A0.500000_S0.000000
100
AcDbText
  0
LINE
  5
1BF
330
1F
100
AcDbEntity
  8
0
  6
Continuous2
 62
     3
370
    -3
100
AcDbLine
 10
0.0674881868369472
 20
2.0
 30
0.0
 11
0.2000003159046173
 21
2.0
 31
0.0
  0
LINE
  5
1C0
330
1F
100
AcDbEntity
  8
0
  6
Continuous2
 62
     3
370
    -3
100
AcDbLine
 10
0.0674881868369472
 20
2.0
 30
0.0
 11
-0.0650239386465408
 21
1.999956413414174
 31
0.0
  0
LINE
  5
1C1
330
1F
100
AcDbEntity
  8
0
  6
Continuous2
 62
     3
370
    -3
100
AcDbLine
 10
-0.0650239386465408
 20
1.999956413414174
 30
0.0
 11
-0.1150239386465408
 21
1.999956413414174
 31
0.0
  0
LINE
  5
1C2
330
1F
100
AcDbEntity
  8
0
  6
Continuous2
 62
     3
370
    -3
100
AcDbLine
 10
0.1000003159046173
 20
1.98335
 30
0.0
 11
0.2000003159046173
 21
2.0
 31
0.0
  0
LINE
  5
1C3
330
1F
100
AcDbEntity
  8
0
  6
Continuous2
 62
     3
370
    -3
100
AcDbLine
 10
0.1000003159046173
 20
2.01665
 30
0.0
 11
0.2000003159046173
 21
2.0
 31
0.0
  0
TEXT
  5
1C4
330
1F
100
AcDbEntity
  8
0
  6
Continuous2
 62
     3
370
    -3
100
AcDbText
 10
-0.9967900170779137
 20
1.949956413414174
 30
0.0
 40
0.1
  1
X -7.140, Y -2.000
 41
0.5
  7
MCStick_A0.500000_S0.000000
100
AcDbText
  0
LINE
  5
1C5
330
1F
100
AcDbEntity
  8
0
  6
Continuous2
 62
     3
370
    -3
100
AcDbLine
 10
1.102299843489676
 20
0.1850000023841858
 30
0.0
 11
1.164999961853027
 21
0.1850000023841858
 31
0.0
  0
LINE
  5
1C6
330
1F
100
AcDbEntity
  8
0
  6
Continuous2
 62
     3
370
    -3
100
AcDbLine
 10
1.102299843489676
 20
0.1850000023841858
 30
0.0
 11
1.039603076639812
 21
0.1859168174892588
 31
0.0
  0
LINE
  5
1C7
330
1F
100
AcDbEntity
  8
0
  6
Continuous2
 62
     3
370
    -3
100
AcDbLine
 10
1.039603076639812
 20
0.1859168174892588
 30
0.0
 11
0.9896030766398118
 21
0.1859168174892588
 31
0.0
  0
LINE
  5
1C8
330
1F
100
AcDbEntity
  8
0
  6
Continuous2
 62
     3
370
    -3
100
AcDbLine
 10
1.064999961853027
 20
0.1683500023841858
 30
0.0
 11
1.164999961853027
 21
0.1850000023841858
 31
0.0
  0
LINE
  5
1C9
330
1F
100
AcDbEntity
  8
0
  6
Continuous2
 62
     3
370
    -3
100
AcDbLine
 10
1.064999961853027
 20
0.2016500023841858
 30
0.0
 11
1.164999961853027
 21
0.1850000023841858
 31
0.0
  0
TEXT
  5
1CA
330
1F
100
AcDbEntity
  8
0
  6
Continuous2
 62
     3
370
    -3
100
AcDbText
 10
0.1327389589927527
 20
0.1359168174892588
 30
0.0
 40
0.1
  1
X -6.175, Y -3.815
 41
0.5
  7
MCStick_A0.500000_S0.000000
100
AcDbText
  0
LINE
  5
1CB
330
1F
100
AcDbEntity
  8
0
  6
Continuous2
 62
     3
370
    -3
100
AcDbLine
 10
2.557440559512083
 20
0.1850000470876694
 30
0.0
 11
2.475000381469727
 21
0.1850000470876694
 31
0.0
  0
LINE
  5
1CC
330
1F
100
AcDbEntity
  8
0
  6
Continuous2
 62
     3
370
    -3
100
AcDbLine
 10
2.557440559512083
 20
0.1850000470876694
 30
0.0
 11
2.639880737503523
 21
0.1849959495089465
 31
0.0
  0
LINE
  5
1CD
330
1F
100
AcDbEntity
  8
0
  6
Continuous2
 62
     3
370
    -3
100
AcDbLine
 10
2.639880737503523
 20
0.1849959495089465
 30
0.0
 11
2.689880737503523
 21
0.1849959495089465
 31
0.0
  0
LINE
  5
1CE
330
1F
100
AcDbEntity
  8
0
  6
Continuous2
 62
     3
370
    -3
100
AcDbLine
 10
2.575000381469727
 20
0.2016500470876694
 30
0.0
 11
2.475000381469727
 21
0.1850000470876694
 31
0.0
  0
LINE
  5
1CF
330
1F
100
AcDbEntity
  8
0
  6
Continuous2
 62
     3
370
    -3
100
AcDbLine
 10
2.575000381469727
 20
0.1683500470876693
 30
0.0
 11
2.475000381469727
 21
0.1850000470876694
 31
0.0
  0
TEXT
  5
1D0
330
1F
100
AcDbEntity
  8
0
  6
Continuous2
 62
     3
370
    -3
100
AcDbText
 10
2.711450737503523
 20
0.1349959495089465
 30
0.0
 40
0.1
  1
X -4.865, Y -3.815
 41
0.5
  7
MCStick_A0.500000_S0.000000
100
AcDbText
  0
ENDSEC
  0
SECTION
  2
OBJECTS
  0
DICTIONARY
  5
C
330
0
100
AcDbDictionary
281
     1
  3
ACAD_GROUP
350
D
  3
ACAD_LAYOUT
350
1A
  3
ACAD_MATERIAL
350
3B
  3
ACAD_MLEADERSTYLE
350
1F4
  3
ACAD_MLINESTYLE
350
17
  3
ACAD_PLOTSETTINGS
350
19
  3
ACAD_PLOTSTYLENAME
350
E
  3
ACAD_SCALELIST
350
14D
  3
ACAD_TABLESTYLE
350
1F3
  3
ACAD_VISUALSTYLE
350
2A
  3
AcDbVariableDictionary
350
1D1
  0
DICTIONARY
  5
D
102
{ACAD_REACTORS
330
C
102
}
330
C
100
AcDbDictionary
281
     1
  0
DICTIONARY
  5
1A
102
{ACAD_REACTORS
330
C
102
}
330
C
100
AcDbDictionary
281
     1
  3
Layout1
350
1E
  3
Layout2
350
26
  3
Model
350
22
  0
DICTIONARY
  5
3B
102
{ACAD_REACTORS
330
C
102
}
330
C
100
AcDbDictionary
281
     1
  3
ByBlock
350
3D
  3
ByLayer
350
3C
  3
Global
350
3E
  0
DICTIONARY
  5
1F4
102
{ACAD_REACTORS
330
C
102
}
330
C
100
AcDbDictionary
281
     1
  0
DICTIONARY
  5
17
102
{ACAD_REACTORS
330
C
102
}
330
C
100
AcDbDictionary
281
     1
  3
Standard
350
18
  0
DICTIONARY
  5
19
102
{ACAD_REACTORS
330
C
102
}
330
C
100
AcDbDictionary
281
     1
  0
ACDBDICTIONARYWDFLT
  5
E
102
{ACAD_REACTORS
330
C
102
}
330
C
100
AcDbDictionary
281
     1
  3
Normal
350
F
100
AcDbDictionaryWithDefault
340
F
  0
DICTIONARY
  5
14D
102
{ACAD_REACTORS
330
C
102
}
330
C
100
AcDbDictionary
281
     1
  3
A0
350
14E
  3
A1
350
14F
  3
A2
350
150
  3
A3
350
151
  3
A4
350
152
  3
A5
350
153
  3
A6
350
154
  3
A7
350
155
  3
A8
350
156
  3
A9
350
157
  3
B0
350
158
  3
B1
350
159
  3
B2
350
15A
  3
B3
350
15B
  3
B4
350
15C
  3
B5
350
15D
  3
B6
350
15E
  3
B7
350
15F
  3
B8
350
160
  3
B9
350
161
  3
C0
350
162
  3
C1
350
163
  3
C2
350
164
  3
C3
350
165
  3
C4
350
166
  3
C5
350
167
  3
C6
350
168
  3
C7
350
169
  3
C8
350
16A
  3
C9
350
16B
  3
D0
350
16C
  3
D1
350
16D
  3
D2
350
16E
  0
DICTIONARY
  5
1F3
102
{ACAD_REACTORS
330
C
102
}
330
C
100
AcDbDictionary
281
     1
  0
DICTIONARY
  5
2A
102
{ACAD_REACTORS
330
C
102
}
330
C
100
AcDbDictionary
281
     1
  3
2dWireframe
350
2F
  3
3D Hidden
350
31
  3
3dWireframe
350
30
  3
Basic
350
32
  3
Brighten
350
36
  3
ColorChange
350
3A
  3
Conceptual
350
34
  3
Dim
350
35
  3
Facepattern
350
39
  3
Flat
350
2B
  3
FlatWithEdges
350
2C
  3
Gouraud
350
2D
  3
GouraudWithEdges
350
2E
  3
Linepattern
350
38
  3
Realistic
350
33
  3
Thicken
350
37
  0
DICTIONARY
  5
1D1
102
{ACAD_REACTORS
330
C
102
}
330
C
100
AcDbDictionary
281
     1
  3
CANNOSCALE
350
1D2
  0
LAYOUT
  5
1E
102
{ACAD_REACTORS
330
1A
102
}
330
1A
100
AcDbPlotSettings
  1

  2
none_device
  4

  6

 40
0.0
 41
0.0
 42
0.0
 43
0.0
 44
0.0
 45
0.0
 46
0.0
 47
0.0
 48
0.0
 49
0.0
140
0.0
141
0.0
142
1.0
143
1.0
 70
   688
 72
     0
 73
     0
 74
     5
  7

 75
    16
 76
     0
 77
     2
 78
   300
147
1.0
148
0.0
149
0.0
100
AcDbLayout
  1
Layout1
 70
     1
 71
     1
 10
0.0
 20
0.0
 11
12.0
 21
9.0
 12
0.0
 22
0.0
 32
0.0
 14
1.000000000000000E+20
 24
1.000000000000000E+20
 34
1.000000000000000E+20
 15
-1.000000000000000E+20
 25
-1.000000000000000E+20
 35
-1.000000000000000E+20
146
0.0
 13
0.0
 23
0.0
 33
0.0
 16
1.0
 26
0.0
 36
0.0
 17
0.0
 27
1.0
 37
0.0
 76
     0
330
1B
  0
LAYOUT
  5
26
102
{ACAD_REACTORS
330
1A
102
}
330
1A
100
AcDbPlotSettings
  1

  2
none_device
  4

  6

 40
0.0
 41
0.0
 42
0.0
 43
0.0
 44
0.0
 45
0.0
 46
0.0
 47
0.0
 48
0.0
 49
0.0
140
0.0
141
0.0
142
1.0
143
1.0
 70
   688
 72
     0
 73
     0
 74
     5
  7

 75
    16
 76
     0
 77
     2
 78
   300
147
1.0
148
0.0
149
0.0
100
AcDbLayout
  1
Layout2
 70
     1
 71
     2
 10
0.0
 20
0.0
 11
0.0
 21
0.0
 12
0.0
 22
0.0
 32
0.0
 14
0.0
 24
0.0
 34
0.0
 15
0.0
 25
0.0
 35
0.0
146
0.0
 13
0.0
 23
0.0
 33
0.0
 16
1.0
 26
0.0
 36
0.0
 17
0.0
 27
1.0
 37
0.0
 76
     0
330
23
  0
LAYOUT
  5
22
102
{ACAD_REACTORS
330
1A
102
}
330
1A
100
AcDbPlotSettings
  1

  2
none_device
  4

  6

 40
0.0
 41
0.0
 42
0.0
 43
0.0
 44
0.0
 45
0.0
 46
0.0
 47
0.0
 48
0.0
 49
0.0
140
0.0
141
0.0
142
1.0
143
1.0
 70
  1712
 72
     0
 73
     0
 74
     0
  7

 75
     0
 76
     0
 77
     2
 78
   300
147
1.0
148
0.0
149
0.0
100
AcDbLayout
  1
Model
 70
     1
 71
     0
 10
0.0
 20
0.0
 11
12.0
 21
9.0
 12
0.0
 22
0.0
 32
0.0
 14
1.000000000000000E+20
 24
1.000000000000000E+20
 34
1.000000000000000E+20
 15
-1.000000000000000E+20
 25
-1.000000000000000E+20
 35
-1.000000000000000E+20
146
0.0
 13
0.0
 23
0.0
 33
0.0
 16
1.0
 26
0.0
 36
0.0
 17
0.0
 27
1.0
 37
0.0
 76
     0
330
1F
331
29
  0
MATERIAL
  5
3D
102
{ACAD_REACTORS
330
3B
102
}
330
3B
100
AcDbMaterial
  1
ByBlock
 72
     1
 94
      127
  0
MATERIAL
  5
3C
102
{ACAD_REACTORS
330
3B
102
}
330
3B
100
AcDbMaterial
  1
ByLayer
 72
     1
 94
      127
  0
MATERIAL
  5
3E
102
{ACAD_REACTORS
330
3B
102
}
330
3B
100
AcDbMaterial
  1
Global
 72
     1
 94
      127
  0
MLINESTYLE
  5
18
102
{ACAD_REACTORS
330
17
102
}
330
17
100
AcDbMlineStyle
  2
Standard
 70
     0
  3

 62
   256
 51
90.0
 52
90.0
 71
     2
 49
0.5
 62
   256
  6
BYLAYER
 49
-0.5
 62
   256
  6
BYLAYER
  0
ACDBPLACEHOLDER
  5
F
102
{ACAD_REACTORS
330
E
102
}
330
E
  0
SCALE
  5
14E
102
{ACAD_REACTORS
330
14D
102
}
330
14D
100
AcDbScale
 70
     0
300
1:1
140
1.0
141
1.0
290
     1
  0
SCALE
  5
14F
102
{ACAD_REACTORS
330
14D
102
}
330
14D
100
AcDbScale
 70
     0
300
1:2
140
1.0
141
2.0
290
     0
  0
SCALE
  5
150
102
{ACAD_REACTORS
330
14D
102
}
330
14D
100
AcDbScale
 70
     0
300
1:4
140
1.0
141
4.0
290
     0
  0
SCALE
  5
151
102
{ACAD_REACTORS
330
14D
102
}
330
14D
100
AcDbScale
 70
     0
300
1:5
140
1.0
141
5.0
290
     0
  0
SCALE
  5
152
102
{ACAD_REACTORS
330
14D
102
}
330
14D
100
AcDbScale
 70
     0
300
1:8
140
1.0
141
8.0
290
     0
  0
SCALE
  5
153
102
{ACAD_REACTORS
330
14D
102
}
330
14D
100
AcDbScale
 70
     0
300
1:10
140
1.0
141
10.0
290
     0
  0
SCALE
  5
154
102
{ACAD_REACTORS
330
14D
102
}
330
14D
100
AcDbScale
 70
     0
300
1:16
140
1.0
141
16.0
290
     0
  0
SCALE
  5
155
102
{ACAD_REACTORS
330
14D
102
}
330
14D
100
AcDbScale
 70
     0
300
1:20
140
1.0
141
20.0
290
     0
  0
SCALE
  5
156
102
{ACAD_REACTORS
330
14D
102
}
330
14D
100
AcDbScale
 70
     0
300
1:30
140
1.0
141
30.0
290
     0
  0
SCALE
  5
157
102
{ACAD_REACTORS
330
14D
102
}
330
14D
100
AcDbScale
 70
     0
300
1:40
140
1.0
141
40.0
290
     0
  0
SCALE
  5
158
102
{ACAD_REACTORS
330
14D
102
}
330
14D
100
AcDbScale
 70
     0
300
1:50
140
1.0
141
50.0
290
     0
  0
SCALE
  5
159
102
{ACAD_REACTORS
330
14D
102
}
330
14D
100
AcDbScale
 70
     0
300
1:100
140
1.0
141
100.0
290
     0
  0
SCALE
  5
15A
102
{ACAD_REACTORS
330
14D
102
}
330
14D
100
AcDbScale
 70
     0
300
2:1
140
2.0
141
1.0
290
     0
  0
SCALE
  5
15B
102
{ACAD_REACTORS
330
14D
102
}
330
14D
100
AcDbScale
 70
     0
300
4:1
140
4.0
141
1.0
290
     0
  0
SCALE
  5
15C
102
{ACAD_REACTORS
330
14D
102
}
330
14D
100
AcDbScale
 70
     0
300
8:1
140
8.0
141
1.0
290
     0
  0
SCALE
  5
15D
102
{ACAD_REACTORS
330
14D
102
}
330
14D
100
AcDbScale
 70
     0
300
10:1
140
10.0
141
1.0
290
     0
  0
SCALE
  5
15E
102
{ACAD_REACTORS
330
14D
102
}
330
14D
100
AcDbScale
 70
     0
300
100:1
140
100.0
141
1.0
290
     0
  0
SCALE
  5
15F
102
{ACAD_REACTORS
330
14D
102
}
330
14D
100
AcDbScale
 70
     0
300
1/128" = 1'-0"
140
0.0078125
141
12.0
290
     0
  0
SCALE
  5
160
102
{ACAD_REACTORS
330
14D
102
}
330
14D
100
AcDbScale
 70
     0
300
1/64" = 1'-0"
140
0.015625
141
12.0
290
     0
  0
SCALE
  5
161
102
{ACAD_REACTORS
330
14D
102
}
330
14D
100
AcDbScale
 70
     0
300
1/32" = 1'-0"
140
0.03125
141
12.0
290
     0
  0
SCALE
  5
162
102
{ACAD_REACTORS
330
14D
102
}
330
14D
100
AcDbScale
 70
     0
300
1/16" = 1'-0"
140
0.0625
141
12.0
290
     0
  0
SCALE
  5
163
102
{ACAD_REACTORS
330
14D
102
}
330
14D
100
AcDbScale
 70
     0
300
3/32" = 1'-0"
140
0.09375
141
12.0
290
     0
  0
SCALE
  5
164
102
{ACAD_REACTORS
330
14D
102
}
330
14D
100
AcDbScale
 70
     0
300
1/8" = 1'-0"
140
0.125
141
12.0
290
     0
  0
SCALE
  5
165
102
{ACAD_REACTORS
330
14D
102
}
330
14D
100
AcDbScale
 70
     0
300
3/16" = 1'-0"
140
0.1875
141
12.0
290
     0
  0
SCALE
  5
166
102
{ACAD_REACTORS
330
14D
102
}
330
14D
100
AcDbScale
 70
     0
300
1/4" = 1'-0"
140
0.25
141
12.0
290
     0
  0
SCALE
  5
167
102
{ACAD_REACTORS
330
14D
102
}
330
14D
100
AcDbScale
 70
     0
300
3/8" = 1'-0"
140
0.375
141
12.0
290
     0
  0
SCALE
  5
168
102
{ACAD_REACTORS
330
14D
102
}
330
14D
100
AcDbScale
 70
     0
300
1/2" = 1'-0"
140
0.5
141
12.0
290
     0
  0
SCALE
  5
169
102
{ACAD_REACTORS
330
14D
102
}
330
14D
100
AcDbScale
 70
     0
300
3/4" = 1'-0"
140
0.75
141
12.0
290
     0
  0
SCALE
  5
16A
102
{ACAD_REACTORS
330
14D
102
}
330
14D
100
AcDbScale
 70
     0
300
1" = 1'-0"
140
1.0
141
12.0
290
     0
  0
SCALE
  5
16B
102
{ACAD_REACTORS
330
14D
102
}
330
14D
100
AcDbScale
 70
     0
300
1-1/2" = 1'-0"
140
1.5
141
12.0
290
     0
  0
SCALE
  5
16C
102
{ACAD_REACTORS
330
14D
102
}
330
14D
100
AcDbScale
 70
     0
300
3" = 1'-0"
140
3.0
141
12.0
290
     0
  0
SCALE
  5
16D
102
{ACAD_REACTORS
330
14D
102
}
330
14D
100
AcDbScale
 70
     0
300
6" = 1'-0"
140
6.0
141
12.0
290
     0
  0
SCALE
  5
16E
102
{ACAD_REACTORS
330
14D
102
}
330
14D
100
AcDbScale
 70
     0
300
1'-0" = 1'-0"
140
12.0
141
12.0
290
     0
  0
VISUALSTYLE
  5
2F
102
{ACAD_REACTORS
330
2A
102
}
102
{ACAD_XDICTIONARY
360
1DB
102
}
330
2A
100
AcDbVisualStyle
  2
2dWireframe
 70
     4
 71
     0
 72
     2
 73
     0
 90
        0
 40
-0.6
 41
-30.0
 62
     5
 63
     7
421
 16777215
 74
     1
 91
        4
 64
     7
 65
   257
 75
     1
175
     1
 42
1.0
 92
        0
 66
   257
 43
1.0
 76
     1
 77
     6
 78
     2
 67
     7
 79
     5
170
     0
171
     0
290
     0
174
     0
 93
        1
 44
0.0
173
     0
291
     0
 45
0.0
  0
VISUALSTYLE
  5
31
102
{ACAD_REACTORS
330
2A
102
}
102
{ACAD_XDICTIONARY
360
1DF
102
}
330
2A
100
AcDbVisualStyle
  2
3D Hidden
 70
     6
 71
     1
 72
     2
 73
     2
 90
        0
 40
-0.6
 41
-30.0
 62
     5
 63
     7
421
 16777215
 74
     2
 91
        2
 64
     7
 65
   257
 75
     2
175
     1
 42
40.0
 92
        0
 66
   257
 43
1.0
 76
     1
 77
     6
 78
     2
 67
     7
 79
     3
170
     0
171
     0
290
     0
174
     0
 93
        1
 44
0.0
173
     0
291
     0
 45
0.0
  0
VISUALSTYLE
  5
30
102
{ACAD_REACTORS
330
2A
102
}
102
{ACAD_XDICTIONARY
360
1DD
102
}
330
2A
100
AcDbVisualStyle
  2
3dWireframe
 70
     5
 71
     0
 72
     2
 73
     0
 90
        0
 40
-0.6
 41
-30.0
 62
     5
 63
     7
421
 16777215
 74
     1
 91
        4
 64
     7
 65
   257
 75
     1
175
     1
 42
1.0
 92
        0
 66
   257
 43
1.0
 76
     1
 77
     6
 78
     2
 67
     7
 79
     5
170
     0
171
     0
290
     0
174
     0
 93
        1
 44
0.0
173
     0
291
     0
 45
0.0
  0
VISUALSTYLE
  5
32
102
{ACAD_REACTORS
330
2A
102
}
102
{ACAD_XDICTIONARY
360
1E1
102
}
330
2A
100
AcDbVisualStyle
  2
Basic
 70
     7
 71
     1
 72
     0
 73
     1
 90
        0
 40
-0.6
 41
-30.0
 62
     5
 63
     7
421
 16777215
 74
     0
 91
        4
 64
     7
 65
   257
 75
     1
175
     1
 42
1.0
 92
        8
 66
     7
 43
1.0
 76
     1
 77
     6
 78
     2
 67
     7
 79
     5
170
     0
171
     0
290
     0
174
     0
 93
        1
 44
0.0
173
     0
291
     1
 45
0.0
  0
VISUALSTYLE
  5
36
102
{ACAD_REACTORS
330
2A
102
}
102
{ACAD_XDICTIONARY
360
1E9
102
}
330
2A
100
AcDbVisualStyle
  2
Brighten
 70
    12
 71
     2
 72
     2
 73
     0
 90
        0
 40
-0.6
 41
-30.0
 62
     5
 63
     7
421
 16777215
 74
     1
 91
        4
 64
     7
 65
   257
 75
     1
175
     1
 42
1.0
 92
        8
 66
     7
 43
1.0
 76
     1
 77
     6
 78
     2
 67
     7
 79
     5
170
     0
171
     0
290
     0
174
     0
 93
        1
 44
50.0
173
     0
291
     1
 45
0.0
  0
VISUALSTYLE
  5
3A
102
{ACAD_REACTORS
330
2A
102
}
102
{ACAD_XDICTIONARY
360
1F1
102
}
330
2A
100
AcDbVisualStyle
  2
ColorChange
 70
    16
 71
     2
 72
     2
 73
     3
 90
        0
 40
-0.6
 41
-30.0
 62
     5
 63
     8
421
  8421504
 74
     1
 91
        4
 64
     7
 65
   257
 75
     1
175
     1
 42
1.0
 92
        8
 66
     8
424
  8421504
 43
1.0
 76
     1
 77
     6
 78
     2
 67
     7
 79
     5
170
     0
171
     0
290
     0
174
     0
 93
        1
 44
0.0
173
     0
291
     1
 45
0.0
  0
VISUALSTYLE
  5
34
102
{ACAD_REACTORS
330
2A
102
}
102
{ACAD_XDICTIONARY
360
1E5
102
}
330
2A
100
AcDbVisualStyle
  2
Conceptual
 70
     9
 71
     3
 72
     2
 73
     0
 90
        0
 40
-0.6
 41
-30.0
 62
     5
 63
     7
421
 16777215
 74
     2
 91
        2
 64
     7
 65
   257
 75
     1
175
     1
 42
40.0
 92
        8
 66
     7
 43
1.0
 76
     1
 77
     6
 78
     2
 67
     7
 79
     3
170
     0
171
     0
290
     0
174
     0
 93
        1
 44
0.0
173
     0
291
     0
 45
0.0
  0
VISUALSTYLE
  5
35
102
{ACAD_REACTORS
330
2A
102
}
102
{ACAD_XDICTIONARY
360
1E7
102
}
330
2A
100
AcDbVisualStyle
  2
Dim
 70
    11
 71
     2
 72
     2
 73
     0
 90
        0
 40
-0.6
 41
-30.0
 62
     5
 63
     7
421
 16777215
 74
     1
 91
        4
 64
     7
 65
   257
 75
     1
175
     1
 42
1.0
 92
        8
 66
     7
 43
1.0
 76
     1
 77
     6
 78
     2
 67
     7
 79
     5
170
     0
171
     0
290
     0
174
     0
 93
        1
 44
-50.0
173
     0
291
     1
 45
0.0
  0
VISUALSTYLE
  5
39
102
{ACAD_REACTORS
330
2A
102
}
102
{ACAD_XDICTIONARY
360
1EF
102
}
330
2A
100
AcDbVisualStyle
  2
Facepattern
 70
    15
 71
     2
 72
     2
 73
     0
 90
        0
 40
-0.6
 41
-30.0
 62
     5
 63
     7
421
 16777215
 74
     1
 91
        4
 64
     7
 65
   257
 75
     1
175
     1
 42
1.0
 92
        8
 66
     7
 43
1.0
 76
     1
 77
     6
 78
     2
 67
     7
 79
     5
170
     0
171
     0
290
     0
174
     0
 93
        1
 44
0.0
173
     0
291
     1
 45
0.0
  0
VISUALSTYLE
  5
2B
102
{ACAD_REACTORS
330
2A
102
}
102
{ACAD_XDICTIONARY
360
1D3
102
}
330
2A
100
AcDbVisualStyle
  2
Flat
 70
     0
 71
     2
 72
     1
 73
     1
 90
        2
 40
-0.6
 41
30.0
 62
     5
 63
     7
421
 16777215
 74
     0
 91
        4
 64
     7
 65
   257
 75
     1
175
     1
 42
1.0
 92
        8
 66
     7
 43
1.0
 76
     1
 77
     6
 78
     2
 67
     7
 79
     5
170
     0
171
     0
290
     0
174
     0
 93
       13
 44
0.0
173
     0
291
     1
 45
0.0
  0
VISUALSTYLE
  5
2C
102
{ACAD_REACTORS
330
2A
102
}
102
{ACAD_XDICTIONARY
360
1D5
102
}
330
2A
100
AcDbVisualStyle
  2
FlatWithEdges
 70
     1
 71
     2
 72
     1
 73
     1
 90
        2
 40
-0.6
 41
30.0
 62
     5
 63
     7
421
 16777215
 74
     1
 91
        4
 64
     7
 65
   257
 75
     1
175
     1
 42
1.0
 92
        0
 66
   257
 43
1.0
 76
     1
 77
     6
 78
     2
 67
     7
 79
     5
170
     0
171
     0
290
     0
174
     0
 93
       13
 44
0.0
173
     0
291
     1
 45
0.0
  0
VISUALSTYLE
  5
2D
102
{ACAD_REACTORS
330
2A
102
}
102
{ACAD_XDICTIONARY
360
1D7
102
}
330
2A
100
AcDbVisualStyle
  2
Gouraud
 70
     2
 71
     2
 72
     2
 73
     1
 90
        2
 40
-0.6
 41
30.0
 62
     5
 63
     7
421
 16777215
 74
     0
 91
        4
 64
     7
 65
   257
 75
     1
175
     1
 42
1.0
 92
        0
 66
     7
 43
1.0
 76
     1
 77
     6
 78
     2
 67
     7
 79
     5
170
     0
171
     0
290
     0
174
     0
 93
       13
 44
0.0
173
     0
291
     1
 45
0.0
  0
VISUALSTYLE
  5
2E
102
{ACAD_REACTORS
330
2A
102
}
102
{ACAD_XDICTIONARY
360
1D9
102
}
330
2A
100
AcDbVisualStyle
  2
GouraudWithEdges
 70
     3
 71
     2
 72
     2
 73
     1
 90
        2
 40
-0.6
 41
30.0
 62
     5
 63
     7
421
 16777215
 74
     1
 91
        4
 64
     7
 65
   257
 75
     1
175
     1
 42
1.0
 92
        0
 66
   257
 43
1.0
 76
     1
 77
     6
 78
     2
 67
     7
 79
     5
170
     0
171
     0
290
     0
174
     0
 93
       13
 44
0.0
173
     0
291
     1
 45
0.0
  0
VISUALSTYLE
  5
38
102
{ACAD_REACTORS
330
2A
102
}
102
{ACAD_XDICTIONARY
360
1ED
102
}
330
2A
100
AcDbVisualStyle
  2
Linepattern
 70
    14
 71
     2
 72
     2
 73
     0
 90
        0
 40
-0.6
 41
-30.0
 62
     5
 63
     7
421
 16777215
 74
     1
 91
        4
 64
     7
 65
   257
 75
     7
175
     7
 42
1.0
 92
        8
 66
     7
 43
1.0
 76
     1
 77
     6
 78
     2
 67
     7
 79
     5
170
     0
171
     0
290
     0
174
     0
 93
        1
 44
0.0
173
     0
291
     1
 45
0.0
  0
VISUALSTYLE
  5
33
102
{ACAD_REACTORS
330
2A
102
}
102
{ACAD_XDICTIONARY
360
1E3
102
}
330
2A
100
AcDbVisualStyle
  2
Realistic
 70
     8
 71
     2
 72
     2
 73
     0
 90
        0
 40
-0.6
 41
-30.0
 62
     5
 63
     7
421
 16777215
 74
     1
 91
        0
 64
     7
 65
   257
 75
     1
175
     1
 42
1.0
 92
        8
 66
     8
424
  7895160
 43
1.0
 76
     1
 77
     6
 78
     2
 67
     7
 79
     5
170
     0
171
     0
290
     0
174
     0
 93
       13
 44
0.0
173
     0
291
     0
 45
0.0
  0
VISUALSTYLE
  5
37
102
{ACAD_REACTORS
330
2A
102
}
102
{ACAD_XDICTIONARY
360
1EB
102
}
330
2A
100
AcDbVisualStyle
  2
Thicken
 70
    13
 71
     2
 72
     2
 73
     0
 90
        0
 40
-0.6
 41
-30.0
 62
     5
 63
     7
421
 16777215
 74
     1
 91
        4
 64
     7
 65
   257
 75
     1
175
     1
 42
1.0
 92
       12
 66
     7
 43
1.0
 76
     1
 77
     6
 78
     2
 67
     7
 79
     5
170
     0
171
     0
290
     0
174
     0
 93
        1
 44
0.0
173
     0
291
     1
 45
0.0
  0
DICTIONARYVAR
  5
1D2
102
{ACAD_REACTORS
330
1D1
102
}
330
1D1
100
DictionaryVariables
280
     0
  1
1:1
  0
DICTIONARY
  5
1DB
330
2F
100
AcDbDictionary
280
     1
281
     1
  3
ACAD_XREC_ROUNDTRIP
360
1DC
  0
DICTIONARY
  5
1DF
330
31
100
AcDbDictionary
280
     1
281
     1
  3
ACAD_XREC_ROUNDTRIP
360
1E0
  0
DICTIONARY
  5
1DD
330
30
100
AcDbDictionary
280
     1
281
     1
  3
ACAD_XREC_ROUNDTRIP
360
1DE
  0
DICTIONARY
  5
1E1
330
32
100
AcDbDictionary
280
     1
281
     1
  3
ACAD_XREC_ROUNDTRIP
360
1E2
  0
DICTIONARY
  5
1E9
330
36
100
AcDbDictionary
280
     1
281
     1
  3
ACAD_XREC_ROUNDTRIP
360
1EA
  0
DICTIONARY
  5
1F1
330
3A
100
AcDbDictionary
280
     1
281
     1
  3
ACAD_XREC_ROUNDTRIP
360
1F2
  0
DICTIONARY
  5
1E5
330
34
100
AcDbDictionary
280
     1
281
     1
  3
ACAD_XREC_ROUNDTRIP
360
1E6
  0
DICTIONARY
  5
1E7
330
35
100
AcDbDictionary
280
     1
281
     1
  3
ACAD_XREC_ROUNDTRIP
360
1E8
  0
DICTIONARY
  5
1EF
330
39
100
AcDbDictionary
280
     1
281
     1
  3
ACAD_XREC_ROUNDTRIP
360
1F0
  0
DICTIONARY
  5
1D3
330
2B
100
AcDbDictionary
280
     1
281
     1
  3
ACAD_XREC_ROUNDTRIP
360
1D4
  0
DICTIONARY
  5
1D5
330
2C
100
AcDbDictionary
280
     1
281
     1
  3
ACAD_XREC_ROUNDTRIP
360
1D6
  0
DICTIONARY
  5
1D7
330
2D
100
AcDbDictionary
280
     1
281
     1
  3
ACAD_XREC_ROUNDTRIP
360
1D8
  0
DICTIONARY
  5
1D9
330
2E
100
AcDbDictionary
280
     1
281
     1
  3
ACAD_XREC_ROUNDTRIP
360
1DA
  0
DICTIONARY
  5
1ED
330
38
100
AcDbDictionary
280
     1
281
     1
  3
ACAD_XREC_ROUNDTRIP
360
1EE
  0
DICTIONARY
  5
1E3
330
33
100
AcDbDictionary
280
     1
281
     1
  3
ACAD_XREC_ROUNDTRIP
360
1E4
  0
DICTIONARY
  5
1EB
330
37
100
AcDbDictionary
280
     1
281
     1
  3
ACAD_XREC_ROUNDTRIP
360
1EC
  0
XRECORD
  5
1DC
102
{ACAD_REACTORS
330
1DB
102
}
330
1DB
100
AcDbXrecord
280
     1
102
RTVSPropertyOp0
 70
     1
102
RTVSPropertyOp1
 70
     1
102
RTVSPropertyOp2
 70
     1
102
RTVSPropertyOp3
 70
     1
102
RTVSPropertyOp4
 70
     1
102
RTVSPropertyOp5
 70
     1
102
RTVSPropertyOp6
 70
     1
102
RTVSPropertyOp7
 70
     1
102
RTVSPropertyOp8
 70
     1
102
RTVSPropertyOp9
 70
     1
102
RTVSPropertyOp10
 70
     1
102
RTVSPropertyOp11
 70
     1
102
RTVSPropertyOp12
 70
     1
102
RTVSPropertyOp13
 70
     1
102
RTVSPropertyOp14
 70
     1
102
RTVSPropertyOp15
 70
     1
102
RTVSPropertyOp16
 70
     1
102
RTVSPropertyOp17
 70
     1
102
RTVSPropertyOp18
 70
     1
102
RTVSPropertyOp19
 70
     1
102
RTVSPropertyOp20
 70
     1
102
RTVSPropertyOp21
 70
     1
102
RTVSPropertyOp22
 70
     1
102
RTVSPropertyOp23
 70
     1
102
RTVSPropertyOp24
 70
     1
102
RTVSPropertyOp25
 70
     1
102
RTVSPropertyOp26
 70
     1
102
RTVSPropertyOp27
 70
     1
  0
XRECORD
  5
1E0
102
{ACAD_REACTORS
330
1DF
102
}
330
1DF
100
AcDbXrecord
280
     1
102
RTVSPropertyOp0
 70
     1
102
RTVSPropertyOp1
 70
     1
102
RTVSPropertyOp2
 70
     1
102
RTVSPropertyOp3
 70
     1
102
RTVSPropertyOp4
 70
     1
102
RTVSPropertyOp5
 70
     1
102
RTVSPropertyOp6
 70
     1
102
RTVSPropertyOp7
 70
     1
102
RTVSPropertyOp8
 70
     1
102
RTVSPropertyOp9
 70
     1
102
RTVSPropertyOp10
 70
     1
102
RTVSPropertyOp11
 70
     1
102
RTVSPropertyOp12
 70
     1
102
RTVSPropertyOp13
 70
     1
102
RTVSPropertyOp14
 70
     1
102
RTVSPropertyOp15
 70
     1
102
RTVSPropertyOp16
 70
     1
102
RTVSPropertyOp17
 70
     1
102
RTVSPropertyOp18
 70
     1
102
RTVSPropertyOp19
 70
     1
102
RTVSPropertyOp20
 70
     1
102
RTVSPropertyOp21
 70
     1
102
RTVSPropertyOp22
 70
     1
102
RTVSPropertyOp23
 70
     1
102
RTVSPropertyOp24
 70
     1
102
RTVSPropertyOp25
 70
     1
102
RTVSPropertyOp26
 70
     1
102
RTVSPropertyOp27
 70
     1
  0
XRECORD
  5
1DE
102
{ACAD_REACTORS
330
1DD
102
}
330
1DD
100
AcDbXrecord
280
     1
102
RTVSPropertyOp0
 70
     1
102
RTVSPropertyOp1
 70
     1
102
RTVSPropertyOp2
 70
     1
102
RTVSPropertyOp3
 70
     1
102
RTVSPropertyOp4
 70
     1
102
RTVSPropertyOp5
 70
     1
102
RTVSPropertyOp6
 70
     1
102
RTVSPropertyOp7
 70
     1
102
RTVSPropertyOp8
 70
     1
102
RTVSPropertyOp9
 70
     1
102
RTVSPropertyOp10
 70
     1
102
RTVSPropertyOp11
 70
     1
102
RTVSPropertyOp12
 70
     1
102
RTVSPropertyOp13
 70
     1
102
RTVSPropertyOp14
 70
     1
102
RTVSPropertyOp15
 70
     1
102
RTVSPropertyOp16
 70
     1
102
RTVSPropertyOp17
 70
     1
102
RTVSPropertyOp18
 70
     1
102
RTVSPropertyOp19
 70
     1
102
RTVSPropertyOp20
 70
     1
102
RTVSPropertyOp21
 70
     1
102
RTVSPropertyOp22
 70
     1
102
RTVSPropertyOp23
 70
     1
102
RTVSPropertyOp24
 70
     1
102
RTVSPropertyOp25
 70
     1
102
RTVSPropertyOp26
 70
     1
102
RTVSPropertyOp27
 70
     1
  0
XRECORD
  5
1E2
102
{ACAD_REACTORS
330
1E1
102
}
330
1E1
100
AcDbXrecord
280
     1
102
RTVSPropertyOp0
 70
     1
102
RTVSPropertyOp1
 70
     1
102
RTVSPropertyOp2
 70
     1
102
RTVSPropertyOp3
 70
     1
102
RTVSPropertyOp4
 70
     1
102
RTVSPropertyOp5
 70
     1
102
RTVSPropertyOp6
 70
     1
102
RTVSPropertyOp7
 70
     1
102
RTVSPropertyOp8
 70
     1
102
RTVSPropertyOp9
 70
     1
102
RTVSPropertyOp10
 70
     1
102
RTVSPropertyOp11
 70
     1
102
RTVSPropertyOp12
 70
     1
102
RTVSPropertyOp13
 70
     1
102
RTVSPropertyOp14
 70
     1
102
RTVSPropertyOp15
 70
     1
102
RTVSPropertyOp16
 70
     1
102
RTVSPropertyOp17
 70
     1
102
RTVSPropertyOp18
 70
     1
102
RTVSPropertyOp19
 70
     1
102
RTVSPropertyOp20
 70
     1
102
RTVSPropertyOp21
 70
     1
102
RTVSPropertyOp22
 70
     1
102
RTVSPropertyOp23
 70
     1
102
RTVSPropertyOp24
 70
     1
102
RTVSPropertyOp25
 70
     1
102
RTVSPropertyOp26
 70
     1
102
RTVSPropertyOp27
 70
     1
  0
XRECORD
  5
1EA
102
{ACAD_REACTORS
330
1E9
102
}
330
1E9
100
AcDbXrecord
280
     1
102
RTVSPropertyOp0
 70
     1
102
RTVSPropertyOp1
 70
     1
102
RTVSPropertyOp2
 70
     1
102
RTVSPropertyOp3
 70
     1
102
RTVSPropertyOp4
 70
     1
102
RTVSPropertyOp5
 70
     1
102
RTVSPropertyOp6
 70
     1
102
RTVSPropertyOp7
 70
     1
102
RTVSPropertyOp8
 70
     1
102
RTVSPropertyOp9
 70
     1
102
RTVSPropertyOp10
 70
     1
102
RTVSPropertyOp11
 70
     1
102
RTVSPropertyOp12
 70
     1
102
RTVSPropertyOp13
 70
     1
102
RTVSPropertyOp14
 70
     1
102
RTVSPropertyOp15
 70
     1
102
RTVSPropertyOp16
 70
     1
102
RTVSPropertyOp17
 70
     1
102
RTVSPropertyOp18
 70
     1
102
RTVSPropertyOp19
 70
     1
102
RTVSPropertyOp20
 70
     1
102
RTVSPropertyOp21
 70
     1
102
RTVSPropertyOp22
 70
     1
102
RTVSPropertyOp23
 70
     1
102
RTVSPropertyOp24
 70
     1
102
RTVSPropertyOp25
 70
     1
102
RTVSPropertyOp26
 70
     1
102
RTVSPropertyOp27
 70
     1
  0
XRECORD
  5
1F2
102
{ACAD_REACTORS
330
1F1
102
}
330
1F1
100
AcDbXrecord
280
     1
102
RTVSPropertyOp0
 70
     1
102
RTVSPropertyOp1
 70
     1
102
RTVSPropertyOp2
 70
     1
102
RTVSPropertyOp3
 70
     1
102
RTVSPropertyOp4
 70
     1
102
RTVSPropertyOp5
 70
     1
102
RTVSPropertyOp6
 70
     1
102
RTVSPropertyOp7
 70
     1
102
RTVSPropertyOp8
 70
     1
102
RTVSPropertyOp9
 70
     1
102
RTVSPropertyOp10
 70
     1
102
RTVSPropertyOp11
 70
     1
102
RTVSPropertyOp12
 70
     1
102
RTVSPropertyOp13
 70
     1
102
RTVSPropertyOp14
 70
     1
102
RTVSPropertyOp15
 70
     1
102
RTVSPropertyOp16
 70
     1
102
RTVSPropertyOp17
 70
     1
102
RTVSPropertyOp18
 70
     1
102
RTVSPropertyOp19
 70
     1
102
RTVSPropertyOp20
 70
     1
102
RTVSPropertyOp21
 70
     1
102
RTVSPropertyOp22
 70
     1
102
RTVSPropertyOp23
 70
     1
102
RTVSPropertyOp24
 70
     1
102
RTVSPropertyOp25
 70
     1
102
RTVSPropertyOp26
 70
     1
102
RTVSPropertyOp27
 70
     1
  0
XRECORD
  5
1E6
102
{ACAD_REACTORS
330
1E5
102
}
330
1E5
100
AcDbXrecord
280
     1
102
RTVSPropertyOp0
 70
     1
102
RTVSPropertyOp1
 70
     1
102
RTVSPropertyOp2
 70
     1
102
RTVSPropertyOp3
 70
     1
102
RTVSPropertyOp4
 70
     1
102
RTVSPropertyOp5
 70
     1
102
RTVSPropertyOp6
 70
     1
102
RTVSPropertyOp7
 70
     1
102
RTVSPropertyOp8
 70
     1
102
RTVSPropertyOp9
 70
     1
102
RTVSPropertyOp10
 70
     1
102
RTVSPropertyOp11
 70
     1
102
RTVSPropertyOp12
 70
     1
102
RTVSPropertyOp13
 70
     1
102
RTVSPropertyOp14
 70
     1
102
RTVSPropertyOp15
 70
     1
102
RTVSPropertyOp16
 70
     1
102
RTVSPropertyOp17
 70
     1
102
RTVSPropertyOp18
 70
     1
102
RTVSPropertyOp19
 70
     1
102
RTVSPropertyOp20
 70
     1
102
RTVSPropertyOp21
 70
     1
102
RTVSPropertyOp22
 70
     1
102
RTVSPropertyOp23
 70
     1
102
RTVSPropertyOp24
 70
     1
102
RTVSPropertyOp25
 70
     1
102
RTVSPropertyOp26
 70
     1
102
RTVSPropertyOp27
 70
     1
  0
XRECORD
  5
1E8
102
{ACAD_REACTORS
330
1E7
102
}
330
1E7
100
AcDbXrecord
280
     1
102
RTVSPropertyOp0
 70
     1
102
RTVSPropertyOp1
 70
     1
102
RTVSPropertyOp2
 70
     1
102
RTVSPropertyOp3
 70
     1
102
RTVSPropertyOp4
 70
     1
102
RTVSPropertyOp5
 70
     1
102
RTVSPropertyOp6
 70
     1
102
RTVSPropertyOp7
 70
     1
102
RTVSPropertyOp8
 70
     1
102
RTVSPropertyOp9
 70
     1
102
RTVSPropertyOp10
 70
     1
102
RTVSPropertyOp11
 70
     1
102
RTVSPropertyOp12
 70
     1
102
RTVSPropertyOp13
 70
     1
102
RTVSPropertyOp14
 70
     1
102
RTVSPropertyOp15
 70
     1
102
RTVSPropertyOp16
 70
     1
102
RTVSPropertyOp17
 70
     1
102
RTVSPropertyOp18
 70
     1
102
RTVSPropertyOp19
 70
     1
102
RTVSPropertyOp20
 70
     1
102
RTVSPropertyOp21
 70
     1
102
RTVSPropertyOp22
 70
     1
102
RTVSPropertyOp23
 70
     1
102
RTVSPropertyOp24
 70
     1
102
RTVSPropertyOp25
 70
     1
102
RTVSPropertyOp26
 70
     1
102
RTVSPropertyOp27
 70
     1
  0
XRECORD
  5
1F0
102
{ACAD_REACTORS
330
1EF
102
}
330
1EF
100
AcDbXrecord
280
     1
102
RTVSPropertyOp0
 70
     1
102
RTVSPropertyOp1
 70
     1
102
RTVSPropertyOp2
 70
     1
102
RTVSPropertyOp3
 70
     1
102
RTVSPropertyOp4
 70
     1
102
RTVSPropertyOp5
 70
     1
102
RTVSPropertyOp6
 70
     1
102
RTVSPropertyOp7
 70
     1
102
RTVSPropertyOp8
 70
     1
102
RTVSPropertyOp9
 70
     1
102
RTVSPropertyOp10
 70
     1
102
RTVSPropertyOp11
 70
     1
102
RTVSPropertyOp12
 70
     1
102
RTVSPropertyOp13
 70
     1
102
RTVSPropertyOp14
 70
     1
102
RTVSPropertyOp15
 70
     1
102
RTVSPropertyOp16
 70
     1
102
RTVSPropertyOp17
 70
     1
102
RTVSPropertyOp18
 70
     1
102
RTVSPropertyOp19
 70
     1
102
RTVSPropertyOp20
 70
     1
102
RTVSPropertyOp21
 70
     1
102
RTVSPropertyOp22
 70
     1
102
RTVSPropertyOp23
 70
     1
102
RTVSPropertyOp24
 70
     1
102
RTVSPropertyOp25
 70
     1
102
RTVSPropertyOp26
 70
     1
102
RTVSPropertyOp27
 70
     1
  0
XRECORD
  5
1D4
102
{ACAD_REACTORS
330
1D3
102
}
330
1D3
100
AcDbXrecord
280
     1
102
RTVSPropertyOp0
 70
     1
102
RTVSPropertyOp1
 70
     1
102
RTVSPropertyOp2
 70
     1
102
RTVSPropertyOp3
 70
     1
102
RTVSPropertyOp4
 70
     1
102
RTVSPropertyOp5
 70
     1
102
RTVSPropertyOp6
 70
     1
102
RTVSPropertyOp7
 70
     1
102
RTVSPropertyOp8
 70
     1
102
RTVSPropertyOp9
 70
     1
102
RTVSPropertyOp10
 70
     1
102
RTVSPropertyOp11
 70
     1
102
RTVSPropertyOp12
 70
     1
102
RTVSPropertyOp13
 70
     1
102
RTVSPropertyOp14
 70
     1
102
RTVSPropertyOp15
 70
     1
102
RTVSPropertyOp16
 70
     1
102
RTVSPropertyOp17
 70
     1
102
RTVSPropertyOp18
 70
     1
102
RTVSPropertyOp19
 70
     1
102
RTVSPropertyOp20
 70
     1
102
RTVSPropertyOp21
 70
     1
102
RTVSPropertyOp22
 70
     1
102
RTVSPropertyOp23
 70
     1
102
RTVSPropertyOp24
 70
     1
102
RTVSPropertyOp25
 70
     1
102
RTVSPropertyOp26
 70
     1
102
RTVSPropertyOp27
 70
     1
  0
XRECORD
  5
1D6
102
{ACAD_REACTORS
330
1D5
102
}
330
1D5
100
AcDbXrecord
280
     1
102
RTVSPropertyOp0
 70
     1
102
RTVSPropertyOp1
 70
     1
102
RTVSPropertyOp2
 70
     1
102
RTVSPropertyOp3
 70
     1
102
RTVSPropertyOp4
 70
     1
102
RTVSPropertyOp5
 70
     1
102
RTVSPropertyOp6
 70
     1
102
RTVSPropertyOp7
 70
     1
102
RTVSPropertyOp8
 70
     1
102
RTVSPropertyOp9
 70
     1
102
RTVSPropertyOp10
 70
     1
102
RTVSPropertyOp11
 70
     1
102
RTVSPropertyOp12
 70
     1
102
RTVSPropertyOp13
 70
     1
102
RTVSPropertyOp14
 70
     1
102
RTVSPropertyOp15
 70
     1
102
RTVSPropertyOp16
 70
     1
102
RTVSPropertyOp17
 70
     1
102
RTVSPropertyOp18
 70
     1
102
RTVSPropertyOp19
 70
     1
102
RTVSPropertyOp20
 70
     1
102
RTVSPropertyOp21
 70
     1
102
RTVSPropertyOp22
 70
     1
102
RTVSPropertyOp23
 70
     1
102
RTVSPropertyOp24
 70
     1
102
RTVSPropertyOp25
 70
     1
102
RTVSPropertyOp26
 70
     1
102
RTVSPropertyOp27
 70
     1
  0
XRECORD
  5
1D8
102
{ACAD_REACTORS
330
1D7
102
}
330
1D7
100
AcDbXrecord
280
     1
102
RTVSPropertyOp0
 70
     1
102
RTVSPropertyOp1
 70
     1
102
RTVSPropertyOp2
 70
     1
102
RTVSPropertyOp3
 70
     1
102
RTVSPropertyOp4
 70
     1
102
RTVSPropertyOp5
 70
     1
102
RTVSPropertyOp6
 70
     1
102
RTVSPropertyOp7
 70
     1
102
RTVSPropertyOp8
 70
     1
102
RTVSPropertyOp9
 70
     1
102
RTVSPropertyOp10
 70
     1
102
RTVSPropertyOp11
 70
     1
102
RTVSPropertyOp12
 70
     1
102
RTVSPropertyOp13
 70
     1
102
RTVSPropertyOp14
 70
     1
102
RTVSPropertyOp15
 70
     1
102
RTVSPropertyOp16
 70
     1
102
RTVSPropertyOp17
 70
     1
102
RTVSPropertyOp18
 70
     1
102
RTVSPropertyOp19
 70
     1
102
RTVSPropertyOp20
 70
     1
102
RTVSPropertyOp21
 70
     1
102
RTVSPropertyOp22
 70
     1
102
RTVSPropertyOp23
 70
     1
102
RTVSPropertyOp24
 70
     1
102
RTVSPropertyOp25
 70
     1
102
RTVSPropertyOp26
 70
     1
102
RTVSPropertyOp27
 70
     1
  0
XRECORD
  5
1DA
102
{ACAD_REACTORS
330
1D9
102
}
330
1D9
100
AcDbXrecord
280
     1
102
RTVSPropertyOp0
 70
     1
102
RTVSPropertyOp1
 70
     1
102
RTVSPropertyOp2
 70
     1
102
RTVSPropertyOp3
 70
     1
102
RTVSPropertyOp4
 70
     1
102
RTVSPropertyOp5
 70
     1
102
RTVSPropertyOp6
 70
     1
102
RTVSPropertyOp7
 70
     1
102
RTVSPropertyOp8
 70
     1
102
RTVSPropertyOp9
 70
     1
102
RTVSPropertyOp10
 70
     1
102
RTVSPropertyOp11
 70
     1
102
RTVSPropertyOp12
 70
     1
102
RTVSPropertyOp13
 70
     1
102
RTVSPropertyOp14
 70
     1
102
RTVSPropertyOp15
 70
     1
102
RTVSPropertyOp16
 70
     1
102
RTVSPropertyOp17
 70
     1
102
RTVSPropertyOp18
 70
     1
102
RTVSPropertyOp19
 70
     1
102
RTVSPropertyOp20
 70
     1
102
RTVSPropertyOp21
 70
     1
102
RTVSPropertyOp22
 70
     1
102
RTVSPropertyOp23
 70
     1
102
RTVSPropertyOp24
 70
     1
102
RTVSPropertyOp25
 70
     1
102
RTVSPropertyOp26
 70
     1
102
RTVSPropertyOp27
 70
     1
  0
XRECORD
  5
1EE
102
{ACAD_REACTORS
330
1ED
102
}
330
1ED
100
AcDbXrecord
280
     1
102
RTVSPropertyOp0
 70
     1
102
RTVSPropertyOp1
 70
     1
102
RTVSPropertyOp2
 70
     1
102
RTVSPropertyOp3
 70
     1
102
RTVSPropertyOp4
 70
     1
102
RTVSPropertyOp5
 70
     1
102
RTVSPropertyOp6
 70
     1
102
RTVSPropertyOp7
 70
     1
102
RTVSPropertyOp8
 70
     1
102
RTVSPropertyOp9
 70
     1
102
RTVSPropertyOp10
 70
     1
102
RTVSPropertyOp11
 70
     1
102
RTVSPropertyOp12
 70
     1
102
RTVSPropertyOp13
 70
     1
102
RTVSPropertyOp14
 70
     1
102
RTVSPropertyOp15
 70
     1
102
RTVSPropertyOp16
 70
     1
102
RTVSPropertyOp17
 70
     1
102
RTVSPropertyOp18
 70
     1
102
RTVSPropertyOp19
 70
     1
102
RTVSPropertyOp20
 70
     1
102
RTVSPropertyOp21
 70
     1
102
RTVSPropertyOp22
 70
     1
102
RTVSPropertyOp23
 70
     1
102
RTVSPropertyOp24
 70
     1
102
RTVSPropertyOp25
 70
     1
102
RTVSPropertyOp26
 70
     1
102
RTVSPropertyOp27
 70
     1
  0
XRECORD
  5
1E4
102
{ACAD_REACTORS
330
1E3
102
}
330
1E3
100
AcDbXrecord
280
     1
102
RTVSPropertyOp0
 70
     1
102
RTVSPropertyOp1
 70
     1
102
RTVSPropertyOp2
 70
     1
102
RTVSPropertyOp3
 70
     1
102
RTVSPropertyOp4
 70
     1
102
RTVSPropertyOp5
 70
     1
102
RTVSPropertyOp6
 70
     1
102
RTVSPropertyOp7
 70
     1
102
RTVSPropertyOp8
 70
     1
102
RTVSPropertyOp9
 70
     1
102
RTVSPropertyOp10
 70
     1
102
RTVSPropertyOp11
 70
     1
102
RTVSPropertyOp12
 70
     1
102
RTVSPropertyOp13
 70
     1
102
RTVSPropertyOp14
 70
     1
102
RTVSPropertyOp15
 70
     1
102
RTVSPropertyOp16
 70
     1
102
RTVSPropertyOp17
 70
     1
102
RTVSPropertyOp18
 70
     1
102
RTVSPropertyOp19
 70
     1
102
RTVSPropertyOp20
 70
     1
102
RTVSPropertyOp21
 70
     1
102
RTVSPropertyOp22
 70
     1
102
RTVSPropertyOp23
 70
     1
102
RTVSPropertyOp24
 70
     1
102
RTVSPropertyOp25
 70
     1
102
RTVSPropertyOp26
 70
     1
102
RTVSPropertyOp27
 70
     1
  0
XRECORD
  5
1EC
102
{ACAD_REACTORS
330
1EB
102
}
330
1EB
100
AcDbXrecord
280
     1
102
RTVSPropertyOp0
 70
     1
102
RTVSPropertyOp1
 70
     1
102
RTVSPropertyOp2
 70
     1
102
RTVSPropertyOp3
 70
     1
102
RTVSPropertyOp4
 70
     1
102
RTVSPropertyOp5
 70
     1
102
RTVSPropertyOp6
 70
     1
102
RTVSPropertyOp7
 70
     1
102
RTVSPropertyOp8
 70
     1
102
RTVSPropertyOp9
 70
     1
102
RTVSPropertyOp10
 70
     1
102
RTVSPropertyOp11
 70
     1
102
RTVSPropertyOp12
 70
     1
102
RTVSPropertyOp13
 70
     1
102
RTVSPropertyOp14
 70
     1
102
RTVSPropertyOp15
 70
     1
102
RTVSPropertyOp16
 70
     1
102
RTVSPropertyOp17
 70
     1
102
RTVSPropertyOp18
 70
     1
102
RTVSPropertyOp19
 70
     1
102
RTVSPropertyOp20
 70
     1
102
RTVSPropertyOp21
 70
     1
102
RTVSPropertyOp22
 70
     1
102
RTVSPropertyOp23
 70
     1
102
RTVSPropertyOp24
 70
     1
102
RTVSPropertyOp25
 70
     1
102
RTVSPropertyOp26
 70
     1
102
RTVSPropertyOp27
 70
     1
  0
ENDSEC
  0
EOF
