  0
SECTION
  2
HEADER
  9
$EXTMIN
 10
0.4731527
 20
1.690835
 30
0.0000
  9
$EXTMAX
 10
8.7163786
 20
6.5845829
 30
0.0000
  0
ENDSEC
  0
SECTION
  2
TABLES
  0
TABLE
  2
LTYPE
 70
3
  0
LTYPE
  2
BYBLOCK
 70
0
  3

 72
65
 73
0
 40
0.0000
  0
LTYPE
  2
BYLAYER
 70
0
  3

 72
65
 73
0
 40
0.0000
  0
LTYPE
  2
CONTINUOUS
 70
0
  3
Solid line
 72
65
 73
0
 40
0.0000
  0
ENDTAB
  0
TABLE
  2
LAYER
 70
1
  0
LAYER
  2
0
 70
0
 62
7
  6
CONTINUOUS
  0
LAYER
  2
CAM_CONTROL
 70
0
 62
7
  6
CONTINUOUS
  0
ENDTAB
  0
TABLE
  2
STYLE
 70
6
  0
STYLE
  2
STYLE_0
 70
0
 40
0.0479999
 41
0.734694
 50
0.0000
 71
0
 42
0.0731428
  3
TXT
  0
STYLE
  2
STYLE_1
 70
0
 40
0.0479999
 41
0.734694
 50
0.0000
 71
0
 42
0.0731428
  3
TXT
  0
STYLE
  2
STYLE_2
 70
0
 40
0.0999999
 41
1.0000
 50
0.0000
 71
0
 42
0.1523809
  3
TXT
  0
STYLE
  2
STYLE_3
 70
0
 40
0.0959999
 41
0.857143
 50
0.0000
 71
0
 42
0.1462857
  3
TXT
  0
STYLE
  2
STYLE_4
 70
0
 40
0.0719999
 41
0.857143
 50
0.0000
 71
0
 42
0.1097143
  3
TXT
  0
STYLE
  2
STYLE_5
 70
0
 40
0.0479999
 41
0.857143
 50
0.0000
 71
0
 42
0.0731428
  3
TXT
  0
ENDTAB
  0
ENDSEC
  0
SECTION
  2
BLOCKS
  0
BLOCK
  2
ROUND_1
  3
ROUND_1
 70
64
 10
0.0000
 20
0.0000
 30
0.0000
  0
CIRCLE
  8
0
 10
0.0000
 20
0.0000
 30
0.0000
 40
0.0375
  0
ENDBLK
  0
BLOCK
  2
ROUND_2
  3
ROUND_2
 70
64
 10
0.0000
 20
0.0000
 30
0.0000
  0
CIRCLE
  8
0
 10
0.0000
 20
0.0000
 30
0.0000
 40
0.0490
  0
ENDBLK
  0
BLOCK
  2
ROUND_3
  3
ROUND_3
 70
64
 10
0.0000
 20
0.0000
 30
0.0000
  0
CIRCLE
  8
0
 10
0.0000
 20
0.0000
 30
0.0000
 40
0.0010
  0
ENDBLK
  0
ENDSEC
  0
SECTION
  2
ENTITIES
  0
INSERT
  2
ROUND_1
  8
CAM_CONTROL
 10
8.393556
 20
3.61494
 30
0.0000
 41
1.0000
 42
1.0000
 50
0.0000
  0
INSERT
  2
ROUND_1
  8
CAM_CONTROL
 10
8.053556
 20
3.61494
 30
0.0000
 41
1.0000
 42
1.0000
 50
0.0000
  0
INSERT
  2
ROUND_1
  8
CAM_CONTROL
 10
8.053556
 20
3.95494
 30
0.0000
 41
1.0000
 42
1.0000
 50
0.0000
  0
INSERT
  2
ROUND_1
  8
CAM_CONTROL
 10
8.393556
 20
3.95494
 30
0.0000
 41
1.0000
 42
1.0000
 50
0.0000
  0
INSERT
  2
ROUND_1
  8
CAM_CONTROL
 10
0.644469
 20
2.82994
 30
0.0000
 41
1.0000
 42
1.0000
 50
0.0000
  0
INSERT
  2
ROUND_1
  8
CAM_CONTROL
 10
0.984469
 20
2.82994
 30
0.0000
 41
1.0000
 42
1.0000
 50
0.0000
  0
INSERT
  2
ROUND_1
  8
CAM_CONTROL
 10
0.984469
 20
3.16994
 30
0.0000
 41
1.0000
 42
1.0000
 50
0.0000
  0
INSERT
  2
ROUND_1
  8
CAM_CONTROL
 10
0.644469
 20
3.16994
 30
0.0000
 41
1.0000
 42
1.0000
 50
0.0000
  0
INSERT
  2
ROUND_2
  8
CAM_CONTROL
 10
2.5000
 20
3.89994
 30
0.0000
 41
1.0000
 42
1.0000
 50
0.0000
  0
INSERT
  2
ROUND_2
  8
CAM_CONTROL
 10
2.5000
 20
2.89994
 30
0.0000
 41
1.0000
 42
1.0000
 50
0.0000
  0
INSERT
  2
ROUND_2
  8
CAM_CONTROL
 10
3.5000
 20
2.27494
 30
0.0000
 41
1.0000
 42
1.0000
 50
0.0000
  0
INSERT
  2
ROUND_2
  8
CAM_CONTROL
 10
4.5000
 20
2.27494
 30
0.0000
 41
1.0000
 42
1.0000
 50
0.0000
  0
INSERT
  2
ROUND_2
  8
CAM_CONTROL
 10
5.5000
 20
2.27494
 30
0.0000
 41
1.0000
 42
1.0000
 50
0.0000
  0
INSERT
  2
ROUND_2
  8
CAM_CONTROL
 10
6.5000
 20
2.89994
 30
0.0000
 41
1.0000
 42
1.0000
 50
0.0000
  0
INSERT
  2
ROUND_2
  8
CAM_CONTROL
 10
6.5000
 20
3.89994
 30
0.0000
 41
1.0000
 42
1.0000
 50
0.0000
  0
INSERT
  2
ROUND_2
  8
CAM_CONTROL
 10
5.5000
 20
4.52494
 30
0.0000
 41
1.0000
 42
1.0000
 50
0.0000
  0
INSERT
  2
ROUND_2
  8
CAM_CONTROL
 10
4.5000
 20
4.52494
 30
0.0000
 41
1.0000
 42
1.0000
 50
0.0000
  0
INSERT
  2
ROUND_2
  8
CAM_CONTROL
 10
3.5000
 20
4.52494
 30
0.0000
 41
1.0000
 42
1.0000
 50
0.0000
  0
TEXT
  8
CAM_CONTROL
 10
8.088566
 20
3.743671
 30
0.0000
 40
0.0479999
 41
0.857143
 51
0.0000
 71
0
  1
E
 50
0.0000
  7
STYLE_5
  0
TEXT
  8
CAM_CONTROL
 10
8.087566
 20
2.859671
 30
0.0000
 40
0.0479999
 41
0.857143
 51
0.0000
 71
0
  1
D
 50
0.0000
  7
STYLE_5
  0
TEXT
  8
CAM_CONTROL
 10
7.847586
 20
2.859671
 30
0.0000
 40
0.0479999
 41
0.857143
 51
0.0000
 71
0
  1
B
 50
0.0000
  7
STYLE_5
  0
TEXT
  8
CAM_CONTROL
 10
8.68795
 20
3.39994
 30
0.0000
 40
0.0719999
 41
0.857143
 51
0.0000
 71
0
  1
Bottom
 50
90.0000
  7
STYLE_4
  0
POLYLINE
  8
CAM_CONTROL
 66
1
 10
0.0000
 20
0.0000
 30
0.0000
 40
0.0020
 41
0.0020
  0
VERTEX
  8
CAM_CONTROL
 10
8.563546
 20
4.09994
 30
0.0000
  0
VERTEX
  8
CAM_CONTROL
 10
8.662526
 20
4.06696
 30
0.0000
  0
SEQEND
  0
POLYLINE
  8
CAM_CONTROL
 66
1
 10
0.0000
 20
0.0000
 30
0.0000
 40
0.0020
 41
0.0020
  0
VERTEX
  8
CAM_CONTROL
 10
8.662526
 20
4.13294
 30
0.0000
  0
VERTEX
  8
CAM_CONTROL
 10
8.651526
 20
4.09994
 30
0.0000
  0
SEQEND
  0
POLYLINE
  8
CAM_CONTROL
 66
1
 10
0.0000
 20
0.0000
 30
0.0000
 40
0.0020
 41
0.0020
  0
VERTEX
  8
CAM_CONTROL
 10
8.563546
 20
4.09994
 30
0.0000
  0
VERTEX
  8
CAM_CONTROL
 10
8.662526
 20
4.13294
 30
0.0000
  0
SEQEND
  0
POLYLINE
  8
CAM_CONTROL
 66
1
 10
0.0000
 20
0.0000
 30
0.0000
 40
0.0020
 41
0.0020
  0
VERTEX
  8
CAM_CONTROL
 10
8.662526
 20
4.06696
 30
0.0000
  0
VERTEX
  8
CAM_CONTROL
 10
8.651526
 20
4.09994
 30
0.0000
  0
SEQEND
  0
POLYLINE
  8
CAM_CONTROL
 66
1
 10
0.0000
 20
0.0000
 30
0.0000
 40
0.0020
 41
0.0020
  0
VERTEX
  8
CAM_CONTROL
 10
8.651526
 20
4.09994
 30
0.0000
  0
VERTEX
  8
CAM_CONTROL
 10
8.713506
 20
4.09994
 30
0.0000
  0
SEQEND
  0
POLYLINE
  8
CAM_CONTROL
 66
1
 10
0.0000
 20
0.0000
 30
0.0000
 40
0.0020
 41
0.0020
  0
VERTEX
  8
CAM_CONTROL
 10
8.305546
 20
3.78494
 30
0.0000
 42
1.0000
  0
VERTEX
  8
CAM_CONTROL
 10
8.141546
 20
3.78494
 30
0.0000
 42
0.0000
  0
SEQEND
  0
POLYLINE
  8
CAM_CONTROL
 66
1
 10
0.0000
 20
0.0000
 30
0.0000
 40
0.0020
 41
0.0020
  0
VERTEX
  8
CAM_CONTROL
 10
8.141546
 20
3.78494
 30
0.0000
 42
1.0000
  0
VERTEX
  8
CAM_CONTROL
 10
8.305546
 20
3.78494
 30
0.0000
 42
0.0000
  0
SEQEND
  0
POLYLINE
  8
CAM_CONTROL
 66
1
 10
0.0000
 20
0.0000
 30
0.0000
 40
0.0020
 41
0.0020
  0
VERTEX
  8
CAM_CONTROL
 10
7.826566
 20
2.89994
 30
0.0000
 42
1.0000
  0
VERTEX
  8
CAM_CONTROL
 10
7.700566
 20
2.89994
 30
0.0000
 42
0.0000
  0
SEQEND
  0
POLYLINE
  8
CAM_CONTROL
 66
1
 10
0.0000
 20
0.0000
 30
0.0000
 40
0.0020
 41
0.0020
  0
VERTEX
  8
CAM_CONTROL
 10
7.700566
 20
2.89994
 30
0.0000
 42
1.0000
  0
VERTEX
  8
CAM_CONTROL
 10
7.826566
 20
2.89994
 30
0.0000
 42
0.0000
  0
SEQEND
  0
POLYLINE
  8
CAM_CONTROL
 66
1
 10
0.0000
 20
0.0000
 30
0.0000
 40
0.0020
 41
0.0020
  0
VERTEX
  8
CAM_CONTROL
 10
8.303546
 20
2.89994
 30
0.0000
 42
1.0000
  0
VERTEX
  8
CAM_CONTROL
 10
8.143546
 20
2.89994
 30
0.0000
 42
0.0000
  0
SEQEND
  0
POLYLINE
  8
CAM_CONTROL
 66
1
 10
0.0000
 20
0.0000
 30
0.0000
 40
0.0020
 41
0.0020
  0
VERTEX
  8
CAM_CONTROL
 10
8.143546
 20
2.89994
 30
0.0000
 42
1.0000
  0
VERTEX
  8
CAM_CONTROL
 10
8.303546
 20
2.89994
 30
0.0000
 42
0.0000
  0
SEQEND
  0
POLYLINE
  8
CAM_CONTROL
 66
1
 10
0.0000
 20
0.0000
 30
0.0000
 40
0.0020
 41
0.0020
  0
VERTEX
  8
CAM_CONTROL
 10
8.558546
 20
4.39994
 30
0.0000
  0
VERTEX
  8
CAM_CONTROL
 10
8.558546
 20
2.39994
 30
0.0000
  0
SEQEND
  0
POLYLINE
  8
CAM_CONTROL
 66
1
 10
0.0000
 20
0.0000
 30
0.0000
 40
0.0020
 41
0.0020
  0
VERTEX
  8
CAM_CONTROL
 10
8.198566
 20
3.78494
 30
0.0000
  0
VERTEX
  8
CAM_CONTROL
 10
8.248546
 20
3.78494
 30
0.0000
  0
SEQEND
  0
POLYLINE
  8
CAM_CONTROL
 66
1
 10
0.0000
 20
0.0000
 30
0.0000
 40
0.0020
 41
0.0020
  0
VERTEX
  8
CAM_CONTROL
 10
8.223546
 20
3.80994
 30
0.0000
  0
VERTEX
  8
CAM_CONTROL
 10
8.223546
 20
3.75994
 30
0.0000
  0
SEQEND
  0
POLYLINE
  8
CAM_CONTROL
 66
1
 10
0.0000
 20
0.0000
 30
0.0000
 40
0.0020
 41
0.0020
  0
VERTEX
  8
CAM_CONTROL
 10
7.738566
 20
2.89994
 30
0.0000
  0
VERTEX
  8
CAM_CONTROL
 10
7.788546
 20
2.89994
 30
0.0000
  0
SEQEND
  0
POLYLINE
  8
CAM_CONTROL
 66
1
 10
0.0000
 20
0.0000
 30
0.0000
 40
0.0020
 41
0.0020
  0
VERTEX
  8
CAM_CONTROL
 10
7.763566
 20
2.92492
 30
0.0000
  0
VERTEX
  8
CAM_CONTROL
 10
7.763566
 20
2.87494
 30
0.0000
  0
SEQEND
  0
POLYLINE
  8
CAM_CONTROL
 66
1
 10
0.0000
 20
0.0000
 30
0.0000
 40
0.0020
 41
0.0020
  0
VERTEX
  8
CAM_CONTROL
 10
8.198566
 20
2.89994
 30
0.0000
  0
VERTEX
  8
CAM_CONTROL
 10
8.248546
 20
2.89994
 30
0.0000
  0
SEQEND
  0
POLYLINE
  8
CAM_CONTROL
 66
1
 10
0.0000
 20
0.0000
 30
0.0000
 40
0.0020
 41
0.0020
  0
VERTEX
  8
CAM_CONTROL
 10
8.223546
 20
2.92494
 30
0.0000
  0
VERTEX
  8
CAM_CONTROL
 10
8.223546
 20
2.87494
 30
0.0000
  0
SEQEND
  0
POLYLINE
  8
CAM_CONTROL
 66
1
 10
0.0000
 20
0.0000
 30
0.0000
 40
0.0020
 41
0.0020
  0
VERTEX
  8
CAM_CONTROL
 10
8.418556
 20
3.61494
 30
0.0000
  0
VERTEX
  8
CAM_CONTROL
 10
8.393556
 20
3.63994
 30
0.0000
  0
SEQEND
  0
POLYLINE
  8
CAM_CONTROL
 66
1
 10
0.0000
 20
0.0000
 30
0.0000
 40
0.0020
 41
0.0020
  0
VERTEX
  8
CAM_CONTROL
 10
8.393556
 20
3.63994
 30
0.0000
  0
VERTEX
  8
CAM_CONTROL
 10
8.368556
 20
3.61494
 30
0.0000
  0
SEQEND
  0
POLYLINE
  8
CAM_CONTROL
 66
1
 10
0.0000
 20
0.0000
 30
0.0000
 40
0.0020
 41
0.0020
  0
VERTEX
  8
CAM_CONTROL
 10
8.368556
 20
3.61494
 30
0.0000
  0
VERTEX
  8
CAM_CONTROL
 10
8.393556
 20
3.58994
 30
0.0000
  0
SEQEND
  0
POLYLINE
  8
CAM_CONTROL
 66
1
 10
0.0000
 20
0.0000
 30
0.0000
 40
0.0020
 41
0.0020
  0
VERTEX
  8
CAM_CONTROL
 10
8.393556
 20
3.58994
 30
0.0000
  0
VERTEX
  8
CAM_CONTROL
 10
8.418556
 20
3.61494
 30
0.0000
  0
SEQEND
  0
POLYLINE
  8
CAM_CONTROL
 66
1
 10
0.0000
 20
0.0000
 30
0.0000
 40
0.0020
 41
0.0020
  0
VERTEX
  8
CAM_CONTROL
 10
8.078556
 20
3.61494
 30
0.0000
  0
VERTEX
  8
CAM_CONTROL
 10
8.053556
 20
3.63994
 30
0.0000
  0
SEQEND
  0
POLYLINE
  8
CAM_CONTROL
 66
1
 10
0.0000
 20
0.0000
 30
0.0000
 40
0.0020
 41
0.0020
  0
VERTEX
  8
CAM_CONTROL
 10
8.053556
 20
3.63994
 30
0.0000
  0
VERTEX
  8
CAM_CONTROL
 10
8.028556
 20
3.61494
 30
0.0000
  0
SEQEND
  0
POLYLINE
  8
CAM_CONTROL
 66
1
 10
0.0000
 20
0.0000
 30
0.0000
 40
0.0020
 41
0.0020
  0
VERTEX
  8
CAM_CONTROL
 10
8.028556
 20
3.61494
 30
0.0000
  0
VERTEX
  8
CAM_CONTROL
 10
8.053556
 20
3.58994
 30
0.0000
  0
SEQEND
  0
POLYLINE
  8
CAM_CONTROL
 66
1
 10
0.0000
 20
0.0000
 30
0.0000
 40
0.0020
 41
0.0020
  0
VERTEX
  8
CAM_CONTROL
 10
8.053556
 20
3.58994
 30
0.0000
  0
VERTEX
  8
CAM_CONTROL
 10
8.078556
 20
3.61494
 30
0.0000
  0
SEQEND
  0
POLYLINE
  8
CAM_CONTROL
 66
1
 10
0.0000
 20
0.0000
 30
0.0000
 40
0.0020
 41
0.0020
  0
VERTEX
  8
CAM_CONTROL
 10
8.078556
 20
3.95494
 30
0.0000
  0
VERTEX
  8
CAM_CONTROL
 10
8.053556
 20
3.97994
 30
0.0000
  0
SEQEND
  0
POLYLINE
  8
CAM_CONTROL
 66
1
 10
0.0000
 20
0.0000
 30
0.0000
 40
0.0020
 41
0.0020
  0
VERTEX
  8
CAM_CONTROL
 10
8.053556
 20
3.97994
 30
0.0000
  0
VERTEX
  8
CAM_CONTROL
 10
8.028556
 20
3.95494
 30
0.0000
  0
SEQEND
  0
POLYLINE
  8
CAM_CONTROL
 66
1
 10
0.0000
 20
0.0000
 30
0.0000
 40
0.0020
 41
0.0020
  0
VERTEX
  8
CAM_CONTROL
 10
8.028556
 20
3.95494
 30
0.0000
  0
VERTEX
  8
CAM_CONTROL
 10
8.053556
 20
3.92994
 30
0.0000
  0
SEQEND
  0
POLYLINE
  8
CAM_CONTROL
 66
1
 10
0.0000
 20
0.0000
 30
0.0000
 40
0.0020
 41
0.0020
  0
VERTEX
  8
CAM_CONTROL
 10
8.053556
 20
3.92994
 30
0.0000
  0
VERTEX
  8
CAM_CONTROL
 10
8.078556
 20
3.95494
 30
0.0000
  0
SEQEND
  0
POLYLINE
  8
CAM_CONTROL
 66
1
 10
0.0000
 20
0.0000
 30
0.0000
 40
0.0020
 41
0.0020
  0
VERTEX
  8
CAM_CONTROL
 10
8.418556
 20
3.95494
 30
0.0000
  0
VERTEX
  8
CAM_CONTROL
 10
8.393556
 20
3.97994
 30
0.0000
  0
SEQEND
  0
POLYLINE
  8
CAM_CONTROL
 66
1
 10
0.0000
 20
0.0000
 30
0.0000
 40
0.0020
 41
0.0020
  0
VERTEX
  8
CAM_CONTROL
 10
8.393556
 20
3.97994
 30
0.0000
  0
VERTEX
  8
CAM_CONTROL
 10
8.368556
 20
3.95494
 30
0.0000
  0
SEQEND
  0
POLYLINE
  8
CAM_CONTROL
 66
1
 10
0.0000
 20
0.0000
 30
0.0000
 40
0.0020
 41
0.0020
  0
VERTEX
  8
CAM_CONTROL
 10
8.368556
 20
3.95494
 30
0.0000
  0
VERTEX
  8
CAM_CONTROL
 10
8.393556
 20
3.92994
 30
0.0000
  0
SEQEND
  0
POLYLINE
  8
CAM_CONTROL
 66
1
 10
0.0000
 20
0.0000
 30
0.0000
 40
0.0020
 41
0.0020
  0
VERTEX
  8
CAM_CONTROL
 10
8.393556
 20
3.92994
 30
0.0000
  0
VERTEX
  8
CAM_CONTROL
 10
8.418556
 20
3.95494
 30
0.0000
  0
SEQEND
  0
POLYLINE
  8
CAM_CONTROL
 66
1
 10
0.0000
 20
0.0000
 30
0.0000
 40
0.0020
 41
0.0020
  0
VERTEX
  8
CAM_CONTROL
 10
8.223556
 20
3.75994
 30
0.0000
  0
VERTEX
  8
CAM_CONTROL
 10
8.223556
 20
3.80994
 30
0.0000
  0
SEQEND
  0
POLYLINE
  8
CAM_CONTROL
 66
1
 10
0.0000
 20
0.0000
 30
0.0000
 40
0.0020
 41
0.0020
  0
VERTEX
  8
CAM_CONTROL
 10
8.198556
 20
3.78494
 30
0.0000
  0
VERTEX
  8
CAM_CONTROL
 10
8.248556
 20
3.78494
 30
0.0000
  0
SEQEND
  0
POLYLINE
  8
CAM_CONTROL
 66
1
 10
0.0000
 20
0.0000
 30
0.0000
 40
0.0020
 41
0.0020
  0
VERTEX
  8
CAM_CONTROL
 10
8.141556
 20
3.78494
 30
0.0000
 42
0.4142136
  0
VERTEX
  8
CAM_CONTROL
 10
8.223556
 20
3.70294
 30
0.0000
 42
0.0000
  0
SEQEND
  0
POLYLINE
  8
CAM_CONTROL
 66
1
 10
0.0000
 20
0.0000
 30
0.0000
 40
0.0020
 41
0.0020
  0
VERTEX
  8
CAM_CONTROL
 10
8.223556
 20
3.70294
 30
0.0000
 42
0.4142136
  0
VERTEX
  8
CAM_CONTROL
 10
8.305556
 20
3.78494
 30
0.0000
 42
0.0000
  0
SEQEND
  0
POLYLINE
  8
CAM_CONTROL
 66
1
 10
0.0000
 20
0.0000
 30
0.0000
 40
0.0020
 41
0.0020
  0
VERTEX
  8
CAM_CONTROL
 10
8.305556
 20
3.78494
 30
0.0000
 42
0.4142136
  0
VERTEX
  8
CAM_CONTROL
 10
8.223556
 20
3.86694
 30
0.0000
 42
0.0000
  0
SEQEND
  0
POLYLINE
  8
CAM_CONTROL
 66
1
 10
0.0000
 20
0.0000
 30
0.0000
 40
0.0020
 41
0.0020
  0
VERTEX
  8
CAM_CONTROL
 10
8.223556
 20
3.86694
 30
0.0000
 42
0.4142136
  0
VERTEX
  8
CAM_CONTROL
 10
8.141556
 20
3.78494
 30
0.0000
 42
0.0000
  0
SEQEND
  0
POLYLINE
  8
CAM_CONTROL
 66
1
 10
0.0000
 20
0.0000
 30
0.0000
 40
0.0020
 41
0.0020
  0
VERTEX
  8
CAM_CONTROL
 10
8.473556
 20
3.53494
 30
0.0000
  0
VERTEX
  8
CAM_CONTROL
 10
8.473556
 20
3.78794
 30
0.0000
  0
SEQEND
  0
POLYLINE
  8
CAM_CONTROL
 66
1
 10
0.0000
 20
0.0000
 30
0.0000
 40
0.0020
 41
0.0020
  0
VERTEX
  8
CAM_CONTROL
 10
7.973556
 20
3.53494
 30
0.0000
  0
VERTEX
  8
CAM_CONTROL
 10
8.473556
 20
3.53494
 30
0.0000
  0
SEQEND
  0
POLYLINE
  8
CAM_CONTROL
 66
1
 10
0.0000
 20
0.0000
 30
0.0000
 40
0.0020
 41
0.0020
  0
VERTEX
  8
CAM_CONTROL
 10
7.973556
 20
4.03494
 30
0.0000
  0
VERTEX
  8
CAM_CONTROL
 10
7.973556
 20
3.53494
 30
0.0000
  0
SEQEND
  0
POLYLINE
  8
CAM_CONTROL
 66
1
 10
0.0000
 20
0.0000
 30
0.0000
 40
0.0020
 41
0.0020
  0
VERTEX
  8
CAM_CONTROL
 10
8.473556
 20
4.03494
 30
0.0000
  0
VERTEX
  8
CAM_CONTROL
 10
7.973556
 20
4.03494
 30
0.0000
  0
SEQEND
  0
POLYLINE
  8
CAM_CONTROL
 66
1
 10
0.0000
 20
0.0000
 30
0.0000
 40
0.0020
 41
0.0020
  0
VERTEX
  8
CAM_CONTROL
 10
8.473556
 20
3.78494
 30
0.0000
  0
VERTEX
  8
CAM_CONTROL
 10
8.473556
 20
4.03494
 30
0.0000
  0
SEQEND
  0
POLYLINE
  8
CAM_CONTROL
 66
1
 10
0.0000
 20
0.0000
 30
0.0000
 40
0.0020
 41
0.0020
  0
VERTEX
  8
CAM_CONTROL
 10
7.568546
 20
2.14994
 30
0.0000
  0
VERTEX
  8
CAM_CONTROL
 10
8.558546
 20
2.14994
 30
0.0000
  0
SEQEND
  0
POLYLINE
  8
CAM_CONTROL
 66
1
 10
0.0000
 20
0.0000
 30
0.0000
 40
0.0020
 41
0.0020
  0
VERTEX
  8
CAM_CONTROL
 10
8.558546
 20
4.64994
 30
0.0000
  0
VERTEX
  8
CAM_CONTROL
 10
7.568546
 20
4.64994
 30
0.0000
  0
SEQEND
  0
POLYLINE
  8
CAM_CONTROL
 66
1
 10
0.0000
 20
0.0000
 30
0.0000
 40
0.0020
 41
0.0020
  0
VERTEX
  8
CAM_CONTROL
 10
7.568546
 20
2.14994
 30
0.0000
  0
VERTEX
  8
CAM_CONTROL
 10
7.568546
 20
4.64994
 30
0.0000
  0
SEQEND
  0
POLYLINE
  8
CAM_CONTROL
 66
1
 10
0.0000
 20
0.0000
 30
0.0000
 40
0.0020
 41
0.0020
  0
VERTEX
  8
CAM_CONTROL
 10
8.558546
 20
2.14994
 30
0.0000
  0
VERTEX
  8
CAM_CONTROL
 10
8.558546
 20
4.64994
 30
0.0000
  0
SEQEND
  0
POLYLINE
  8
CAM_CONTROL
 66
1
 10
0.0000
 20
0.0000
 30
0.0000
 40
0.0020
 41
0.0020
  0
VERTEX
  8
CAM_CONTROL
 10
7.5969066
 20
3.1940219
 30
0.0000
 42
0.1647051
  0
VERTEX
  8
CAM_CONTROL
 10
7.6540494
 20
3.1940219
 30
0.0000
 42
0.0000
  0
SEQEND
  0
POLYLINE
  8
CAM_CONTROL
 66
1
 10
0.0000
 20
0.0000
 30
0.0000
 40
0.0020
 41
0.0020
  0
VERTEX
  8
CAM_CONTROL
 10
7.6540494
 20
3.2512242
 30
0.0000
 42
0.164705
  0
VERTEX
  8
CAM_CONTROL
 10
7.5969066
 20
3.2512242
 30
0.0000
 42
0.0000
  0
SEQEND
  0
POLYLINE
  8
CAM_CONTROL
 66
1
 10
0.0000
 20
0.0000
 30
0.0000
 40
0.0020
 41
0.0020
  0
VERTEX
  8
CAM_CONTROL
 10
7.5969067
 20
3.2512239
 30
0.0000
 42
0.7548939
  0
VERTEX
  8
CAM_CONTROL
 10
7.5969067
 20
3.194022
 30
0.0000
 42
0.0000
  0
SEQEND
  0
POLYLINE
  8
CAM_CONTROL
 66
1
 10
0.0000
 20
0.0000
 30
0.0000
 40
0.0020
 41
0.0020
  0
VERTEX
  8
CAM_CONTROL
 10
7.6540493
 20
3.194022
 30
0.0000
 42
0.7548959
  0
VERTEX
  8
CAM_CONTROL
 10
7.6540493
 20
3.2512239
 30
0.0000
 42
0.0000
  0
SEQEND
  0
POLYLINE
  8
CAM_CONTROL
 66
1
 10
0.0000
 20
0.0000
 30
0.0000
 40
0.0020
 41
0.0020
  0
VERTEX
  8
CAM_CONTROL
 10
7.575478
 20
3.27593
 30
0.0000
  0
VERTEX
  8
CAM_CONTROL
 10
7.646907
 20
3.27593
 30
0.0000
  0
SEQEND
  0
POLYLINE
  8
CAM_CONTROL
 66
1
 10
0.0000
 20
0.0000
 30
0.0000
 40
0.0020
 41
0.0020
  0
VERTEX
  8
CAM_CONTROL
 10
7.575478
 20
3.334502
 30
0.0000
  0
VERTEX
  8
CAM_CONTROL
 10
7.646192
 20
3.334502
 30
0.0000
  0
SEQEND
  0
POLYLINE
  8
CAM_CONTROL
 66
1
 10
0.0000
 20
0.0000
 30
0.0000
 40
0.0020
 41
0.0020
  0
VERTEX
  8
CAM_CONTROL
 10
7.6469065
 20
3.2759311
 30
0.0000
 42
1.009805
  0
VERTEX
  8
CAM_CONTROL
 10
7.6461921
 20
3.334502
 30
0.0000
 42
0.0000
  0
SEQEND
  0
POLYLINE
  8
CAM_CONTROL
 66
1
 10
0.0000
 20
0.0000
 30
0.0000
 40
0.0020
 41
0.0020
  0
VERTEX
  8
CAM_CONTROL
 10
7.575478
 20
3.354502
 30
0.0000
  0
VERTEX
  8
CAM_CONTROL
 10
7.575478
 20
3.386466
 30
0.0000
  0
SEQEND
  0
POLYLINE
  8
CAM_CONTROL
 66
1
 10
0.0000
 20
0.0000
 30
0.0000
 40
0.0020
 41
0.0020
  0
VERTEX
  8
CAM_CONTROL
 10
7.675478
 20
3.386466
 30
0.0000
  0
VERTEX
  8
CAM_CONTROL
 10
7.575478
 20
3.386466
 30
0.0000
  0
SEQEND
  0
POLYLINE
  8
CAM_CONTROL
 66
1
 10
0.0000
 20
0.0000
 30
0.0000
 40
0.0020
 41
0.0020
  0
VERTEX
  8
CAM_CONTROL
 10
7.575478
 20
3.386466
 30
0.0000
  0
VERTEX
  8
CAM_CONTROL
 10
7.575478
 20
3.41843
 30
0.0000
  0
SEQEND
  0
POLYLINE
  8
CAM_CONTROL
 66
1
 10
0.0000
 20
0.0000
 30
0.0000
 40
0.0020
 41
0.0020
  0
VERTEX
  8
CAM_CONTROL
 10
7.625478
 20
3.43843
 30
0.0000
  0
VERTEX
  8
CAM_CONTROL
 10
7.625478
 20
3.474712
 30
0.0000
  0
SEQEND
  0
POLYLINE
  8
CAM_CONTROL
 66
1
 10
0.0000
 20
0.0000
 30
0.0000
 40
0.0020
 41
0.0020
  0
VERTEX
  8
CAM_CONTROL
 10
7.575478
 20
3.43843
 30
0.0000
  0
VERTEX
  8
CAM_CONTROL
 10
7.575478
 20
3.474716
 30
0.0000
  0
SEQEND
  0
POLYLINE
  8
CAM_CONTROL
 66
1
 10
0.0000
 20
0.0000
 30
0.0000
 40
0.0020
 41
0.0020
  0
VERTEX
  8
CAM_CONTROL
 10
7.675478
 20
3.43843
 30
0.0000
  0
VERTEX
  8
CAM_CONTROL
 10
7.625478
 20
3.43843
 30
0.0000
  0
SEQEND
  0
POLYLINE
  8
CAM_CONTROL
 66
1
 10
0.0000
 20
0.0000
 30
0.0000
 40
0.0020
 41
0.0020
  0
VERTEX
  8
CAM_CONTROL
 10
7.575478
 20
3.43843
 30
0.0000
  0
VERTEX
  8
CAM_CONTROL
 10
7.625478
 20
3.43843
 30
0.0000
  0
SEQEND
  0
POLYLINE
  8
CAM_CONTROL
 66
1
 10
0.0000
 20
0.0000
 30
0.0000
 40
0.0020
 41
0.0020
  0
VERTEX
  8
CAM_CONTROL
 10
7.625478
 20
3.4747121
 30
0.0000
 42
1.0000771
  0
VERTEX
  8
CAM_CONTROL
 10
7.575478
 20
3.474716
 30
0.0000
 42
0.0000
  0
SEQEND
  0
POLYLINE
  8
CAM_CONTROL
 66
1
 10
0.0000
 20
0.0000
 30
0.0000
 40
0.0020
 41
0.0020
  0
VERTEX
  8
CAM_CONTROL
 10
7.575478
 20
3.519716
 30
0.0000
  0
VERTEX
  8
CAM_CONTROL
 10
7.646907
 20
3.519716
 30
0.0000
  0
SEQEND
  0
POLYLINE
  8
CAM_CONTROL
 66
1
 10
0.0000
 20
0.0000
 30
0.0000
 40
0.0020
 41
0.0020
  0
VERTEX
  8
CAM_CONTROL
 10
7.575478
 20
3.578287
 30
0.0000
  0
VERTEX
  8
CAM_CONTROL
 10
7.646192
 20
3.578287
 30
0.0000
  0
SEQEND
  0
POLYLINE
  8
CAM_CONTROL
 66
1
 10
0.0000
 20
0.0000
 30
0.0000
 40
0.0020
 41
0.0020
  0
VERTEX
  8
CAM_CONTROL
 10
7.6469065
 20
3.5197161
 30
0.0000
 42
1.0098063
  0
VERTEX
  8
CAM_CONTROL
 10
7.646192
 20
3.578287
 30
0.0000
 42
0.0000
  0
SEQEND
  0
POLYLINE
  8
CAM_CONTROL
 66
1
 10
0.0000
 20
0.0000
 30
0.0000
 40
0.0020
 41
0.0020
  0
VERTEX
  8
CAM_CONTROL
 10
7.575478
 20
3.598287
 30
0.0000
  0
VERTEX
  8
CAM_CONTROL
 10
7.575478
 20
3.630252
 30
0.0000
  0
SEQEND
  0
POLYLINE
  8
CAM_CONTROL
 66
1
 10
0.0000
 20
0.0000
 30
0.0000
 40
0.0020
 41
0.0020
  0
VERTEX
  8
CAM_CONTROL
 10
7.675478
 20
3.630252
 30
0.0000
  0
VERTEX
  8
CAM_CONTROL
 10
7.575478
 20
3.630252
 30
0.0000
  0
SEQEND
  0
POLYLINE
  8
CAM_CONTROL
 66
1
 10
0.0000
 20
0.0000
 30
0.0000
 40
0.0020
 41
0.0020
  0
VERTEX
  8
CAM_CONTROL
 10
7.575478
 20
3.630252
 30
0.0000
  0
VERTEX
  8
CAM_CONTROL
 10
7.575478
 20
3.662216
 30
0.0000
  0
SEQEND
  0
TEXT
  8
CAM_CONTROL
 10
0.774589
 20
2.219422
 30
0.0000
 40
0.0959999
 41
0.857143
 51
0.0000
 71
0
  1
1.000"
 50
0.0000
  7
STYLE_3
  0
POLYLINE
  8
CAM_CONTROL
 66
1
 10
0.0000
 20
0.0000
 30
0.0000
 40
0.0020
 41
0.0020
  0
VERTEX
  8
CAM_CONTROL
 10
0.479469
 20
4.64994
 30
0.0000
  0
VERTEX
  8
CAM_CONTROL
 10
0.479469
 20
2.14994
 30
0.0000
  0
SEQEND
  0
POLYLINE
  8
CAM_CONTROL
 66
1
 10
0.0000
 20
0.0000
 30
0.0000
 40
0.0020
 41
0.0020
  0
VERTEX
  8
CAM_CONTROL
 10
1.469468
 20
4.64994
 30
0.0000
  0
VERTEX
  8
CAM_CONTROL
 10
1.469468
 20
2.14994
 30
0.0000
  0
SEQEND
  0
POLYLINE
  8
CAM_CONTROL
 66
1
 10
0.0000
 20
0.0000
 30
0.0000
 40
0.0020
 41
0.0020
  0
VERTEX
  8
CAM_CONTROL
 10
0.479469
 20
2.14994
 30
0.0000
  0
VERTEX
  8
CAM_CONTROL
 10
1.469468
 20
2.14994
 30
0.0000
  0
SEQEND
  0
POLYLINE
  8
CAM_CONTROL
 66
1
 10
0.0000
 20
0.0000
 30
0.0000
 40
0.0020
 41
0.0020
  0
VERTEX
  8
CAM_CONTROL
 10
1.469469
 20
4.64994
 30
0.0000
  0
VERTEX
  8
CAM_CONTROL
 10
0.479469
 20
4.64994
 30
0.0000
  0
SEQEND
  0
POLYLINE
  8
CAM_CONTROL
 66
1
 10
0.0000
 20
0.0000
 30
0.0000
 40
0.0020
 41
0.0020
  0
VERTEX
  8
CAM_CONTROL
 10
1.442381
 20
3.856315
 30
0.0000
  0
VERTEX
  8
CAM_CONTROL
 10
1.442381
 20
3.824351
 30
0.0000
  0
SEQEND
  0
POLYLINE
  8
CAM_CONTROL
 66
1
 10
0.0000
 20
0.0000
 30
0.0000
 40
0.0020
 41
0.0020
  0
VERTEX
  8
CAM_CONTROL
 10
1.342381
 20
3.856315
 30
0.0000
  0
VERTEX
  8
CAM_CONTROL
 10
1.442381
 20
3.856315
 30
0.0000
  0
SEQEND
  0
POLYLINE
  8
CAM_CONTROL
 66
1
 10
0.0000
 20
0.0000
 30
0.0000
 40
0.0020
 41
0.0020
  0
VERTEX
  8
CAM_CONTROL
 10
1.442381
 20
3.888279
 30
0.0000
  0
VERTEX
  8
CAM_CONTROL
 10
1.442381
 20
3.856315
 30
0.0000
  0
SEQEND
  0
POLYLINE
  8
CAM_CONTROL
 66
1
 10
0.0000
 20
0.0000
 30
0.0000
 40
0.0020
 41
0.0020
  0
VERTEX
  8
CAM_CONTROL
 10
1.3709526
 20
3.9668509
 30
0.0000
 42
1.0098035
  0
VERTEX
  8
CAM_CONTROL
 10
1.3716669
 20
3.9082799
 30
0.0000
 42
0.0000
  0
SEQEND
  0
POLYLINE
  8
CAM_CONTROL
 66
1
 10
0.0000
 20
0.0000
 30
0.0000
 40
0.0020
 41
0.0020
  0
VERTEX
  8
CAM_CONTROL
 10
1.442381
 20
3.908279
 30
0.0000
  0
VERTEX
  8
CAM_CONTROL
 10
1.371667
 20
3.908279
 30
0.0000
  0
SEQEND
  0
POLYLINE
  8
CAM_CONTROL
 66
1
 10
0.0000
 20
0.0000
 30
0.0000
 40
0.0020
 41
0.0020
  0
VERTEX
  8
CAM_CONTROL
 10
1.442381
 20
3.966851
 30
0.0000
  0
VERTEX
  8
CAM_CONTROL
 10
1.370952
 20
3.966851
 30
0.0000
  0
SEQEND
  0
POLYLINE
  8
CAM_CONTROL
 66
1
 10
0.0000
 20
0.0000
 30
0.0000
 40
0.0020
 41
0.0020
  0
VERTEX
  8
CAM_CONTROL
 10
1.392381
 20
4.0118549
 30
0.0000
 42
1.0000771
  0
VERTEX
  8
CAM_CONTROL
 10
1.442381
 20
4.011851
 30
0.0000
 42
0.0000
  0
SEQEND
  0
POLYLINE
  8
CAM_CONTROL
 66
1
 10
0.0000
 20
0.0000
 30
0.0000
 40
0.0020
 41
0.0020
  0
VERTEX
  8
CAM_CONTROL
 10
1.442381
 20
4.048137
 30
0.0000
  0
VERTEX
  8
CAM_CONTROL
 10
1.392381
 20
4.048137
 30
0.0000
  0
SEQEND
  0
POLYLINE
  8
CAM_CONTROL
 66
1
 10
0.0000
 20
0.0000
 30
0.0000
 40
0.0020
 41
0.0020
  0
VERTEX
  8
CAM_CONTROL
 10
1.342381
 20
4.048137
 30
0.0000
  0
VERTEX
  8
CAM_CONTROL
 10
1.392381
 20
4.048137
 30
0.0000
  0
SEQEND
  0
POLYLINE
  8
CAM_CONTROL
 66
1
 10
0.0000
 20
0.0000
 30
0.0000
 40
0.0020
 41
0.0020
  0
VERTEX
  8
CAM_CONTROL
 10
1.442381
 20
4.048137
 30
0.0000
  0
VERTEX
  8
CAM_CONTROL
 10
1.442381
 20
4.011851
 30
0.0000
  0
SEQEND
  0
POLYLINE
  8
CAM_CONTROL
 66
1
 10
0.0000
 20
0.0000
 30
0.0000
 40
0.0020
 41
0.0020
  0
VERTEX
  8
CAM_CONTROL
 10
1.392381
 20
4.048137
 30
0.0000
  0
VERTEX
  8
CAM_CONTROL
 10
1.392381
 20
4.011855
 30
0.0000
  0
SEQEND
  0
POLYLINE
  8
CAM_CONTROL
 66
1
 10
0.0000
 20
0.0000
 30
0.0000
 40
0.0020
 41
0.0020
  0
VERTEX
  8
CAM_CONTROL
 10
1.442381
 20
4.129422
 30
0.0000
  0
VERTEX
  8
CAM_CONTROL
 10
1.342381
 20
4.068137
 30
0.0000
  0
SEQEND
  0
POLYLINE
  8
CAM_CONTROL
 66
1
 10
0.0000
 20
0.0000
 30
0.0000
 40
0.0020
 41
0.0020
  0
VERTEX
  8
CAM_CONTROL
 10
1.342381
 20
4.068137
 30
0.0000
  0
VERTEX
  8
CAM_CONTROL
 10
1.442381
 20
4.068137
 30
0.0000
  0
SEQEND
  0
POLYLINE
  8
CAM_CONTROL
 66
1
 10
0.0000
 20
0.0000
 30
0.0000
 40
0.0020
 41
0.0020
  0
VERTEX
  8
CAM_CONTROL
 10
1.342381
 20
4.129422
 30
0.0000
  0
VERTEX
  8
CAM_CONTROL
 10
1.442381
 20
4.129422
 30
0.0000
  0
SEQEND
  0
POLYLINE
  8
CAM_CONTROL
 66
1
 10
0.0000
 20
0.0000
 30
0.0000
 40
0.0020
 41
0.0020
  0
VERTEX
  8
CAM_CONTROL
 10
1.442381
 20
4.149422
 30
0.0000
  0
VERTEX
  8
CAM_CONTROL
 10
1.442381
 20
4.163708
 30
0.0000
  0
SEQEND
  0
POLYLINE
  8
CAM_CONTROL
 66
1
 10
0.0000
 20
0.0000
 30
0.0000
 40
0.0020
 41
0.0020
  0
VERTEX
  8
CAM_CONTROL
 10
1.442381
 20
4.177994
 30
0.0000
  0
VERTEX
  8
CAM_CONTROL
 10
1.442381
 20
4.163708
 30
0.0000
  0
SEQEND
  0
POLYLINE
  8
CAM_CONTROL
 66
1
 10
0.0000
 20
0.0000
 30
0.0000
 40
0.0020
 41
0.0020
  0
VERTEX
  8
CAM_CONTROL
 10
1.342381
 20
4.149422
 30
0.0000
  0
VERTEX
  8
CAM_CONTROL
 10
1.342381
 20
4.163708
 30
0.0000
  0
SEQEND
  0
POLYLINE
  8
CAM_CONTROL
 66
1
 10
0.0000
 20
0.0000
 30
0.0000
 40
0.0020
 41
0.0020
  0
VERTEX
  8
CAM_CONTROL
 10
1.342381
 20
4.177994
 30
0.0000
  0
VERTEX
  8
CAM_CONTROL
 10
1.342381
 20
4.163708
 30
0.0000
  0
SEQEND
  0
POLYLINE
  8
CAM_CONTROL
 66
1
 10
0.0000
 20
0.0000
 30
0.0000
 40
0.0020
 41
0.0020
  0
VERTEX
  8
CAM_CONTROL
 10
1.342381
 20
4.163708
 30
0.0000
  0
VERTEX
  8
CAM_CONTROL
 10
1.442381
 20
4.163708
 30
0.0000
  0
SEQEND
  0
POLYLINE
  8
CAM_CONTROL
 66
1
 10
0.0000
 20
0.0000
 30
0.0000
 40
0.0020
 41
0.0020
  0
VERTEX
  8
CAM_CONTROL
 10
0.564469
 20
2.99994
 30
0.0000
  0
VERTEX
  8
CAM_CONTROL
 10
0.564469
 20
2.74994
 30
0.0000
  0
SEQEND
  0
POLYLINE
  8
CAM_CONTROL
 66
1
 10
0.0000
 20
0.0000
 30
0.0000
 40
0.0020
 41
0.0020
  0
VERTEX
  8
CAM_CONTROL
 10
0.564469
 20
2.74994
 30
0.0000
  0
VERTEX
  8
CAM_CONTROL
 10
1.064469
 20
2.74994
 30
0.0000
  0
SEQEND
  0
POLYLINE
  8
CAM_CONTROL
 66
1
 10
0.0000
 20
0.0000
 30
0.0000
 40
0.0020
 41
0.0020
  0
VERTEX
  8
CAM_CONTROL
 10
1.064469
 20
2.74994
 30
0.0000
  0
VERTEX
  8
CAM_CONTROL
 10
1.064469
 20
3.24994
 30
0.0000
  0
SEQEND
  0
POLYLINE
  8
CAM_CONTROL
 66
1
 10
0.0000
 20
0.0000
 30
0.0000
 40
0.0020
 41
0.0020
  0
VERTEX
  8
CAM_CONTROL
 10
1.064469
 20
3.24994
 30
0.0000
  0
VERTEX
  8
CAM_CONTROL
 10
0.564469
 20
3.24994
 30
0.0000
  0
SEQEND
  0
POLYLINE
  8
CAM_CONTROL
 66
1
 10
0.0000
 20
0.0000
 30
0.0000
 40
0.0020
 41
0.0020
  0
VERTEX
  8
CAM_CONTROL
 10
0.564469
 20
3.24994
 30
0.0000
  0
VERTEX
  8
CAM_CONTROL
 10
0.564469
 20
2.99694
 30
0.0000
  0
SEQEND
  0
POLYLINE
  8
CAM_CONTROL
 66
1
 10
0.0000
 20
0.0000
 30
0.0000
 40
0.0020
 41
0.0020
  0
VERTEX
  8
CAM_CONTROL
 10
0.814469
 20
2.91794
 30
0.0000
 42
0.4142136
  0
VERTEX
  8
CAM_CONTROL
 10
0.896469
 20
2.99994
 30
0.0000
 42
0.0000
  0
SEQEND
  0
POLYLINE
  8
CAM_CONTROL
 66
1
 10
0.0000
 20
0.0000
 30
0.0000
 40
0.0020
 41
0.0020
  0
VERTEX
  8
CAM_CONTROL
 10
0.732469
 20
2.99994
 30
0.0000
 42
0.4142136
  0
VERTEX
  8
CAM_CONTROL
 10
0.814469
 20
2.91794
 30
0.0000
 42
0.0000
  0
SEQEND
  0
POLYLINE
  8
CAM_CONTROL
 66
1
 10
0.0000
 20
0.0000
 30
0.0000
 40
0.0020
 41
0.0020
  0
VERTEX
  8
CAM_CONTROL
 10
0.814469
 20
3.08194
 30
0.0000
 42
0.4142136
  0
VERTEX
  8
CAM_CONTROL
 10
0.732469
 20
2.99994
 30
0.0000
 42
0.0000
  0
SEQEND
  0
POLYLINE
  8
CAM_CONTROL
 66
1
 10
0.0000
 20
0.0000
 30
0.0000
 40
0.0020
 41
0.0020
  0
VERTEX
  8
CAM_CONTROL
 10
0.896469
 20
2.99994
 30
0.0000
 42
0.4142136
  0
VERTEX
  8
CAM_CONTROL
 10
0.814469
 20
3.08194
 30
0.0000
 42
0.0000
  0
SEQEND
  0
POLYLINE
  8
CAM_CONTROL
 66
1
 10
0.0000
 20
0.0000
 30
0.0000
 40
0.0020
 41
0.0020
  0
VERTEX
  8
CAM_CONTROL
 10
0.839469
 20
2.99994
 30
0.0000
  0
VERTEX
  8
CAM_CONTROL
 10
0.789469
 20
2.99994
 30
0.0000
  0
SEQEND
  0
POLYLINE
  8
CAM_CONTROL
 66
1
 10
0.0000
 20
0.0000
 30
0.0000
 40
0.0020
 41
0.0020
  0
VERTEX
  8
CAM_CONTROL
 10
0.814469
 20
3.02494
 30
0.0000
  0
VERTEX
  8
CAM_CONTROL
 10
0.814469
 20
2.97494
 30
0.0000
  0
SEQEND
  0
POLYLINE
  8
CAM_CONTROL
 66
1
 10
0.0000
 20
0.0000
 30
0.0000
 40
0.0020
 41
0.0020
  0
VERTEX
  8
CAM_CONTROL
 10
0.644469
 20
2.85494
 30
0.0000
  0
VERTEX
  8
CAM_CONTROL
 10
0.619469
 20
2.82994
 30
0.0000
  0
SEQEND
  0
POLYLINE
  8
CAM_CONTROL
 66
1
 10
0.0000
 20
0.0000
 30
0.0000
 40
0.0020
 41
0.0020
  0
VERTEX
  8
CAM_CONTROL
 10
0.669469
 20
2.82994
 30
0.0000
  0
VERTEX
  8
CAM_CONTROL
 10
0.644469
 20
2.85494
 30
0.0000
  0
SEQEND
  0
POLYLINE
  8
CAM_CONTROL
 66
1
 10
0.0000
 20
0.0000
 30
0.0000
 40
0.0020
 41
0.0020
  0
VERTEX
  8
CAM_CONTROL
 10
0.644469
 20
2.80494
 30
0.0000
  0
VERTEX
  8
CAM_CONTROL
 10
0.669469
 20
2.82994
 30
0.0000
  0
SEQEND
  0
POLYLINE
  8
CAM_CONTROL
 66
1
 10
0.0000
 20
0.0000
 30
0.0000
 40
0.0020
 41
0.0020
  0
VERTEX
  8
CAM_CONTROL
 10
0.619469
 20
2.82994
 30
0.0000
  0
VERTEX
  8
CAM_CONTROL
 10
0.644469
 20
2.80494
 30
0.0000
  0
SEQEND
  0
POLYLINE
  8
CAM_CONTROL
 66
1
 10
0.0000
 20
0.0000
 30
0.0000
 40
0.0020
 41
0.0020
  0
VERTEX
  8
CAM_CONTROL
 10
0.984469
 20
2.85494
 30
0.0000
  0
VERTEX
  8
CAM_CONTROL
 10
0.959469
 20
2.82994
 30
0.0000
  0
SEQEND
  0
POLYLINE
  8
CAM_CONTROL
 66
1
 10
0.0000
 20
0.0000
 30
0.0000
 40
0.0020
 41
0.0020
  0
VERTEX
  8
CAM_CONTROL
 10
1.009469
 20
2.82994
 30
0.0000
  0
VERTEX
  8
CAM_CONTROL
 10
0.984469
 20
2.85494
 30
0.0000
  0
SEQEND
  0
POLYLINE
  8
CAM_CONTROL
 66
1
 10
0.0000
 20
0.0000
 30
0.0000
 40
0.0020
 41
0.0020
  0
VERTEX
  8
CAM_CONTROL
 10
0.984469
 20
2.80494
 30
0.0000
  0
VERTEX
  8
CAM_CONTROL
 10
1.009469
 20
2.82994
 30
0.0000
  0
SEQEND
  0
POLYLINE
  8
CAM_CONTROL
 66
1
 10
0.0000
 20
0.0000
 30
0.0000
 40
0.0020
 41
0.0020
  0
VERTEX
  8
CAM_CONTROL
 10
0.959469
 20
2.82994
 30
0.0000
  0
VERTEX
  8
CAM_CONTROL
 10
0.984469
 20
2.80494
 30
0.0000
  0
SEQEND
  0
POLYLINE
  8
CAM_CONTROL
 66
1
 10
0.0000
 20
0.0000
 30
0.0000
 40
0.0020
 41
0.0020
  0
VERTEX
  8
CAM_CONTROL
 10
0.984469
 20
3.19494
 30
0.0000
  0
VERTEX
  8
CAM_CONTROL
 10
0.959469
 20
3.16994
 30
0.0000
  0
SEQEND
  0
POLYLINE
  8
CAM_CONTROL
 66
1
 10
0.0000
 20
0.0000
 30
0.0000
 40
0.0020
 41
0.0020
  0
VERTEX
  8
CAM_CONTROL
 10
1.009469
 20
3.16994
 30
0.0000
  0
VERTEX
  8
CAM_CONTROL
 10
0.984469
 20
3.19494
 30
0.0000
  0
SEQEND
  0
POLYLINE
  8
CAM_CONTROL
 66
1
 10
0.0000
 20
0.0000
 30
0.0000
 40
0.0020
 41
0.0020
  0
VERTEX
  8
CAM_CONTROL
 10
0.984469
 20
3.14494
 30
0.0000
  0
VERTEX
  8
CAM_CONTROL
 10
1.009469
 20
3.16994
 30
0.0000
  0
SEQEND
  0
POLYLINE
  8
CAM_CONTROL
 66
1
 10
0.0000
 20
0.0000
 30
0.0000
 40
0.0020
 41
0.0020
  0
VERTEX
  8
CAM_CONTROL
 10
0.959469
 20
3.16994
 30
0.0000
  0
VERTEX
  8
CAM_CONTROL
 10
0.984469
 20
3.14494
 30
0.0000
  0
SEQEND
  0
POLYLINE
  8
CAM_CONTROL
 66
1
 10
0.0000
 20
0.0000
 30
0.0000
 40
0.0020
 41
0.0020
  0
VERTEX
  8
CAM_CONTROL
 10
0.644469
 20
3.19494
 30
0.0000
  0
VERTEX
  8
CAM_CONTROL
 10
0.619469
 20
3.16994
 30
0.0000
  0
SEQEND
  0
POLYLINE
  8
CAM_CONTROL
 66
1
 10
0.0000
 20
0.0000
 30
0.0000
 40
0.0020
 41
0.0020
  0
VERTEX
  8
CAM_CONTROL
 10
0.669469
 20
3.16994
 30
0.0000
  0
VERTEX
  8
CAM_CONTROL
 10
0.644469
 20
3.19494
 30
0.0000
  0
SEQEND
  0
POLYLINE
  8
CAM_CONTROL
 66
1
 10
0.0000
 20
0.0000
 30
0.0000
 40
0.0020
 41
0.0020
  0
VERTEX
  8
CAM_CONTROL
 10
0.644469
 20
3.14494
 30
0.0000
  0
VERTEX
  8
CAM_CONTROL
 10
0.669469
 20
3.16994
 30
0.0000
  0
SEQEND
  0
POLYLINE
  8
CAM_CONTROL
 66
1
 10
0.0000
 20
0.0000
 30
0.0000
 40
0.0020
 41
0.0020
  0
VERTEX
  8
CAM_CONTROL
 10
0.619469
 20
3.16994
 30
0.0000
  0
VERTEX
  8
CAM_CONTROL
 10
0.644469
 20
3.14494
 30
0.0000
  0
SEQEND
  0
POLYLINE
  8
CAM_CONTROL
 66
1
 10
0.0000
 20
0.0000
 30
0.0000
 40
0.0020
 41
0.0020
  0
VERTEX
  8
CAM_CONTROL
 10
0.474469
 20
2.29994
 30
0.0000
  0
VERTEX
  8
CAM_CONTROL
 10
0.573449
 20
2.33294
 30
0.0000
  0
SEQEND
  0
POLYLINE
  8
CAM_CONTROL
 66
1
 10
0.0000
 20
0.0000
 30
0.0000
 40
0.0020
 41
0.0020
  0
VERTEX
  8
CAM_CONTROL
 10
0.573449
 20
2.26696
 30
0.0000
  0
VERTEX
  8
CAM_CONTROL
 10
0.562449
 20
2.29994
 30
0.0000
  0
SEQEND
  0
POLYLINE
  8
CAM_CONTROL
 66
1
 10
0.0000
 20
0.0000
 30
0.0000
 40
0.0020
 41
0.0020
  0
VERTEX
  8
CAM_CONTROL
 10
0.474469
 20
2.29994
 30
0.0000
  0
VERTEX
  8
CAM_CONTROL
 10
0.573449
 20
2.26696
 30
0.0000
  0
SEQEND
  0
POLYLINE
  8
CAM_CONTROL
 66
1
 10
0.0000
 20
0.0000
 30
0.0000
 40
0.0020
 41
0.0020
  0
VERTEX
  8
CAM_CONTROL
 10
0.573449
 20
2.33294
 30
0.0000
  0
VERTEX
  8
CAM_CONTROL
 10
0.562449
 20
2.29994
 30
0.0000
  0
SEQEND
  0
POLYLINE
  8
CAM_CONTROL
 66
1
 10
0.0000
 20
0.0000
 30
0.0000
 40
0.0020
 41
0.0020
  0
VERTEX
  8
CAM_CONTROL
 10
0.562449
 20
2.29994
 30
0.0000
  0
VERTEX
  8
CAM_CONTROL
 10
0.724509
 20
2.29994
 30
0.0000
  0
SEQEND
  0
POLYLINE
  8
CAM_CONTROL
 66
1
 10
0.0000
 20
0.0000
 30
0.0000
 40
0.0020
 41
0.0020
  0
VERTEX
  8
CAM_CONTROL
 10
1.474469
 20
2.29994
 30
0.0000
  0
VERTEX
  8
CAM_CONTROL
 10
1.375509
 20
2.26696
 30
0.0000
  0
SEQEND
  0
POLYLINE
  8
CAM_CONTROL
 66
1
 10
0.0000
 20
0.0000
 30
0.0000
 40
0.0020
 41
0.0020
  0
VERTEX
  8
CAM_CONTROL
 10
1.375509
 20
2.33294
 30
0.0000
  0
VERTEX
  8
CAM_CONTROL
 10
1.386489
 20
2.29994
 30
0.0000
  0
SEQEND
  0
POLYLINE
  8
CAM_CONTROL
 66
1
 10
0.0000
 20
0.0000
 30
0.0000
 40
0.0020
 41
0.0020
  0
VERTEX
  8
CAM_CONTROL
 10
1.474469
 20
2.29994
 30
0.0000
  0
VERTEX
  8
CAM_CONTROL
 10
1.375509
 20
2.33294
 30
0.0000
  0
SEQEND
  0
POLYLINE
  8
CAM_CONTROL
 66
1
 10
0.0000
 20
0.0000
 30
0.0000
 40
0.0020
 41
0.0020
  0
VERTEX
  8
CAM_CONTROL
 10
1.375509
 20
2.26696
 30
0.0000
  0
VERTEX
  8
CAM_CONTROL
 10
1.386489
 20
2.29994
 30
0.0000
  0
SEQEND
  0
POLYLINE
  8
CAM_CONTROL
 66
1
 10
0.0000
 20
0.0000
 30
0.0000
 40
0.0020
 41
0.0020
  0
VERTEX
  8
CAM_CONTROL
 10
1.386489
 20
2.29994
 30
0.0000
  0
VERTEX
  8
CAM_CONTROL
 10
1.224449
 20
2.29994
 30
0.0000
  0
SEQEND
  0
POLYLINE
  8
CAM_CONTROL
 66
1
 10
0.0000
 20
0.0000
 30
0.0000
 40
0.0020
 41
0.0020
  0
VERTEX
  8
CAM_CONTROL
 10
0.896469
 20
2.99994
 30
0.0000
 42
1.0000
  0
VERTEX
  8
CAM_CONTROL
 10
0.732469
 20
2.99994
 30
0.0000
 42
0.0000
  0
SEQEND
  0
POLYLINE
  8
CAM_CONTROL
 66
1
 10
0.0000
 20
0.0000
 30
0.0000
 40
0.0020
 41
0.0020
  0
VERTEX
  8
CAM_CONTROL
 10
0.732469
 20
2.99994
 30
0.0000
 42
1.0000
  0
VERTEX
  8
CAM_CONTROL
 10
0.896469
 20
2.99994
 30
0.0000
 42
0.0000
  0
SEQEND
  0
POLYLINE
  8
CAM_CONTROL
 66
1
 10
0.0000
 20
0.0000
 30
0.0000
 40
0.0020
 41
0.0020
  0
VERTEX
  8
CAM_CONTROL
 10
0.474469
 20
2.39994
 30
0.0000
  0
VERTEX
  8
CAM_CONTROL
 10
1.474469
 20
2.39994
 30
0.0000
  0
SEQEND
  0
POLYLINE
  8
CAM_CONTROL
 66
1
 10
0.0000
 20
0.0000
 30
0.0000
 40
0.0020
 41
0.0020
  0
VERTEX
  8
CAM_CONTROL
 10
0.839469
 20
2.99994
 30
0.0000
  0
VERTEX
  8
CAM_CONTROL
 10
0.789469
 20
2.99994
 30
0.0000
  0
SEQEND
  0
POLYLINE
  8
CAM_CONTROL
 66
1
 10
0.0000
 20
0.0000
 30
0.0000
 40
0.0020
 41
0.0020
  0
VERTEX
  8
CAM_CONTROL
 10
0.814469
 20
3.02494
 30
0.0000
  0
VERTEX
  8
CAM_CONTROL
 10
0.814469
 20
2.97494
 30
0.0000
  0
SEQEND
  0
POLYLINE
  8
CAM_CONTROL
 66
1
 10
0.0000
 20
0.0000
 30
0.0000
 40
0.0020
 41
0.0020
  0
VERTEX
  8
CAM_CONTROL
 10
4.008813
 20
5.699503
 30
0.0000
  0
VERTEX
  8
CAM_CONTROL
 10
4.04817
 20
5.6826
 30
0.0000
  0
SEQEND
  0
POLYLINE
  8
CAM_CONTROL
 66
1
 10
0.0000
 20
0.0000
 30
0.0000
 40
0.0020
 41
0.0020
  0
VERTEX
  8
CAM_CONTROL
 10
4.024976
 20
5.741149
 30
0.0000
  0
VERTEX
  8
CAM_CONTROL
 10
4.033101
 20
5.741049
 30
0.0000
  0
SEQEND
  0
POLYLINE
  8
CAM_CONTROL
 66
1
 10
0.0000
 20
0.0000
 30
0.0000
 40
0.0020
 41
0.0020
  0
VERTEX
  8
CAM_CONTROL
 10
4.0575806
 20
5.7268654
 30
0.0000
 42
0.2622357
  0
VERTEX
  8
CAM_CONTROL
 10
4.0331009
 20
5.7410498
 30
0.0000
 42
0.0000
  0
SEQEND
  0
POLYLINE
  8
CAM_CONTROL
 66
1
 10
0.0000
 20
0.0000
 30
0.0000
 40
0.0020
 41
0.0020
  0
VERTEX
  8
CAM_CONTROL
 10
4.0249762
 20
5.7411491
 30
0.0000
 42
0.4042915
  0
VERTEX
  8
CAM_CONTROL
 10
3.9983661
 20
5.7160514
 30
0.0000
 42
0.0000
  0
SEQEND
  0
POLYLINE
  8
CAM_CONTROL
 66
1
 10
0.0000
 20
0.0000
 30
0.0000
 40
0.0020
 41
0.0020
  0
VERTEX
  8
CAM_CONTROL
 10
3.9983669
 20
5.7160517
 30
0.0000
 42
0.2408296
  0
VERTEX
  8
CAM_CONTROL
 10
4.0088134
 20
5.6995036
 30
0.0000
 42
0.0000
  0
SEQEND
  0
POLYLINE
  8
CAM_CONTROL
 66
1
 10
0.0000
 20
0.0000
 30
0.0000
 40
0.0020
 41
0.0020
  0
VERTEX
  8
CAM_CONTROL
 10
4.021882
 20
5.641053
 30
0.0000
  0
VERTEX
  8
CAM_CONTROL
 10
4.032072
 20
5.640954
 30
0.0000
  0
SEQEND
  0
POLYLINE
  8
CAM_CONTROL
 66
1
 10
0.0000
 20
0.0000
 30
0.0000
 40
0.0020
 41
0.0020
  0
VERTEX
  8
CAM_CONTROL
 10
3.9973305
 20
5.6552376
 30
0.0000
 42
0.2629001
  0
VERTEX
  8
CAM_CONTROL
 10
4.0218818
 20
5.6410524
 30
0.0000
 42
0.0000
  0
SEQEND
  0
POLYLINE
  8
CAM_CONTROL
 66
1
 10
0.0000
 20
0.0000
 30
0.0000
 40
0.0020
 41
0.0020
  0
VERTEX
  8
CAM_CONTROL
 10
4.0320723
 20
5.6409532
 30
0.0000
 42
0.4035676
  0
VERTEX
  8
CAM_CONTROL
 10
4.0586169
 20
5.6660517
 30
0.0000
 42
0.0000
  0
SEQEND
  0
POLYLINE
  8
CAM_CONTROL
 66
1
 10
0.0000
 20
0.0000
 30
0.0000
 40
0.0020
 41
0.0020
  0
VERTEX
  8
CAM_CONTROL
 10
4.0586161
 20
5.6660513
 30
0.0000
 42
0.2408296
  0
VERTEX
  8
CAM_CONTROL
 10
4.0481696
 20
5.6825994
 30
0.0000
 42
0.0000
  0
SEQEND
  0
POLYLINE
  8
CAM_CONTROL
 66
1
 10
0.0000
 20
0.0000
 30
0.0000
 40
0.0020
 41
0.0020
  0
VERTEX
  8
CAM_CONTROL
 10
3.918688
 20
5.641052
 30
0.0000
  0
VERTEX
  8
CAM_CONTROL
 10
3.918688
 20
5.691052
 30
0.0000
  0
SEQEND
  0
POLYLINE
  8
CAM_CONTROL
 66
1
 10
0.0000
 20
0.0000
 30
0.0000
 40
0.0020
 41
0.0020
  0
VERTEX
  8
CAM_CONTROL
 10
3.918688
 20
5.741052
 30
0.0000
  0
VERTEX
  8
CAM_CONTROL
 10
3.918688
 20
5.691052
 30
0.0000
  0
SEQEND
  0
POLYLINE
  8
CAM_CONTROL
 66
1
 10
0.0000
 20
0.0000
 30
0.0000
 40
0.0020
 41
0.0020
  0
VERTEX
  8
CAM_CONTROL
 10
3.918688
 20
5.741052
 30
0.0000
  0
VERTEX
  8
CAM_CONTROL
 10
3.977331
 20
5.741052
 30
0.0000
  0
SEQEND
  0
POLYLINE
  8
CAM_CONTROL
 66
1
 10
0.0000
 20
0.0000
 30
0.0000
 40
0.0020
 41
0.0020
  0
VERTEX
  8
CAM_CONTROL
 10
3.918688
 20
5.641052
 30
0.0000
  0
VERTEX
  8
CAM_CONTROL
 10
3.977331
 20
5.641052
 30
0.0000
  0
SEQEND
  0
POLYLINE
  8
CAM_CONTROL
 66
1
 10
0.0000
 20
0.0000
 30
0.0000
 40
0.0020
 41
0.0020
  0
VERTEX
  8
CAM_CONTROL
 10
3.918688
 20
5.691052
 30
0.0000
  0
VERTEX
  8
CAM_CONTROL
 10
3.964474
 20
5.691052
 30
0.0000
  0
SEQEND
  0
POLYLINE
  8
CAM_CONTROL
 66
1
 10
0.0000
 20
0.0000
 30
0.0000
 40
0.0020
 41
0.0020
  0
VERTEX
  8
CAM_CONTROL
 10
3.898688
 20
5.641052
 30
0.0000
  0
VERTEX
  8
CAM_CONTROL
 10
3.898688
 20
5.691052
 30
0.0000
  0
SEQEND
  0
POLYLINE
  8
CAM_CONTROL
 66
1
 10
0.0000
 20
0.0000
 30
0.0000
 40
0.0020
 41
0.0020
  0
VERTEX
  8
CAM_CONTROL
 10
3.898688
 20
5.741052
 30
0.0000
  0
VERTEX
  8
CAM_CONTROL
 10
3.898688
 20
5.691052
 30
0.0000
  0
SEQEND
  0
POLYLINE
  8
CAM_CONTROL
 66
1
 10
0.0000
 20
0.0000
 30
0.0000
 40
0.0020
 41
0.0020
  0
VERTEX
  8
CAM_CONTROL
 10
3.837974
 20
5.641052
 30
0.0000
  0
VERTEX
  8
CAM_CONTROL
 10
3.837974
 20
5.691052
 30
0.0000
  0
SEQEND
  0
POLYLINE
  8
CAM_CONTROL
 66
1
 10
0.0000
 20
0.0000
 30
0.0000
 40
0.0020
 41
0.0020
  0
VERTEX
  8
CAM_CONTROL
 10
3.837974
 20
5.741052
 30
0.0000
  0
VERTEX
  8
CAM_CONTROL
 10
3.837974
 20
5.691052
 30
0.0000
  0
SEQEND
  0
POLYLINE
  8
CAM_CONTROL
 66
1
 10
0.0000
 20
0.0000
 30
0.0000
 40
0.0020
 41
0.0020
  0
VERTEX
  8
CAM_CONTROL
 10
3.837974
 20
5.691052
 30
0.0000
  0
VERTEX
  8
CAM_CONTROL
 10
3.898688
 20
5.691052
 30
0.0000
  0
SEQEND
  0
POLYLINE
  8
CAM_CONTROL
 66
1
 10
0.0000
 20
0.0000
 30
0.0000
 40
0.0020
 41
0.0020
  0
VERTEX
  8
CAM_CONTROL
 10
3.7546079
 20
5.7196234
 30
0.0000
 42
0.1647051
  0
VERTEX
  8
CAM_CONTROL
 10
3.7546079
 20
5.6624806
 30
0.0000
 42
0.0000
  0
SEQEND
  0
POLYLINE
  8
CAM_CONTROL
 66
1
 10
0.0000
 20
0.0000
 30
0.0000
 40
0.0020
 41
0.0020
  0
VERTEX
  8
CAM_CONTROL
 10
3.7546081
 20
5.6624798
 30
0.0000
 42
0.5769614
  0
VERTEX
  8
CAM_CONTROL
 10
3.8179739
 20
5.6562147
 30
0.0000
 42
0.0000
  0
SEQEND
  0
POLYLINE
  8
CAM_CONTROL
 66
1
 10
0.0000
 20
0.0000
 30
0.0000
 40
0.0020
 41
0.0020
  0
VERTEX
  8
CAM_CONTROL
 10
3.8179739
 20
5.7258883
 30
0.0000
 42
0.5769608
  0
VERTEX
  8
CAM_CONTROL
 10
3.7546081
 20
5.7196232
 30
0.0000
 42
0.0000
  0
SEQEND
  0
POLYLINE
  8
CAM_CONTROL
 66
1
 10
0.0000
 20
0.0000
 30
0.0000
 40
0.0020
 41
0.0020
  0
VERTEX
  8
CAM_CONTROL
 10
3.668616
 20
5.741052
 30
0.0000
  0
VERTEX
  8
CAM_CONTROL
 10
3.729902
 20
5.641052
 30
0.0000
  0
SEQEND
  0
POLYLINE
  8
CAM_CONTROL
 66
1
 10
0.0000
 20
0.0000
 30
0.0000
 40
0.0020
 41
0.0020
  0
VERTEX
  8
CAM_CONTROL
 10
3.729902
 20
5.641052
 30
0.0000
  0
VERTEX
  8
CAM_CONTROL
 10
3.729902
 20
5.741052
 30
0.0000
  0
SEQEND
  0
POLYLINE
  8
CAM_CONTROL
 66
1
 10
0.0000
 20
0.0000
 30
0.0000
 40
0.0020
 41
0.0020
  0
VERTEX
  8
CAM_CONTROL
 10
3.668616
 20
5.641052
 30
0.0000
  0
VERTEX
  8
CAM_CONTROL
 10
3.668616
 20
5.741052
 30
0.0000
  0
SEQEND
  0
POLYLINE
  8
CAM_CONTROL
 66
1
 10
0.0000
 20
0.0000
 30
0.0000
 40
0.0020
 41
0.0020
  0
VERTEX
  8
CAM_CONTROL
 10
3.648616
 20
5.741052
 30
0.0000
  0
VERTEX
  8
CAM_CONTROL
 10
3.634331
 20
5.741052
 30
0.0000
  0
SEQEND
  0
POLYLINE
  8
CAM_CONTROL
 66
1
 10
0.0000
 20
0.0000
 30
0.0000
 40
0.0020
 41
0.0020
  0
VERTEX
  8
CAM_CONTROL
 10
3.620045
 20
5.741052
 30
0.0000
  0
VERTEX
  8
CAM_CONTROL
 10
3.634331
 20
5.741052
 30
0.0000
  0
SEQEND
  0
POLYLINE
  8
CAM_CONTROL
 66
1
 10
0.0000
 20
0.0000
 30
0.0000
 40
0.0020
 41
0.0020
  0
VERTEX
  8
CAM_CONTROL
 10
3.648616
 20
5.641052
 30
0.0000
  0
VERTEX
  8
CAM_CONTROL
 10
3.634331
 20
5.641052
 30
0.0000
  0
SEQEND
  0
POLYLINE
  8
CAM_CONTROL
 66
1
 10
0.0000
 20
0.0000
 30
0.0000
 40
0.0020
 41
0.0020
  0
VERTEX
  8
CAM_CONTROL
 10
3.620045
 20
5.641052
 30
0.0000
  0
VERTEX
  8
CAM_CONTROL
 10
3.634331
 20
5.641052
 30
0.0000
  0
SEQEND
  0
POLYLINE
  8
CAM_CONTROL
 66
1
 10
0.0000
 20
0.0000
 30
0.0000
 40
0.0020
 41
0.0020
  0
VERTEX
  8
CAM_CONTROL
 10
3.634331
 20
5.641052
 30
0.0000
  0
VERTEX
  8
CAM_CONTROL
 10
3.634331
 20
5.741052
 30
0.0000
  0
SEQEND
  0
POLYLINE
  8
CAM_CONTROL
 66
1
 10
0.0000
 20
0.0000
 30
0.0000
 40
0.0020
 41
0.0020
  0
VERTEX
  8
CAM_CONTROL
 10
3.461616
 20
5.741052
 30
0.0000
  0
VERTEX
  8
CAM_CONTROL
 10
3.522902
 20
5.641052
 30
0.0000
  0
SEQEND
  0
POLYLINE
  8
CAM_CONTROL
 66
1
 10
0.0000
 20
0.0000
 30
0.0000
 40
0.0020
 41
0.0020
  0
VERTEX
  8
CAM_CONTROL
 10
3.522902
 20
5.641052
 30
0.0000
  0
VERTEX
  8
CAM_CONTROL
 10
3.522902
 20
5.741052
 30
0.0000
  0
SEQEND
  0
POLYLINE
  8
CAM_CONTROL
 66
1
 10
0.0000
 20
0.0000
 30
0.0000
 40
0.0020
 41
0.0020
  0
VERTEX
  8
CAM_CONTROL
 10
3.461616
 20
5.641052
 30
0.0000
  0
VERTEX
  8
CAM_CONTROL
 10
3.461616
 20
5.741052
 30
0.0000
  0
SEQEND
  0
POLYLINE
  8
CAM_CONTROL
 66
1
 10
0.0000
 20
0.0000
 30
0.0000
 40
0.0020
 41
0.0020
  0
VERTEX
  8
CAM_CONTROL
 10
3.441616
 20
5.741052
 30
0.0000
  0
VERTEX
  8
CAM_CONTROL
 10
3.427331
 20
5.741052
 30
0.0000
  0
SEQEND
  0
POLYLINE
  8
CAM_CONTROL
 66
1
 10
0.0000
 20
0.0000
 30
0.0000
 40
0.0020
 41
0.0020
  0
VERTEX
  8
CAM_CONTROL
 10
3.413045
 20
5.741052
 30
0.0000
  0
VERTEX
  8
CAM_CONTROL
 10
3.427331
 20
5.741052
 30
0.0000
  0
SEQEND
  0
POLYLINE
  8
CAM_CONTROL
 66
1
 10
0.0000
 20
0.0000
 30
0.0000
 40
0.0020
 41
0.0020
  0
VERTEX
  8
CAM_CONTROL
 10
3.441616
 20
5.641052
 30
0.0000
  0
VERTEX
  8
CAM_CONTROL
 10
3.427331
 20
5.641052
 30
0.0000
  0
SEQEND
  0
POLYLINE
  8
CAM_CONTROL
 66
1
 10
0.0000
 20
0.0000
 30
0.0000
 40
0.0020
 41
0.0020
  0
VERTEX
  8
CAM_CONTROL
 10
3.413045
 20
5.641052
 30
0.0000
  0
VERTEX
  8
CAM_CONTROL
 10
3.427331
 20
5.641052
 30
0.0000
  0
SEQEND
  0
POLYLINE
  8
CAM_CONTROL
 66
1
 10
0.0000
 20
0.0000
 30
0.0000
 40
0.0020
 41
0.0020
  0
VERTEX
  8
CAM_CONTROL
 10
3.427331
 20
5.641052
 30
0.0000
  0
VERTEX
  8
CAM_CONTROL
 10
3.427331
 20
5.741052
 30
0.0000
  0
SEQEND
  0
POLYLINE
  8
CAM_CONTROL
 66
1
 10
0.0000
 20
0.0000
 30
0.0000
 40
0.0020
 41
0.0020
  0
VERTEX
  8
CAM_CONTROL
 10
3.257259
 20
5.641052
 30
0.0000
  0
VERTEX
  8
CAM_CONTROL
 10
3.257259
 20
5.691052
 30
0.0000
  0
SEQEND
  0
POLYLINE
  8
CAM_CONTROL
 66
1
 10
0.0000
 20
0.0000
 30
0.0000
 40
0.0020
 41
0.0020
  0
VERTEX
  8
CAM_CONTROL
 10
3.257259
 20
5.741052
 30
0.0000
  0
VERTEX
  8
CAM_CONTROL
 10
3.257259
 20
5.691052
 30
0.0000
  0
SEQEND
  0
POLYLINE
  8
CAM_CONTROL
 66
1
 10
0.0000
 20
0.0000
 30
0.0000
 40
0.0020
 41
0.0020
  0
VERTEX
  8
CAM_CONTROL
 10
3.257259
 20
5.741052
 30
0.0000
  0
VERTEX
  8
CAM_CONTROL
 10
3.315902
 20
5.741052
 30
0.0000
  0
SEQEND
  0
POLYLINE
  8
CAM_CONTROL
 66
1
 10
0.0000
 20
0.0000
 30
0.0000
 40
0.0020
 41
0.0020
  0
VERTEX
  8
CAM_CONTROL
 10
3.257259
 20
5.641052
 30
0.0000
  0
VERTEX
  8
CAM_CONTROL
 10
3.315902
 20
5.641052
 30
0.0000
  0
SEQEND
  0
POLYLINE
  8
CAM_CONTROL
 66
1
 10
0.0000
 20
0.0000
 30
0.0000
 40
0.0020
 41
0.0020
  0
VERTEX
  8
CAM_CONTROL
 10
3.257259
 20
5.691052
 30
0.0000
  0
VERTEX
  8
CAM_CONTROL
 10
3.303045
 20
5.691052
 30
0.0000
  0
SEQEND
  0
POLYLINE
  8
CAM_CONTROL
 66
1
 10
0.0000
 20
0.0000
 30
0.0000
 40
0.0020
 41
0.0020
  0
VERTEX
  8
CAM_CONTROL
 10
3.212255
 20
5.691052
 30
0.0000
  0
VERTEX
  8
CAM_CONTROL
 10
3.237259
 20
5.641052
 30
0.0000
  0
SEQEND
  0
POLYLINE
  8
CAM_CONTROL
 66
1
 10
0.0000
 20
0.0000
 30
0.0000
 40
0.0020
 41
0.0020
  0
VERTEX
  8
CAM_CONTROL
 10
3.2122551
 20
5.691052
 30
0.0000
 42
1.0000771
  0
VERTEX
  8
CAM_CONTROL
 10
3.212259
 20
5.741052
 30
0.0000
 42
0.0000
  0
SEQEND
  0
POLYLINE
  8
CAM_CONTROL
 66
1
 10
0.0000
 20
0.0000
 30
0.0000
 40
0.0020
 41
0.0020
  0
VERTEX
  8
CAM_CONTROL
 10
3.175974
 20
5.741052
 30
0.0000
  0
VERTEX
  8
CAM_CONTROL
 10
3.175974
 20
5.691052
 30
0.0000
  0
SEQEND
  0
POLYLINE
  8
CAM_CONTROL
 66
1
 10
0.0000
 20
0.0000
 30
0.0000
 40
0.0020
 41
0.0020
  0
VERTEX
  8
CAM_CONTROL
 10
3.175974
 20
5.641052
 30
0.0000
  0
VERTEX
  8
CAM_CONTROL
 10
3.175974
 20
5.691052
 30
0.0000
  0
SEQEND
  0
POLYLINE
  8
CAM_CONTROL
 66
1
 10
0.0000
 20
0.0000
 30
0.0000
 40
0.0020
 41
0.0020
  0
VERTEX
  8
CAM_CONTROL
 10
3.175974
 20
5.741052
 30
0.0000
  0
VERTEX
  8
CAM_CONTROL
 10
3.212259
 20
5.741052
 30
0.0000
  0
SEQEND
  0
POLYLINE
  8
CAM_CONTROL
 66
1
 10
0.0000
 20
0.0000
 30
0.0000
 40
0.0020
 41
0.0020
  0
VERTEX
  8
CAM_CONTROL
 10
3.175974
 20
5.691052
 30
0.0000
  0
VERTEX
  8
CAM_CONTROL
 10
3.212255
 20
5.691052
 30
0.0000
  0
SEQEND
  0
POLYLINE
  8
CAM_CONTROL
 66
1
 10
0.0000
 20
0.0000
 30
0.0000
 40
0.0020
 41
0.0020
  0
VERTEX
  8
CAM_CONTROL
 10
3.147938
 20
5.66248
 30
0.0000
  0
VERTEX
  8
CAM_CONTROL
 10
3.155974
 20
5.641052
 30
0.0000
  0
SEQEND
  0
POLYLINE
  8
CAM_CONTROL
 66
1
 10
0.0000
 20
0.0000
 30
0.0000
 40
0.0020
 41
0.0020
  0
VERTEX
  8
CAM_CONTROL
 10
3.089009
 20
5.66248
 30
0.0000
  0
VERTEX
  8
CAM_CONTROL
 10
3.118474
 20
5.741052
 30
0.0000
  0
SEQEND
  0
POLYLINE
  8
CAM_CONTROL
 66
1
 10
0.0000
 20
0.0000
 30
0.0000
 40
0.0020
 41
0.0020
  0
VERTEX
  8
CAM_CONTROL
 10
3.118474
 20
5.741052
 30
0.0000
  0
VERTEX
  8
CAM_CONTROL
 10
3.147938
 20
5.66248
 30
0.0000
  0
SEQEND
  0
POLYLINE
  8
CAM_CONTROL
 66
1
 10
0.0000
 20
0.0000
 30
0.0000
 40
0.0020
 41
0.0020
  0
VERTEX
  8
CAM_CONTROL
 10
3.080974
 20
5.641052
 30
0.0000
  0
VERTEX
  8
CAM_CONTROL
 10
3.089009
 20
5.66248
 30
0.0000
  0
SEQEND
  0
POLYLINE
  8
CAM_CONTROL
 66
1
 10
0.0000
 20
0.0000
 30
0.0000
 40
0.0020
 41
0.0020
  0
VERTEX
  8
CAM_CONTROL
 10
3.089009
 20
5.66248
 30
0.0000
  0
VERTEX
  8
CAM_CONTROL
 10
3.147938
 20
5.66248
 30
0.0000
  0
SEQEND
  0
POLYLINE
  8
CAM_CONTROL
 66
1
 10
0.0000
 20
0.0000
 30
0.0000
 40
0.0020
 41
0.0020
  0
VERTEX
  8
CAM_CONTROL
 10
2.934027
 20
5.699503
 30
0.0000
  0
VERTEX
  8
CAM_CONTROL
 10
2.973384
 20
5.6826
 30
0.0000
  0
SEQEND
  0
POLYLINE
  8
CAM_CONTROL
 66
1
 10
0.0000
 20
0.0000
 30
0.0000
 40
0.0020
 41
0.0020
  0
VERTEX
  8
CAM_CONTROL
 10
2.95019
 20
5.741149
 30
0.0000
  0
VERTEX
  8
CAM_CONTROL
 10
2.958316
 20
5.741049
 30
0.0000
  0
SEQEND
  0
POLYLINE
  8
CAM_CONTROL
 66
1
 10
0.0000
 20
0.0000
 30
0.0000
 40
0.0020
 41
0.0020
  0
VERTEX
  8
CAM_CONTROL
 10
2.9827956
 20
5.7268654
 30
0.0000
 42
0.2622361
  0
VERTEX
  8
CAM_CONTROL
 10
2.9583159
 20
5.7410498
 30
0.0000
 42
0.0000
  0
SEQEND
  0
POLYLINE
  8
CAM_CONTROL
 66
1
 10
0.0000
 20
0.0000
 30
0.0000
 40
0.0020
 41
0.0020
  0
VERTEX
  8
CAM_CONTROL
 10
2.9501902
 20
5.7411491
 30
0.0000
 42
0.4042915
  0
VERTEX
  8
CAM_CONTROL
 10
2.9235802
 20
5.7160514
 30
0.0000
 42
0.0000
  0
SEQEND
  0
POLYLINE
  8
CAM_CONTROL
 66
1
 10
0.0000
 20
0.0000
 30
0.0000
 40
0.0020
 41
0.0020
  0
VERTEX
  8
CAM_CONTROL
 10
2.9235809
 20
5.7160517
 30
0.0000
 42
0.2408287
  0
VERTEX
  8
CAM_CONTROL
 10
2.9340273
 20
5.6995036
 30
0.0000
 42
0.0000
  0
SEQEND
  0
POLYLINE
  8
CAM_CONTROL
 66
1
 10
0.0000
 20
0.0000
 30
0.0000
 40
0.0020
 41
0.0020
  0
VERTEX
  8
CAM_CONTROL
 10
2.947096
 20
5.641053
 30
0.0000
  0
VERTEX
  8
CAM_CONTROL
 10
2.957286
 20
5.640954
 30
0.0000
  0
SEQEND
  0
POLYLINE
  8
CAM_CONTROL
 66
1
 10
0.0000
 20
0.0000
 30
0.0000
 40
0.0020
 41
0.0020
  0
VERTEX
  8
CAM_CONTROL
 10
2.9225444
 20
5.6552376
 30
0.0000
 42
0.2629005
  0
VERTEX
  8
CAM_CONTROL
 10
2.9470958
 20
5.6410524
 30
0.0000
 42
0.0000
  0
SEQEND
  0
POLYLINE
  8
CAM_CONTROL
 66
1
 10
0.0000
 20
0.0000
 30
0.0000
 40
0.0020
 41
0.0020
  0
VERTEX
  8
CAM_CONTROL
 10
2.9572863
 20
5.6409532
 30
0.0000
 42
0.4035676
  0
VERTEX
  8
CAM_CONTROL
 10
2.9838309
 20
5.6660517
 30
0.0000
 42
0.0000
  0
SEQEND
  0
POLYLINE
  8
CAM_CONTROL
 66
1
 10
0.0000
 20
0.0000
 30
0.0000
 40
0.0020
 41
0.0020
  0
VERTEX
  8
CAM_CONTROL
 10
2.9838302
 20
5.6660513
 30
0.0000
 42
0.2408296
  0
VERTEX
  8
CAM_CONTROL
 10
2.9733836
 20
5.6825994
 30
0.0000
 42
0.0000
  0
SEQEND
  0
POLYLINE
  8
CAM_CONTROL
 66
1
 10
0.0000
 20
0.0000
 30
0.0000
 40
0.0020
 41
0.0020
  0
VERTEX
  8
CAM_CONTROL
 10
2.870581
 20
5.741052
 30
0.0000
  0
VERTEX
  8
CAM_CONTROL
 10
2.902545
 20
5.741052
 30
0.0000
  0
SEQEND
  0
POLYLINE
  8
CAM_CONTROL
 66
1
 10
0.0000
 20
0.0000
 30
0.0000
 40
0.0020
 41
0.0020
  0
VERTEX
  8
CAM_CONTROL
 10
2.870581
 20
5.641052
 30
0.0000
  0
VERTEX
  8
CAM_CONTROL
 10
2.870581
 20
5.741052
 30
0.0000
  0
SEQEND
  0
POLYLINE
  8
CAM_CONTROL
 66
1
 10
0.0000
 20
0.0000
 30
0.0000
 40
0.0020
 41
0.0020
  0
VERTEX
  8
CAM_CONTROL
 10
2.838616
 20
5.741052
 30
0.0000
  0
VERTEX
  8
CAM_CONTROL
 10
2.870581
 20
5.741052
 30
0.0000
  0
SEQEND
  0
POLYLINE
  8
CAM_CONTROL
 66
1
 10
0.0000
 20
0.0000
 30
0.0000
 40
0.0020
 41
0.0020
  0
VERTEX
  8
CAM_CONTROL
 10
2.818616
 20
5.741052
 30
0.0000
  0
VERTEX
  8
CAM_CONTROL
 10
2.804331
 20
5.741052
 30
0.0000
  0
SEQEND
  0
POLYLINE
  8
CAM_CONTROL
 66
1
 10
0.0000
 20
0.0000
 30
0.0000
 40
0.0020
 41
0.0020
  0
VERTEX
  8
CAM_CONTROL
 10
2.790045
 20
5.741052
 30
0.0000
  0
VERTEX
  8
CAM_CONTROL
 10
2.804331
 20
5.741052
 30
0.0000
  0
SEQEND
  0
POLYLINE
  8
CAM_CONTROL
 66
1
 10
0.0000
 20
0.0000
 30
0.0000
 40
0.0020
 41
0.0020
  0
VERTEX
  8
CAM_CONTROL
 10
2.818616
 20
5.641052
 30
0.0000
  0
VERTEX
  8
CAM_CONTROL
 10
2.804331
 20
5.641052
 30
0.0000
  0
SEQEND
  0
POLYLINE
  8
CAM_CONTROL
 66
1
 10
0.0000
 20
0.0000
 30
0.0000
 40
0.0020
 41
0.0020
  0
VERTEX
  8
CAM_CONTROL
 10
2.790045
 20
5.641052
 30
0.0000
  0
VERTEX
  8
CAM_CONTROL
 10
2.804331
 20
5.641052
 30
0.0000
  0
SEQEND
  0
POLYLINE
  8
CAM_CONTROL
 66
1
 10
0.0000
 20
0.0000
 30
0.0000
 40
0.0020
 41
0.0020
  0
VERTEX
  8
CAM_CONTROL
 10
2.804331
 20
5.641052
 30
0.0000
  0
VERTEX
  8
CAM_CONTROL
 10
2.804331
 20
5.741052
 30
0.0000
  0
SEQEND
  0
POLYLINE
  8
CAM_CONTROL
 66
1
 10
0.0000
 20
0.0000
 30
0.0000
 40
0.0020
 41
0.0020
  0
VERTEX
  8
CAM_CONTROL
 10
2.708759
 20
5.741052
 30
0.0000
  0
VERTEX
  8
CAM_CONTROL
 10
2.770045
 20
5.641052
 30
0.0000
  0
SEQEND
  0
POLYLINE
  8
CAM_CONTROL
 66
1
 10
0.0000
 20
0.0000
 30
0.0000
 40
0.0020
 41
0.0020
  0
VERTEX
  8
CAM_CONTROL
 10
2.770045
 20
5.641052
 30
0.0000
  0
VERTEX
  8
CAM_CONTROL
 10
2.770045
 20
5.741052
 30
0.0000
  0
SEQEND
  0
POLYLINE
  8
CAM_CONTROL
 66
1
 10
0.0000
 20
0.0000
 30
0.0000
 40
0.0020
 41
0.0020
  0
VERTEX
  8
CAM_CONTROL
 10
2.708759
 20
5.641052
 30
0.0000
  0
VERTEX
  8
CAM_CONTROL
 10
2.708759
 20
5.741052
 30
0.0000
  0
SEQEND
  0
POLYLINE
  8
CAM_CONTROL
 66
1
 10
0.0000
 20
0.0000
 30
0.0000
 40
0.0020
 41
0.0020
  0
VERTEX
  8
CAM_CONTROL
 10
2.6301881
 20
5.6696235
 30
0.0000
 42
1.0098022
  0
VERTEX
  8
CAM_CONTROL
 10
2.688759
 20
5.6703379
 30
0.0000
 42
0.0000
  0
SEQEND
  0
POLYLINE
  8
CAM_CONTROL
 66
1
 10
0.0000
 20
0.0000
 30
0.0000
 40
0.0020
 41
0.0020
  0
VERTEX
  8
CAM_CONTROL
 10
2.688759
 20
5.741052
 30
0.0000
  0
VERTEX
  8
CAM_CONTROL
 10
2.688759
 20
5.670337
 30
0.0000
  0
SEQEND
  0
POLYLINE
  8
CAM_CONTROL
 66
1
 10
0.0000
 20
0.0000
 30
0.0000
 40
0.0020
 41
0.0020
  0
VERTEX
  8
CAM_CONTROL
 10
2.630188
 20
5.741052
 30
0.0000
  0
VERTEX
  8
CAM_CONTROL
 10
2.630188
 20
5.669623
 30
0.0000
  0
SEQEND
  0
POLYLINE
  8
CAM_CONTROL
 66
1
 10
0.0000
 20
0.0000
 30
0.0000
 40
0.0020
 41
0.0020
  0
VERTEX
  8
CAM_CONTROL
 10
2.474402
 20
5.641052
 30
0.0000
  0
VERTEX
  8
CAM_CONTROL
 10
2.533045
 20
5.641052
 30
0.0000
  0
SEQEND
  0
POLYLINE
  8
CAM_CONTROL
 66
1
 10
0.0000
 20
0.0000
 30
0.0000
 40
0.0020
 41
0.0020
  0
VERTEX
  8
CAM_CONTROL
 10
2.474402
 20
5.741052
 30
0.0000
  0
VERTEX
  8
CAM_CONTROL
 10
2.474402
 20
5.641052
 30
0.0000
  0
SEQEND
  0
POLYLINE
  8
CAM_CONTROL
 66
1
 10
0.0000
 20
0.0000
 30
0.0000
 40
0.0020
 41
0.0020
  0
VERTEX
  8
CAM_CONTROL
 10
2.395759
 20
5.641052
 30
0.0000
  0
VERTEX
  8
CAM_CONTROL
 10
2.454402
 20
5.641052
 30
0.0000
  0
SEQEND
  0
POLYLINE
  8
CAM_CONTROL
 66
1
 10
0.0000
 20
0.0000
 30
0.0000
 40
0.0020
 41
0.0020
  0
VERTEX
  8
CAM_CONTROL
 10
2.395759
 20
5.741052
 30
0.0000
  0
VERTEX
  8
CAM_CONTROL
 10
2.395759
 20
5.641052
 30
0.0000
  0
SEQEND
  0
POLYLINE
  8
CAM_CONTROL
 66
1
 10
0.0000
 20
0.0000
 30
0.0000
 40
0.0020
 41
0.0020
  0
VERTEX
  8
CAM_CONTROL
 10
2.367724
 20
5.66248
 30
0.0000
  0
VERTEX
  8
CAM_CONTROL
 10
2.375759
 20
5.641052
 30
0.0000
  0
SEQEND
  0
POLYLINE
  8
CAM_CONTROL
 66
1
 10
0.0000
 20
0.0000
 30
0.0000
 40
0.0020
 41
0.0020
  0
VERTEX
  8
CAM_CONTROL
 10
2.308795
 20
5.66248
 30
0.0000
  0
VERTEX
  8
CAM_CONTROL
 10
2.338259
 20
5.741052
 30
0.0000
  0
SEQEND
  0
POLYLINE
  8
CAM_CONTROL
 66
1
 10
0.0000
 20
0.0000
 30
0.0000
 40
0.0020
 41
0.0020
  0
VERTEX
  8
CAM_CONTROL
 10
2.338259
 20
5.741052
 30
0.0000
  0
VERTEX
  8
CAM_CONTROL
 10
2.367724
 20
5.66248
 30
0.0000
  0
SEQEND
  0
POLYLINE
  8
CAM_CONTROL
 66
1
 10
0.0000
 20
0.0000
 30
0.0000
 40
0.0020
 41
0.0020
  0
VERTEX
  8
CAM_CONTROL
 10
2.300759
 20
5.641052
 30
0.0000
  0
VERTEX
  8
CAM_CONTROL
 10
2.308795
 20
5.66248
 30
0.0000
  0
SEQEND
  0
POLYLINE
  8
CAM_CONTROL
 66
1
 10
0.0000
 20
0.0000
 30
0.0000
 40
0.0020
 41
0.0020
  0
VERTEX
  8
CAM_CONTROL
 10
2.308795
 20
5.66248
 30
0.0000
  0
VERTEX
  8
CAM_CONTROL
 10
2.367724
 20
5.66248
 30
0.0000
  0
SEQEND
  0
SOLID
  8
CAM_CONTROL
 10
3.458662
 20
4.27494
 30
0.0000
 11
3.500312
 21
4.52494
 31
0.0000
 12
3.541962
 22
4.27494
 32
0.0000
 13
3.500312
 23
4.52494
 33
0.0000
  0
SOLID
  8
CAM_CONTROL
 10
3.500312
 20
2.27494
 30
0.0000
 11
3.458662
 21
2.52494
 31
0.0000
 12
3.500312
 22
2.27494
 32
0.0000
 13
3.541962
 23
2.52494
 33
0.0000
  0
TEXT
  8
CAM_CONTROL
 10
3.500312
 20
3.39994
 30
0.0000
 11
3.500312
 21
3.39994
 31
0.0000
 40
0.0999999
 41
1.0000
 51
0.0000
 71
0
  1
2.250
 50
0.0000
  7
STYLE_2
 72
1
 73
2
  0
POLYLINE
  8
CAM_CONTROL
 66
1
 10
0.0000
 20
0.0000
 30
0.0000
 40
0.0020
 41
0.0020
  0
VERTEX
  8
CAM_CONTROL
 10
3.500312
 20
4.52494
 30
0.0000
  0
VERTEX
  8
CAM_CONTROL
 10
3.500312
 20
3.527838
 30
0.0000
  0
SEQEND
  0
POLYLINE
  8
CAM_CONTROL
 66
1
 10
0.0000
 20
0.0000
 30
0.0000
 40
0.0020
 41
0.0020
  0
VERTEX
  8
CAM_CONTROL
 10
3.500312
 20
2.27494
 30
0.0000
  0
VERTEX
  8
CAM_CONTROL
 10
3.500312
 20
3.272042
 30
0.0000
  0
SEQEND
  0
SOLID
  8
CAM_CONTROL
 10
6.2250
 20
4.799816
 30
0.0000
 11
6.2250
 21
4.841466
 31
0.0000
 12
6.2250
 22
4.799816
 32
0.0000
 13
6.4750
 23
4.841466
 33
0.0000
  0
SOLID
  8
CAM_CONTROL
 10
6.2250
 20
4.841466
 30
0.0000
 11
6.2250
 21
4.883116
 31
0.0000
 12
6.4750
 22
4.841466
 32
0.0000
 13
6.2250
 23
4.883116
 33
0.0000
  0
SOLID
  8
CAM_CONTROL
 10
2.7750
 20
4.799816
 30
0.0000
 11
2.5250
 21
4.841466
 31
0.0000
 12
2.7750
 22
4.799816
 32
0.0000
 13
2.7750
 23
4.841466
 33
0.0000
  0
SOLID
  8
CAM_CONTROL
 10
2.5250
 20
4.841466
 30
0.0000
 11
2.7750
 21
4.883116
 31
0.0000
 12
2.7750
 22
4.841466
 32
0.0000
 13
2.7750
 23
4.883116
 33
0.0000
  0
TEXT
  8
CAM_CONTROL
 10
4.5000
 20
4.841466
 30
0.0000
 11
4.5000
 21
4.841466
 31
0.0000
 40
0.0999999
 41
1.0000
 51
0.0000
 71
0
  1
3.950
 50
0.0000
  7
STYLE_2
 72
1
 73
2
  0
POLYLINE
  8
CAM_CONTROL
 66
1
 10
0.0000
 20
0.0000
 30
0.0000
 40
0.0020
 41
0.0020
  0
VERTEX
  8
CAM_CONTROL
 10
6.4750
 20
4.841466
 30
0.0000
  0
VERTEX
  8
CAM_CONTROL
 10
4.715071
 20
4.841466
 30
0.0000
  0
SEQEND
  0
POLYLINE
  8
CAM_CONTROL
 66
1
 10
0.0000
 20
0.0000
 30
0.0000
 40
0.0020
 41
0.0020
  0
VERTEX
  8
CAM_CONTROL
 10
2.5250
 20
4.841466
 30
0.0000
  0
VERTEX
  8
CAM_CONTROL
 10
4.284929
 20
4.841466
 30
0.0000
  0
SEQEND
  0
POLYLINE
  8
CAM_CONTROL
 66
1
 10
0.0000
 20
0.0000
 30
0.0000
 40
0.0020
 41
0.0020
  0
VERTEX
  8
CAM_CONTROL
 10
6.4750
 20
4.75994
 30
0.0000
  0
VERTEX
  8
CAM_CONTROL
 10
6.4750
 20
4.966466
 30
0.0000
  0
SEQEND
  0
POLYLINE
  8
CAM_CONTROL
 66
1
 10
0.0000
 20
0.0000
 30
0.0000
 40
0.0020
 41
0.0020
  0
VERTEX
  8
CAM_CONTROL
 10
2.5250
 20
4.75994
 30
0.0000
  0
VERTEX
  8
CAM_CONTROL
 10
2.5250
 20
4.966466
 30
0.0000
  0
SEQEND
  0
SOLID
  8
CAM_CONTROL
 10
6.92194
 20
4.25994
 30
0.0000
 11
6.96359
 21
4.50994
 31
0.0000
 12
7.00524
 22
4.25994
 32
0.0000
 13
6.96359
 23
4.50994
 33
0.0000
  0
SOLID
  8
CAM_CONTROL
 10
6.96359
 20
2.28994
 30
0.0000
 11
6.92194
 21
2.53994
 31
0.0000
 12
6.96359
 22
2.28994
 32
0.0000
 13
7.00524
 23
2.53994
 33
0.0000
  0
TEXT
  8
CAM_CONTROL
 10
6.96359
 20
3.39994
 30
0.0000
 11
6.96359
 21
3.39994
 31
0.0000
 40
0.0999999
 41
1.0000
 51
0.0000
 71
0
  1
2.220
 50
0.0000
  7
STYLE_2
 72
1
 73
2
  0
POLYLINE
  8
CAM_CONTROL
 66
1
 10
0.0000
 20
0.0000
 30
0.0000
 40
0.0020
 41
0.0020
  0
VERTEX
  8
CAM_CONTROL
 10
6.96359
 20
4.50994
 30
0.0000
  0
VERTEX
  8
CAM_CONTROL
 10
6.96359
 20
3.527838
 30
0.0000
  0
SEQEND
  0
POLYLINE
  8
CAM_CONTROL
 66
1
 10
0.0000
 20
0.0000
 30
0.0000
 40
0.0020
 41
0.0020
  0
VERTEX
  8
CAM_CONTROL
 10
6.96359
 20
2.28994
 30
0.0000
  0
VERTEX
  8
CAM_CONTROL
 10
6.96359
 20
3.272042
 30
0.0000
  0
SEQEND
  0
POLYLINE
  8
CAM_CONTROL
 66
1
 10
0.0000
 20
0.0000
 30
0.0000
 40
0.0020
 41
0.0020
  0
VERTEX
  8
CAM_CONTROL
 10
6.7250
 20
4.50994
 30
0.0000
  0
VERTEX
  8
CAM_CONTROL
 10
7.08859
 20
4.50994
 30
0.0000
  0
SEQEND
  0
POLYLINE
  8
CAM_CONTROL
 66
1
 10
0.0000
 20
0.0000
 30
0.0000
 40
0.0020
 41
0.0020
  0
VERTEX
  8
CAM_CONTROL
 10
6.7250
 20
2.28994
 30
0.0000
  0
VERTEX
  8
CAM_CONTROL
 10
7.08859
 20
2.28994
 30
0.0000
  0
SEQEND
  0
SOLID
  8
CAM_CONTROL
 10
2.096184
 20
3.64994
 30
0.0000
 11
2.137834
 21
3.89994
 31
0.0000
 12
2.179484
 22
3.64994
 32
0.0000
 13
2.137834
 23
3.89994
 33
0.0000
  0
SOLID
  8
CAM_CONTROL
 10
2.137834
 20
2.89994
 30
0.0000
 11
2.096184
 21
3.14994
 31
0.0000
 12
2.137834
 22
2.89994
 32
0.0000
 13
2.179484
 23
3.14994
 33
0.0000
  0
TEXT
  8
CAM_CONTROL
 10
2.137834
 20
3.39994
 30
0.0000
 11
2.137834
 21
3.39994
 31
0.0000
 40
0.0999999
 41
1.0000
 51
0.0000
 71
0
  1
1.000
 50
0.0000
  7
STYLE_2
 72
1
 73
2
  0
POLYLINE
  8
CAM_CONTROL
 66
1
 10
0.0000
 20
0.0000
 30
0.0000
 40
0.0020
 41
0.0020
  0
VERTEX
  8
CAM_CONTROL
 10
2.137834
 20
3.89994
 30
0.0000
  0
VERTEX
  8
CAM_CONTROL
 10
2.137834
 20
3.527838
 30
0.0000
  0
SEQEND
  0
POLYLINE
  8
CAM_CONTROL
 66
1
 10
0.0000
 20
0.0000
 30
0.0000
 40
0.0020
 41
0.0020
  0
VERTEX
  8
CAM_CONTROL
 10
2.137834
 20
2.89994
 30
0.0000
  0
VERTEX
  8
CAM_CONTROL
 10
2.137834
 20
3.272042
 30
0.0000
  0
SEQEND
  0
POLYLINE
  8
CAM_CONTROL
 66
1
 10
0.0000
 20
0.0000
 30
0.0000
 40
0.0020
 41
0.0020
  0
VERTEX
  8
CAM_CONTROL
 10
2.2500
 20
3.89994
 30
0.0000
  0
VERTEX
  8
CAM_CONTROL
 10
2.012834
 20
3.89994
 30
0.0000
  0
SEQEND
  0
POLYLINE
  8
CAM_CONTROL
 66
1
 10
0.0000
 20
0.0000
 30
0.0000
 40
0.0020
 41
0.0020
  0
VERTEX
  8
CAM_CONTROL
 10
2.2500
 20
2.89994
 30
0.0000
  0
VERTEX
  8
CAM_CONTROL
 10
2.012834
 20
2.89994
 30
0.0000
  0
SEQEND
  0
SOLID
  8
CAM_CONTROL
 10
2.096184
 20
2.64994
 30
0.0000
 11
2.137834
 21
2.89994
 31
0.0000
 12
2.179484
 22
2.64994
 32
0.0000
 13
2.137834
 23
2.89994
 33
0.0000
  0
SOLID
  8
CAM_CONTROL
 10
2.137834
 20
2.14994
 30
0.0000
 11
2.096184
 21
2.39994
 31
0.0000
 12
2.137834
 22
2.14994
 32
0.0000
 13
2.179484
 23
2.39994
 33
0.0000
  0
TEXT
  8
CAM_CONTROL
 10
2.137834
 20
2.52494
 30
0.0000
 11
2.137834
 21
2.52494
 31
0.0000
 40
0.0999999
 41
1.0000
 51
0.0000
 71
0
  1
0.750
 50
0.0000
  7
STYLE_2
 72
1
 73
2
  0
POLYLINE
  8
CAM_CONTROL
 66
1
 10
0.0000
 20
0.0000
 30
0.0000
 40
0.0020
 41
0.0020
  0
VERTEX
  8
CAM_CONTROL
 10
2.137834
 20
2.89994
 30
0.0000
  0
VERTEX
  8
CAM_CONTROL
 10
2.137834
 20
2.652838
 30
0.0000
  0
SEQEND
  0
POLYLINE
  8
CAM_CONTROL
 66
1
 10
0.0000
 20
0.0000
 30
0.0000
 40
0.0020
 41
0.0020
  0
VERTEX
  8
CAM_CONTROL
 10
2.137834
 20
2.14994
 30
0.0000
  0
VERTEX
  8
CAM_CONTROL
 10
2.137834
 20
2.397042
 30
0.0000
  0
SEQEND
  0
POLYLINE
  8
CAM_CONTROL
 66
1
 10
0.0000
 20
0.0000
 30
0.0000
 40
0.0020
 41
0.0020
  0
VERTEX
  8
CAM_CONTROL
 10
2.2500
 20
2.89994
 30
0.0000
  0
VERTEX
  8
CAM_CONTROL
 10
2.012834
 20
2.89994
 30
0.0000
  0
SEQEND
  0
SOLID
  8
CAM_CONTROL
 10
6.3750
 20
1.838014
 30
0.0000
 11
6.3750
 21
1.879664
 31
0.0000
 12
6.3750
 22
1.838014
 32
0.0000
 13
6.6250
 23
1.879664
 33
0.0000
  0
SOLID
  8
CAM_CONTROL
 10
6.3750
 20
1.879664
 30
0.0000
 11
6.3750
 21
1.921314
 31
0.0000
 12
6.6250
 22
1.879664
 32
0.0000
 13
6.3750
 23
1.921314
 33
0.0000
  0
SOLID
  8
CAM_CONTROL
 10
5.7500
 20
1.838014
 30
0.0000
 11
5.5000
 21
1.879664
 31
0.0000
 12
5.7500
 22
1.838014
 32
0.0000
 13
5.7500
 23
1.879664
 33
0.0000
  0
SOLID
  8
CAM_CONTROL
 10
5.5000
 20
1.879664
 30
0.0000
 11
5.7500
 21
1.921314
 31
0.0000
 12
5.7500
 22
1.879664
 32
0.0000
 13
5.7500
 23
1.921314
 33
0.0000
  0
TEXT
  8
CAM_CONTROL
 10
6.0625
 20
1.879664
 30
0.0000
 11
6.0625
 21
1.879664
 31
0.0000
 40
0.0999999
 41
1.0000
 51
0.0000
 71
0
  1
1.125
 50
0.0000
  7
STYLE_2
 72
1
 73
2
  0
POLYLINE
  8
CAM_CONTROL
 66
1
 10
0.0000
 20
0.0000
 30
0.0000
 40
0.0020
 41
0.0020
  0
VERTEX
  8
CAM_CONTROL
 10
6.6250
 20
1.879664
 30
0.0000
  0
VERTEX
  8
CAM_CONTROL
 10
6.247688
 20
1.879664
 30
0.0000
  0
SEQEND
  0
POLYLINE
  8
CAM_CONTROL
 66
1
 10
0.0000
 20
0.0000
 30
0.0000
 40
0.0020
 41
0.0020
  0
VERTEX
  8
CAM_CONTROL
 10
5.5000
 20
1.879664
 30
0.0000
  0
VERTEX
  8
CAM_CONTROL
 10
5.877312
 20
1.879664
 30
0.0000
  0
SEQEND
  0
POLYLINE
  8
CAM_CONTROL
 66
1
 10
0.0000
 20
0.0000
 30
0.0000
 40
0.0020
 41
0.0020
  0
VERTEX
  8
CAM_CONTROL
 10
6.6250
 20
1.89994
 30
0.0000
  0
VERTEX
  8
CAM_CONTROL
 10
6.6250
 20
1.754664
 30
0.0000
  0
SEQEND
  0
POLYLINE
  8
CAM_CONTROL
 66
1
 10
0.0000
 20
0.0000
 30
0.0000
 40
0.0020
 41
0.0020
  0
VERTEX
  8
CAM_CONTROL
 10
5.5000
 20
2.02494
 30
0.0000
  0
VERTEX
  8
CAM_CONTROL
 10
5.5000
 20
1.754664
 30
0.0000
  0
SEQEND
  0
SOLID
  8
CAM_CONTROL
 10
5.2500
 20
1.816741
 30
0.0000
 11
5.2500
 21
1.858391
 31
0.0000
 12
5.2500
 22
1.816741
 32
0.0000
 13
5.5000
 23
1.858391
 33
0.0000
  0
SOLID
  8
CAM_CONTROL
 10
5.2500
 20
1.858391
 30
0.0000
 11
5.2500
 21
1.900041
 31
0.0000
 12
5.5000
 22
1.858391
 32
0.0000
 13
5.2500
 23
1.900041
 33
0.0000
  0
SOLID
  8
CAM_CONTROL
 10
4.7500
 20
1.816741
 30
0.0000
 11
4.5000
 21
1.858391
 31
0.0000
 12
4.7500
 22
1.816741
 32
0.0000
 13
4.7500
 23
1.858391
 33
0.0000
  0
SOLID
  8
CAM_CONTROL
 10
4.5000
 20
1.858391
 30
0.0000
 11
4.7500
 21
1.900041
 31
0.0000
 12
4.7500
 22
1.858391
 32
0.0000
 13
4.7500
 23
1.900041
 33
0.0000
  0
TEXT
  8
CAM_CONTROL
 10
5.0000
 20
1.858391
 30
0.0000
 11
5.0000
 21
1.858391
 31
0.0000
 40
0.0999999
 41
1.0000
 51
0.0000
 71
0
  1
1.000
 50
0.0000
  7
STYLE_2
 72
1
 73
2
  0
POLYLINE
  8
CAM_CONTROL
 66
1
 10
0.0000
 20
0.0000
 30
0.0000
 40
0.0020
 41
0.0020
  0
VERTEX
  8
CAM_CONTROL
 10
5.5000
 20
1.858391
 30
0.0000
  0
VERTEX
  8
CAM_CONTROL
 10
5.200129
 20
1.858391
 30
0.0000
  0
SEQEND
  0
POLYLINE
  8
CAM_CONTROL
 66
1
 10
0.0000
 20
0.0000
 30
0.0000
 40
0.0020
 41
0.0020
  0
VERTEX
  8
CAM_CONTROL
 10
4.5000
 20
1.858391
 30
0.0000
  0
VERTEX
  8
CAM_CONTROL
 10
4.799871
 20
1.858391
 30
0.0000
  0
SEQEND
  0
POLYLINE
  8
CAM_CONTROL
 66
1
 10
0.0000
 20
0.0000
 30
0.0000
 40
0.0020
 41
0.0020
  0
VERTEX
  8
CAM_CONTROL
 10
5.5000
 20
2.02494
 30
0.0000
  0
VERTEX
  8
CAM_CONTROL
 10
5.5000
 20
1.733391
 30
0.0000
  0
SEQEND
  0
POLYLINE
  8
CAM_CONTROL
 66
1
 10
0.0000
 20
0.0000
 30
0.0000
 40
0.0020
 41
0.0020
  0
VERTEX
  8
CAM_CONTROL
 10
4.5000
 20
2.02494
 30
0.0000
  0
VERTEX
  8
CAM_CONTROL
 10
4.5000
 20
1.733391
 30
0.0000
  0
SEQEND
  0
SOLID
  8
CAM_CONTROL
 10
4.2500
 20
1.813681
 30
0.0000
 11
4.2500
 21
1.855331
 31
0.0000
 12
4.2500
 22
1.813681
 32
0.0000
 13
4.5000
 23
1.855331
 33
0.0000
  0
SOLID
  8
CAM_CONTROL
 10
4.2500
 20
1.855331
 30
0.0000
 11
4.2500
 21
1.896981
 31
0.0000
 12
4.5000
 22
1.855331
 32
0.0000
 13
4.2500
 23
1.896981
 33
0.0000
  0
SOLID
  8
CAM_CONTROL
 10
3.7500
 20
1.813681
 30
0.0000
 11
3.5000
 21
1.855331
 31
0.0000
 12
3.7500
 22
1.813681
 32
0.0000
 13
3.7500
 23
1.855331
 33
0.0000
  0
SOLID
  8
CAM_CONTROL
 10
3.5000
 20
1.855331
 30
0.0000
 11
3.7500
 21
1.896981
 31
0.0000
 12
3.7500
 22
1.855331
 32
0.0000
 13
3.7500
 23
1.896981
 33
0.0000
  0
TEXT
  8
CAM_CONTROL
 10
4.0000
 20
1.855331
 30
0.0000
 11
4.0000
 21
1.855331
 31
0.0000
 40
0.0999999
 41
1.0000
 51
0.0000
 71
0
  1
1.000
 50
0.0000
  7
STYLE_2
 72
1
 73
2
  0
POLYLINE
  8
CAM_CONTROL
 66
1
 10
0.0000
 20
0.0000
 30
0.0000
 40
0.0020
 41
0.0020
  0
VERTEX
  8
CAM_CONTROL
 10
4.5000
 20
1.855331
 30
0.0000
  0
VERTEX
  8
CAM_CONTROL
 10
4.200129
 20
1.855331
 30
0.0000
  0
SEQEND
  0
POLYLINE
  8
CAM_CONTROL
 66
1
 10
0.0000
 20
0.0000
 30
0.0000
 40
0.0020
 41
0.0020
  0
VERTEX
  8
CAM_CONTROL
 10
3.5000
 20
1.855331
 30
0.0000
  0
VERTEX
  8
CAM_CONTROL
 10
3.799871
 20
1.855331
 30
0.0000
  0
SEQEND
  0
POLYLINE
  8
CAM_CONTROL
 66
1
 10
0.0000
 20
0.0000
 30
0.0000
 40
0.0020
 41
0.0020
  0
VERTEX
  8
CAM_CONTROL
 10
4.5000
 20
2.02494
 30
0.0000
  0
VERTEX
  8
CAM_CONTROL
 10
4.5000
 20
1.730331
 30
0.0000
  0
SEQEND
  0
POLYLINE
  8
CAM_CONTROL
 66
1
 10
0.0000
 20
0.0000
 30
0.0000
 40
0.0020
 41
0.0020
  0
VERTEX
  8
CAM_CONTROL
 10
3.5000
 20
2.02494
 30
0.0000
  0
VERTEX
  8
CAM_CONTROL
 10
3.5000
 20
1.730331
 30
0.0000
  0
SEQEND
  0
SOLID
  8
CAM_CONTROL
 10
3.2500
 20
1.775185
 30
0.0000
 11
3.2500
 21
1.816835
 31
0.0000
 12
3.2500
 22
1.775185
 32
0.0000
 13
3.5000
 23
1.816835
 33
0.0000
  0
SOLID
  8
CAM_CONTROL
 10
3.2500
 20
1.816835
 30
0.0000
 11
3.2500
 21
1.858485
 31
0.0000
 12
3.5000
 22
1.816835
 32
0.0000
 13
3.2500
 23
1.858485
 33
0.0000
  0
SOLID
  8
CAM_CONTROL
 10
2.6250
 20
1.775185
 30
0.0000
 11
2.3750
 21
1.816835
 31
0.0000
 12
2.6250
 22
1.775185
 32
0.0000
 13
2.6250
 23
1.816835
 33
0.0000
  0
SOLID
  8
CAM_CONTROL
 10
2.3750
 20
1.816835
 30
0.0000
 11
2.6250
 21
1.858485
 31
0.0000
 12
2.6250
 22
1.816835
 32
0.0000
 13
2.6250
 23
1.858485
 33
0.0000
  0
TEXT
  8
CAM_CONTROL
 10
2.9375
 20
1.816835
 30
0.0000
 11
2.9375
 21
1.816835
 31
0.0000
 40
0.0999999
 41
1.0000
 51
0.0000
 71
0
  1
1.125
 50
0.0000
  7
STYLE_2
 72
1
 73
2
  0
POLYLINE
  8
CAM_CONTROL
 66
1
 10
0.0000
 20
0.0000
 30
0.0000
 40
0.0020
 41
0.0020
  0
VERTEX
  8
CAM_CONTROL
 10
3.5000
 20
1.816835
 30
0.0000
  0
VERTEX
  8
CAM_CONTROL
 10
3.122688
 20
1.816835
 30
0.0000
  0
SEQEND
  0
POLYLINE
  8
CAM_CONTROL
 66
1
 10
0.0000
 20
0.0000
 30
0.0000
 40
0.0020
 41
0.0020
  0
VERTEX
  8
CAM_CONTROL
 10
2.3750
 20
1.816835
 30
0.0000
  0
VERTEX
  8
CAM_CONTROL
 10
2.752312
 20
1.816835
 30
0.0000
  0
SEQEND
  0
POLYLINE
  8
CAM_CONTROL
 66
1
 10
0.0000
 20
0.0000
 30
0.0000
 40
0.0020
 41
0.0020
  0
VERTEX
  8
CAM_CONTROL
 10
3.5000
 20
2.02494
 30
0.0000
  0
VERTEX
  8
CAM_CONTROL
 10
3.5000
 20
1.691835
 30
0.0000
  0
SEQEND
  0
POLYLINE
  8
CAM_CONTROL
 66
1
 10
0.0000
 20
0.0000
 30
0.0000
 40
0.0020
 41
0.0020
  0
VERTEX
  8
CAM_CONTROL
 10
2.3750
 20
1.89994
 30
0.0000
  0
VERTEX
  8
CAM_CONTROL
 10
2.3750
 20
1.691835
 30
0.0000
  0
SEQEND
  0
SOLID
  8
CAM_CONTROL
 10
1.799936
 20
4.54994
 30
0.0000
 11
1.816586
 21
4.64994
 31
0.0000
 12
1.833236
 22
4.54994
 32
0.0000
 13
1.816586
 23
4.64994
 33
0.0000
  0
SOLID
  8
CAM_CONTROL
 10
1.816586
 20
2.14994
 30
0.0000
 11
1.799936
 21
2.24994
 31
0.0000
 12
1.816586
 22
2.14994
 32
0.0000
 13
1.833236
 23
2.24994
 33
0.0000
  0
TEXT
  8
CAM_CONTROL
 10
1.816586
 20
3.39994
 30
0.0000
 11
1.816586
 21
3.39994
 31
0.0000
 40
0.0999999
 41
1.0000
 51
0.0000
 71
0
  1
2.500
 50
0.0000
  7
STYLE_2
 72
1
 73
2
  0
POLYLINE
  8
CAM_CONTROL
 66
1
 10
0.0000
 20
0.0000
 30
0.0000
 40
0.0020
 41
0.0020
  0
VERTEX
  8
CAM_CONTROL
 10
1.816586
 20
4.64994
 30
0.0000
  0
VERTEX
  8
CAM_CONTROL
 10
1.816586
 20
3.527838
 30
0.0000
  0
SEQEND
  0
POLYLINE
  8
CAM_CONTROL
 66
1
 10
0.0000
 20
0.0000
 30
0.0000
 40
0.0020
 41
0.0020
  0
VERTEX
  8
CAM_CONTROL
 10
1.816586
 20
2.14994
 30
0.0000
  0
VERTEX
  8
CAM_CONTROL
 10
1.816586
 20
3.272042
 30
0.0000
  0
SEQEND
  0
POLYLINE
  8
CAM_CONTROL
 66
1
 10
0.0000
 20
0.0000
 30
0.0000
 40
0.0020
 41
0.0020
  0
VERTEX
  8
CAM_CONTROL
 10
2.2750
 20
4.64994
 30
0.0000
  0
VERTEX
  8
CAM_CONTROL
 10
1.766586
 20
4.64994
 30
0.0000
  0
SEQEND
  0
POLYLINE
  8
CAM_CONTROL
 66
1
 10
0.0000
 20
0.0000
 30
0.0000
 40
0.0020
 41
0.0020
  0
VERTEX
  8
CAM_CONTROL
 10
2.2750
 20
2.14994
 30
0.0000
  0
VERTEX
  8
CAM_CONTROL
 10
1.766586
 20
2.14994
 30
0.0000
  0
SEQEND
  0
SOLID
  8
CAM_CONTROL
 10
6.3750
 20
5.090531
 30
0.0000
 11
6.3750
 21
5.132181
 31
0.0000
 12
6.3750
 22
5.090531
 32
0.0000
 13
6.6250
 23
5.132181
 33
0.0000
  0
SOLID
  8
CAM_CONTROL
 10
6.3750
 20
5.132181
 30
0.0000
 11
6.3750
 21
5.173831
 31
0.0000
 12
6.6250
 22
5.132181
 32
0.0000
 13
6.3750
 23
5.173831
 33
0.0000
  0
SOLID
  8
CAM_CONTROL
 10
2.6250
 20
5.090531
 30
0.0000
 11
2.3750
 21
5.132181
 31
0.0000
 12
2.6250
 22
5.090531
 32
0.0000
 13
2.6250
 23
5.132181
 33
0.0000
  0
SOLID
  8
CAM_CONTROL
 10
2.3750
 20
5.132181
 30
0.0000
 11
2.6250
 21
5.173831
 31
0.0000
 12
2.6250
 22
5.132181
 32
0.0000
 13
2.6250
 23
5.173831
 33
0.0000
  0
TEXT
  8
CAM_CONTROL
 10
4.5000
 20
5.132181
 30
0.0000
 11
4.5000
 21
5.132181
 31
0.0000
 40
0.0999999
 41
1.0000
 51
0.0000
 71
0
  1
4.250
 50
0.0000
  7
STYLE_2
 72
1
 73
2
  0
POLYLINE
  8
CAM_CONTROL
 66
1
 10
0.0000
 20
0.0000
 30
0.0000
 40
0.0020
 41
0.0020
  0
VERTEX
  8
CAM_CONTROL
 10
6.6250
 20
5.132181
 30
0.0000
  0
VERTEX
  8
CAM_CONTROL
 10
4.715071
 20
5.132181
 30
0.0000
  0
SEQEND
  0
POLYLINE
  8
CAM_CONTROL
 66
1
 10
0.0000
 20
0.0000
 30
0.0000
 40
0.0020
 41
0.0020
  0
VERTEX
  8
CAM_CONTROL
 10
2.3750
 20
5.132181
 30
0.0000
  0
VERTEX
  8
CAM_CONTROL
 10
4.284929
 20
5.132181
 30
0.0000
  0
SEQEND
  0
POLYLINE
  8
CAM_CONTROL
 66
1
 10
0.0000
 20
0.0000
 30
0.0000
 40
0.0020
 41
0.0020
  0
VERTEX
  8
CAM_CONTROL
 10
6.6250
 20
4.89994
 30
0.0000
  0
VERTEX
  8
CAM_CONTROL
 10
6.6250
 20
5.257181
 30
0.0000
  0
SEQEND
  0
POLYLINE
  8
CAM_CONTROL
 66
1
 10
0.0000
 20
0.0000
 30
0.0000
 40
0.0020
 41
0.0020
  0
VERTEX
  8
CAM_CONTROL
 10
2.3750
 20
4.89994
 30
0.0000
  0
VERTEX
  8
CAM_CONTROL
 10
2.3750
 20
5.257181
 30
0.0000
  0
SEQEND
  0
POLYLINE
  8
CAM_CONTROL
 66
1
 10
0.0000
 20
0.0000
 30
0.0000
 40
0.0020
 41
0.0020
  0
VERTEX
  8
CAM_CONTROL
 10
4.477435
 20
5.814094
 30
0.0000
  0
VERTEX
  8
CAM_CONTROL
 10
4.477435
 20
5.864094
 30
0.0000
  0
SEQEND
  0
POLYLINE
  8
CAM_CONTROL
 66
1
 10
0.0000
 20
0.0000
 30
0.0000
 40
0.0020
 41
0.0020
  0
VERTEX
  8
CAM_CONTROL
 10
4.477435
 20
5.914094
 30
0.0000
  0
VERTEX
  8
CAM_CONTROL
 10
4.477435
 20
5.864094
 30
0.0000
  0
SEQEND
  0
POLYLINE
  8
CAM_CONTROL
 66
1
 10
0.0000
 20
0.0000
 30
0.0000
 40
0.0020
 41
0.0020
  0
VERTEX
  8
CAM_CONTROL
 10
4.416721
 20
5.814094
 30
0.0000
  0
VERTEX
  8
CAM_CONTROL
 10
4.416721
 20
5.864094
 30
0.0000
  0
SEQEND
  0
POLYLINE
  8
CAM_CONTROL
 66
1
 10
0.0000
 20
0.0000
 30
0.0000
 40
0.0020
 41
0.0020
  0
VERTEX
  8
CAM_CONTROL
 10
4.416721
 20
5.914094
 30
0.0000
  0
VERTEX
  8
CAM_CONTROL
 10
4.416721
 20
5.864094
 30
0.0000
  0
SEQEND
  0
POLYLINE
  8
CAM_CONTROL
 66
1
 10
0.0000
 20
0.0000
 30
0.0000
 40
0.0020
 41
0.0020
  0
VERTEX
  8
CAM_CONTROL
 10
4.416721
 20
5.864094
 30
0.0000
  0
VERTEX
  8
CAM_CONTROL
 10
4.477435
 20
5.864094
 30
0.0000
  0
SEQEND
  0
POLYLINE
  8
CAM_CONTROL
 66
1
 10
0.0000
 20
0.0000
 30
0.0000
 40
0.0020
 41
0.0020
  0
VERTEX
  8
CAM_CONTROL
 10
4.346918
 20
5.872545
 30
0.0000
  0
VERTEX
  8
CAM_CONTROL
 10
4.386275
 20
5.855642
 30
0.0000
  0
SEQEND
  0
POLYLINE
  8
CAM_CONTROL
 66
1
 10
0.0000
 20
0.0000
 30
0.0000
 40
0.0020
 41
0.0020
  0
VERTEX
  8
CAM_CONTROL
 10
4.363081
 20
5.914191
 30
0.0000
  0
VERTEX
  8
CAM_CONTROL
 10
4.371206
 20
5.914091
 30
0.0000
  0
SEQEND
  0
POLYLINE
  8
CAM_CONTROL
 66
1
 10
0.0000
 20
0.0000
 30
0.0000
 40
0.0020
 41
0.0020
  0
VERTEX
  8
CAM_CONTROL
 10
4.3956856
 20
5.8999073
 30
0.0000
 42
0.2622361
  0
VERTEX
  8
CAM_CONTROL
 10
4.3712059
 20
5.9140918
 30
0.0000
 42
0.0000
  0
SEQEND
  0
POLYLINE
  8
CAM_CONTROL
 66
1
 10
0.0000
 20
0.0000
 30
0.0000
 40
0.0020
 41
0.0020
  0
VERTEX
  8
CAM_CONTROL
 10
4.3630812
 20
5.914191
 30
0.0000
 42
0.4042915
  0
VERTEX
  8
CAM_CONTROL
 10
4.3364711
 20
5.8890934
 30
0.0000
 42
0.0000
  0
SEQEND
  0
POLYLINE
  8
CAM_CONTROL
 66
1
 10
0.0000
 20
0.0000
 30
0.0000
 40
0.0020
 41
0.0020
  0
VERTEX
  8
CAM_CONTROL
 10
4.3364719
 20
5.8890936
 30
0.0000
 42
0.2408282
  0
VERTEX
  8
CAM_CONTROL
 10
4.3469183
 20
5.8725456
 30
0.0000
 42
0.0000
  0
SEQEND
  0
POLYLINE
  8
CAM_CONTROL
 66
1
 10
0.0000
 20
0.0000
 30
0.0000
 40
0.0020
 41
0.0020
  0
VERTEX
  8
CAM_CONTROL
 10
4.359986
 20
5.814095
 30
0.0000
  0
VERTEX
  8
CAM_CONTROL
 10
4.370177
 20
5.813996
 30
0.0000
  0
SEQEND
  0
POLYLINE
  8
CAM_CONTROL
 66
1
 10
0.0000
 20
0.0000
 30
0.0000
 40
0.0020
 41
0.0020
  0
VERTEX
  8
CAM_CONTROL
 10
4.3354354
 20
5.8282797
 30
0.0000
 42
0.2629004
  0
VERTEX
  8
CAM_CONTROL
 10
4.3599868
 20
5.8140944
 30
0.0000
 42
0.0000
  0
SEQEND
  0
POLYLINE
  8
CAM_CONTROL
 66
1
 10
0.0000
 20
0.0000
 30
0.0000
 40
0.0020
 41
0.0020
  0
VERTEX
  8
CAM_CONTROL
 10
4.3701773
 20
5.8139953
 30
0.0000
 42
0.4035676
  0
VERTEX
  8
CAM_CONTROL
 10
4.3967219
 20
5.8390936
 30
0.0000
 42
0.0000
  0
SEQEND
  0
POLYLINE
  8
CAM_CONTROL
 66
1
 10
0.0000
 20
0.0000
 30
0.0000
 40
0.0020
 41
0.0020
  0
VERTEX
  8
CAM_CONTROL
 10
4.3967212
 20
5.8390933
 30
0.0000
 42
0.2408293
  0
VERTEX
  8
CAM_CONTROL
 10
4.3862746
 20
5.8556414
 30
0.0000
 42
0.0000
  0
SEQEND
  0
POLYLINE
  8
CAM_CONTROL
 66
1
 10
0.0000
 20
0.0000
 30
0.0000
 40
0.0020
 41
0.0020
  0
VERTEX
  8
CAM_CONTROL
 10
4.315435
 20
5.914094
 30
0.0000
  0
VERTEX
  8
CAM_CONTROL
 10
4.30115
 20
5.914094
 30
0.0000
  0
SEQEND
  0
POLYLINE
  8
CAM_CONTROL
 66
1
 10
0.0000
 20
0.0000
 30
0.0000
 40
0.0020
 41
0.0020
  0
VERTEX
  8
CAM_CONTROL
 10
4.286864
 20
5.914094
 30
0.0000
  0
VERTEX
  8
CAM_CONTROL
 10
4.30115
 20
5.914094
 30
0.0000
  0
SEQEND
  0
POLYLINE
  8
CAM_CONTROL
 66
1
 10
0.0000
 20
0.0000
 30
0.0000
 40
0.0020
 41
0.0020
  0
VERTEX
  8
CAM_CONTROL
 10
4.315435
 20
5.814094
 30
0.0000
  0
VERTEX
  8
CAM_CONTROL
 10
4.30115
 20
5.814094
 30
0.0000
  0
SEQEND
  0
POLYLINE
  8
CAM_CONTROL
 66
1
 10
0.0000
 20
0.0000
 30
0.0000
 40
0.0020
 41
0.0020
  0
VERTEX
  8
CAM_CONTROL
 10
4.286864
 20
5.814094
 30
0.0000
  0
VERTEX
  8
CAM_CONTROL
 10
4.30115
 20
5.814094
 30
0.0000
  0
SEQEND
  0
POLYLINE
  8
CAM_CONTROL
 66
1
 10
0.0000
 20
0.0000
 30
0.0000
 40
0.0020
 41
0.0020
  0
VERTEX
  8
CAM_CONTROL
 10
4.30115
 20
5.814094
 30
0.0000
  0
VERTEX
  8
CAM_CONTROL
 10
4.30115
 20
5.914094
 30
0.0000
  0
SEQEND
  0
POLYLINE
  8
CAM_CONTROL
 66
1
 10
0.0000
 20
0.0000
 30
0.0000
 40
0.0020
 41
0.0020
  0
VERTEX
  8
CAM_CONTROL
 10
4.205578
 20
5.914094
 30
0.0000
  0
VERTEX
  8
CAM_CONTROL
 10
4.266864
 20
5.814094
 30
0.0000
  0
SEQEND
  0
POLYLINE
  8
CAM_CONTROL
 66
1
 10
0.0000
 20
0.0000
 30
0.0000
 40
0.0020
 41
0.0020
  0
VERTEX
  8
CAM_CONTROL
 10
4.266864
 20
5.814094
 30
0.0000
  0
VERTEX
  8
CAM_CONTROL
 10
4.266864
 20
5.914094
 30
0.0000
  0
SEQEND
  0
POLYLINE
  8
CAM_CONTROL
 66
1
 10
0.0000
 20
0.0000
 30
0.0000
 40
0.0020
 41
0.0020
  0
VERTEX
  8
CAM_CONTROL
 10
4.205578
 20
5.814094
 30
0.0000
  0
VERTEX
  8
CAM_CONTROL
 10
4.205578
 20
5.914094
 30
0.0000
  0
SEQEND
  0
POLYLINE
  8
CAM_CONTROL
 66
1
 10
0.0000
 20
0.0000
 30
0.0000
 40
0.0020
 41
0.0020
  0
VERTEX
  8
CAM_CONTROL
 10
4.185578
 20
5.914094
 30
0.0000
  0
VERTEX
  8
CAM_CONTROL
 10
4.171293
 20
5.914094
 30
0.0000
  0
SEQEND
  0
POLYLINE
  8
CAM_CONTROL
 66
1
 10
0.0000
 20
0.0000
 30
0.0000
 40
0.0020
 41
0.0020
  0
VERTEX
  8
CAM_CONTROL
 10
4.157007
 20
5.914094
 30
0.0000
  0
VERTEX
  8
CAM_CONTROL
 10
4.171293
 20
5.914094
 30
0.0000
  0
SEQEND
  0
POLYLINE
  8
CAM_CONTROL
 66
1
 10
0.0000
 20
0.0000
 30
0.0000
 40
0.0020
 41
0.0020
  0
VERTEX
  8
CAM_CONTROL
 10
4.185578
 20
5.814094
 30
0.0000
  0
VERTEX
  8
CAM_CONTROL
 10
4.171293
 20
5.814094
 30
0.0000
  0
SEQEND
  0
POLYLINE
  8
CAM_CONTROL
 66
1
 10
0.0000
 20
0.0000
 30
0.0000
 40
0.0020
 41
0.0020
  0
VERTEX
  8
CAM_CONTROL
 10
4.157007
 20
5.814094
 30
0.0000
  0
VERTEX
  8
CAM_CONTROL
 10
4.171293
 20
5.814094
 30
0.0000
  0
SEQEND
  0
POLYLINE
  8
CAM_CONTROL
 66
1
 10
0.0000
 20
0.0000
 30
0.0000
 40
0.0020
 41
0.0020
  0
VERTEX
  8
CAM_CONTROL
 10
4.171293
 20
5.814094
 30
0.0000
  0
VERTEX
  8
CAM_CONTROL
 10
4.171293
 20
5.914094
 30
0.0000
  0
SEQEND
  0
POLYLINE
  8
CAM_CONTROL
 66
1
 10
0.0000
 20
0.0000
 30
0.0000
 40
0.0020
 41
0.0020
  0
VERTEX
  8
CAM_CONTROL
 10
4.078364
 20
5.814094
 30
0.0000
  0
VERTEX
  8
CAM_CONTROL
 10
4.078364
 20
5.864094
 30
0.0000
  0
SEQEND
  0
POLYLINE
  8
CAM_CONTROL
 66
1
 10
0.0000
 20
0.0000
 30
0.0000
 40
0.0020
 41
0.0020
  0
VERTEX
  8
CAM_CONTROL
 10
4.078364
 20
5.914094
 30
0.0000
  0
VERTEX
  8
CAM_CONTROL
 10
4.078364
 20
5.864094
 30
0.0000
  0
SEQEND
  0
POLYLINE
  8
CAM_CONTROL
 66
1
 10
0.0000
 20
0.0000
 30
0.0000
 40
0.0020
 41
0.0020
  0
VERTEX
  8
CAM_CONTROL
 10
4.078364
 20
5.914094
 30
0.0000
  0
VERTEX
  8
CAM_CONTROL
 10
4.137007
 20
5.914094
 30
0.0000
  0
SEQEND
  0
POLYLINE
  8
CAM_CONTROL
 66
1
 10
0.0000
 20
0.0000
 30
0.0000
 40
0.0020
 41
0.0020
  0
VERTEX
  8
CAM_CONTROL
 10
4.078364
 20
5.864094
 30
0.0000
  0
VERTEX
  8
CAM_CONTROL
 10
4.12415
 20
5.864094
 30
0.0000
  0
SEQEND
  0
POLYLINE
  8
CAM_CONTROL
 66
1
 10
0.0000
 20
0.0000
 30
0.0000
 40
0.0020
 41
0.0020
  0
VERTEX
  8
CAM_CONTROL
 10
3.922578
 20
5.814094
 30
0.0000
  0
VERTEX
  8
CAM_CONTROL
 10
3.922578
 20
5.864094
 30
0.0000
  0
SEQEND
  0
POLYLINE
  8
CAM_CONTROL
 66
1
 10
0.0000
 20
0.0000
 30
0.0000
 40
0.0020
 41
0.0020
  0
VERTEX
  8
CAM_CONTROL
 10
3.922578
 20
5.914094
 30
0.0000
  0
VERTEX
  8
CAM_CONTROL
 10
3.922578
 20
5.864094
 30
0.0000
  0
SEQEND
  0
POLYLINE
  8
CAM_CONTROL
 66
1
 10
0.0000
 20
0.0000
 30
0.0000
 40
0.0020
 41
0.0020
  0
VERTEX
  8
CAM_CONTROL
 10
3.922578
 20
5.914094
 30
0.0000
  0
VERTEX
  8
CAM_CONTROL
 10
3.981221
 20
5.914094
 30
0.0000
  0
SEQEND
  0
POLYLINE
  8
CAM_CONTROL
 66
1
 10
0.0000
 20
0.0000
 30
0.0000
 40
0.0020
 41
0.0020
  0
VERTEX
  8
CAM_CONTROL
 10
3.922578
 20
5.814094
 30
0.0000
  0
VERTEX
  8
CAM_CONTROL
 10
3.981221
 20
5.814094
 30
0.0000
  0
SEQEND
  0
POLYLINE
  8
CAM_CONTROL
 66
1
 10
0.0000
 20
0.0000
 30
0.0000
 40
0.0020
 41
0.0020
  0
VERTEX
  8
CAM_CONTROL
 10
3.922578
 20
5.864094
 30
0.0000
  0
VERTEX
  8
CAM_CONTROL
 10
3.968364
 20
5.864094
 30
0.0000
  0
SEQEND
  0
POLYLINE
  8
CAM_CONTROL
 66
1
 10
0.0000
 20
0.0000
 30
0.0000
 40
0.0020
 41
0.0020
  0
VERTEX
  8
CAM_CONTROL
 10
3.870614
 20
5.914094
 30
0.0000
  0
VERTEX
  8
CAM_CONTROL
 10
3.902578
 20
5.914094
 30
0.0000
  0
SEQEND
  0
POLYLINE
  8
CAM_CONTROL
 66
1
 10
0.0000
 20
0.0000
 30
0.0000
 40
0.0020
 41
0.0020
  0
VERTEX
  8
CAM_CONTROL
 10
3.870614
 20
5.814094
 30
0.0000
  0
VERTEX
  8
CAM_CONTROL
 10
3.870614
 20
5.914094
 30
0.0000
  0
SEQEND
  0
POLYLINE
  8
CAM_CONTROL
 66
1
 10
0.0000
 20
0.0000
 30
0.0000
 40
0.0020
 41
0.0020
  0
VERTEX
  8
CAM_CONTROL
 10
3.83865
 20
5.914094
 30
0.0000
  0
VERTEX
  8
CAM_CONTROL
 10
3.870614
 20
5.914094
 30
0.0000
  0
SEQEND
  0
POLYLINE
  8
CAM_CONTROL
 66
1
 10
0.0000
 20
0.0000
 30
0.0000
 40
0.0020
 41
0.0020
  0
VERTEX
  8
CAM_CONTROL
 10
3.810614
 20
5.835522
 30
0.0000
  0
VERTEX
  8
CAM_CONTROL
 10
3.81865
 20
5.814094
 30
0.0000
  0
SEQEND
  0
POLYLINE
  8
CAM_CONTROL
 66
1
 10
0.0000
 20
0.0000
 30
0.0000
 40
0.0020
 41
0.0020
  0
VERTEX
  8
CAM_CONTROL
 10
3.751685
 20
5.835522
 30
0.0000
  0
VERTEX
  8
CAM_CONTROL
 10
3.78115
 20
5.914094
 30
0.0000
  0
SEQEND
  0
POLYLINE
  8
CAM_CONTROL
 66
1
 10
0.0000
 20
0.0000
 30
0.0000
 40
0.0020
 41
0.0020
  0
VERTEX
  8
CAM_CONTROL
 10
3.78115
 20
5.914094
 30
0.0000
  0
VERTEX
  8
CAM_CONTROL
 10
3.810614
 20
5.835522
 30
0.0000
  0
SEQEND
  0
POLYLINE
  8
CAM_CONTROL
 66
1
 10
0.0000
 20
0.0000
 30
0.0000
 40
0.0020
 41
0.0020
  0
VERTEX
  8
CAM_CONTROL
 10
3.74365
 20
5.814094
 30
0.0000
  0
VERTEX
  8
CAM_CONTROL
 10
3.751685
 20
5.835522
 30
0.0000
  0
SEQEND
  0
POLYLINE
  8
CAM_CONTROL
 66
1
 10
0.0000
 20
0.0000
 30
0.0000
 40
0.0020
 41
0.0020
  0
VERTEX
  8
CAM_CONTROL
 10
3.751685
 20
5.835522
 30
0.0000
  0
VERTEX
  8
CAM_CONTROL
 10
3.810614
 20
5.835522
 30
0.0000
  0
SEQEND
  0
POLYLINE
  8
CAM_CONTROL
 66
1
 10
0.0000
 20
0.0000
 30
0.0000
 40
0.0020
 41
0.0020
  0
VERTEX
  8
CAM_CONTROL
 10
3.681507
 20
5.843379
 30
0.0000
  0
VERTEX
  8
CAM_CONTROL
 10
3.72365
 20
5.914094
 30
0.0000
  0
SEQEND
  0
POLYLINE
  8
CAM_CONTROL
 66
1
 10
0.0000
 20
0.0000
 30
0.0000
 40
0.0020
 41
0.0020
  0
VERTEX
  8
CAM_CONTROL
 10
3.639364
 20
5.914094
 30
0.0000
  0
VERTEX
  8
CAM_CONTROL
 10
3.681507
 20
5.843379
 30
0.0000
  0
SEQEND
  0
POLYLINE
  8
CAM_CONTROL
 66
1
 10
0.0000
 20
0.0000
 30
0.0000
 40
0.0020
 41
0.0020
  0
VERTEX
  8
CAM_CONTROL
 10
3.72365
 20
5.814094
 30
0.0000
  0
VERTEX
  8
CAM_CONTROL
 10
3.72365
 20
5.914094
 30
0.0000
  0
SEQEND
  0
POLYLINE
  8
CAM_CONTROL
 66
1
 10
0.0000
 20
0.0000
 30
0.0000
 40
0.0020
 41
0.0020
  0
VERTEX
  8
CAM_CONTROL
 10
3.639364
 20
5.814094
 30
0.0000
  0
VERTEX
  8
CAM_CONTROL
 10
3.639364
 20
5.914094
 30
0.0000
  0
SEQEND
  0
POLYLINE
  8
CAM_CONTROL
 66
1
 10
0.0000
 20
0.0000
 30
0.0000
 40
0.0020
 41
0.0020
  0
VERTEX
  8
CAM_CONTROL
 10
3.5574561
 20
5.8355217
 30
0.0000
 42
0.7548959
  0
VERTEX
  8
CAM_CONTROL
 10
3.614658
 20
5.8355217
 30
0.0000
 42
0.0000
  0
SEQEND
  0
POLYLINE
  8
CAM_CONTROL
 66
1
 10
0.0000
 20
0.0000
 30
0.0000
 40
0.0020
 41
0.0020
  0
VERTEX
  8
CAM_CONTROL
 10
3.614658
 20
5.8926653
 30
0.0000
 42
0.7548959
  0
VERTEX
  8
CAM_CONTROL
 10
3.5574561
 20
5.8926653
 30
0.0000
 42
0.0000
  0
SEQEND
  0
POLYLINE
  8
CAM_CONTROL
 66
1
 10
0.0000
 20
0.0000
 30
0.0000
 40
0.0020
 41
0.0020
  0
VERTEX
  8
CAM_CONTROL
 10
3.6146572
 20
5.8355226
 30
0.0000
 42
0.1647051
  0
VERTEX
  8
CAM_CONTROL
 10
3.6146572
 20
5.8926654
 30
0.0000
 42
0.0000
  0
SEQEND
  0
POLYLINE
  8
CAM_CONTROL
 66
1
 10
0.0000
 20
0.0000
 30
0.0000
 40
0.0020
 41
0.0020
  0
VERTEX
  8
CAM_CONTROL
 10
3.5574558
 20
5.8926654
 30
0.0000
 42
0.164705
  0
VERTEX
  8
CAM_CONTROL
 10
3.5574558
 20
5.8355226
 30
0.0000
 42
0.0000
  0
SEQEND
  0
POLYLINE
  8
CAM_CONTROL
 66
1
 10
0.0000
 20
0.0000
 30
0.0000
 40
0.0020
 41
0.0020
  0
VERTEX
  8
CAM_CONTROL
 10
3.507746
 20
5.864094
 30
0.0000
  0
VERTEX
  8
CAM_CONTROL
 10
3.53275
 20
5.814094
 30
0.0000
  0
SEQEND
  0
POLYLINE
  8
CAM_CONTROL
 66
1
 10
0.0000
 20
0.0000
 30
0.0000
 40
0.0020
 41
0.0020
  0
VERTEX
  8
CAM_CONTROL
 10
3.5077461
 20
5.864094
 30
0.0000
 42
1.0000771
  0
VERTEX
  8
CAM_CONTROL
 10
3.50775
 20
5.914094
 30
0.0000
 42
0.0000
  0
SEQEND
  0
POLYLINE
  8
CAM_CONTROL
 66
1
 10
0.0000
 20
0.0000
 30
0.0000
 40
0.0020
 41
0.0020
  0
VERTEX
  8
CAM_CONTROL
 10
3.471464
 20
5.914094
 30
0.0000
  0
VERTEX
  8
CAM_CONTROL
 10
3.471464
 20
5.864094
 30
0.0000
  0
SEQEND
  0
POLYLINE
  8
CAM_CONTROL
 66
1
 10
0.0000
 20
0.0000
 30
0.0000
 40
0.0020
 41
0.0020
  0
VERTEX
  8
CAM_CONTROL
 10
3.471464
 20
5.814094
 30
0.0000
  0
VERTEX
  8
CAM_CONTROL
 10
3.471464
 20
5.864094
 30
0.0000
  0
SEQEND
  0
POLYLINE
  8
CAM_CONTROL
 66
1
 10
0.0000
 20
0.0000
 30
0.0000
 40
0.0020
 41
0.0020
  0
VERTEX
  8
CAM_CONTROL
 10
3.471464
 20
5.914094
 30
0.0000
  0
VERTEX
  8
CAM_CONTROL
 10
3.50775
 20
5.914094
 30
0.0000
  0
SEQEND
  0
POLYLINE
  8
CAM_CONTROL
 66
1
 10
0.0000
 20
0.0000
 30
0.0000
 40
0.0020
 41
0.0020
  0
VERTEX
  8
CAM_CONTROL
 10
3.471464
 20
5.864094
 30
0.0000
  0
VERTEX
  8
CAM_CONTROL
 10
3.507746
 20
5.864094
 30
0.0000
  0
SEQEND
  0
POLYLINE
  8
CAM_CONTROL
 66
1
 10
0.0000
 20
0.0000
 30
0.0000
 40
0.0020
 41
0.0020
  0
VERTEX
  8
CAM_CONTROL
 10
3.451464
 20
5.814094
 30
0.0000
  0
VERTEX
  8
CAM_CONTROL
 10
3.451464
 20
5.864094
 30
0.0000
  0
SEQEND
  0
POLYLINE
  8
CAM_CONTROL
 66
1
 10
0.0000
 20
0.0000
 30
0.0000
 40
0.0020
 41
0.0020
  0
VERTEX
  8
CAM_CONTROL
 10
3.451464
 20
5.914094
 30
0.0000
  0
VERTEX
  8
CAM_CONTROL
 10
3.451464
 20
5.864094
 30
0.0000
  0
SEQEND
  0
POLYLINE
  8
CAM_CONTROL
 66
1
 10
0.0000
 20
0.0000
 30
0.0000
 40
0.0020
 41
0.0020
  0
VERTEX
  8
CAM_CONTROL
 10
3.39075
 20
5.814094
 30
0.0000
  0
VERTEX
  8
CAM_CONTROL
 10
3.39075
 20
5.864094
 30
0.0000
  0
SEQEND
  0
POLYLINE
  8
CAM_CONTROL
 66
1
 10
0.0000
 20
0.0000
 30
0.0000
 40
0.0020
 41
0.0020
  0
VERTEX
  8
CAM_CONTROL
 10
3.39075
 20
5.914094
 30
0.0000
  0
VERTEX
  8
CAM_CONTROL
 10
3.39075
 20
5.864094
 30
0.0000
  0
SEQEND
  0
POLYLINE
  8
CAM_CONTROL
 66
1
 10
0.0000
 20
0.0000
 30
0.0000
 40
0.0020
 41
0.0020
  0
VERTEX
  8
CAM_CONTROL
 10
3.39075
 20
5.864094
 30
0.0000
  0
VERTEX
  8
CAM_CONTROL
 10
3.451464
 20
5.864094
 30
0.0000
  0
SEQEND
  0
POLYLINE
  8
CAM_CONTROL
 66
1
 10
0.0000
 20
0.0000
 30
0.0000
 40
0.0020
 41
0.0020
  0
VERTEX
  8
CAM_CONTROL
 10
3.3073839
 20
5.8926654
 30
0.0000
 42
0.1647051
  0
VERTEX
  8
CAM_CONTROL
 10
3.3073839
 20
5.8355226
 30
0.0000
 42
0.0000
  0
SEQEND
  0
POLYLINE
  8
CAM_CONTROL
 66
1
 10
0.0000
 20
0.0000
 30
0.0000
 40
0.0020
 41
0.0020
  0
VERTEX
  8
CAM_CONTROL
 10
3.3073841
 20
5.8355218
 30
0.0000
 42
0.5769619
  0
VERTEX
  8
CAM_CONTROL
 10
3.3707498
 20
5.8292567
 30
0.0000
 42
0.0000
  0
SEQEND
  0
POLYLINE
  8
CAM_CONTROL
 66
1
 10
0.0000
 20
0.0000
 30
0.0000
 40
0.0020
 41
0.0020
  0
VERTEX
  8
CAM_CONTROL
 10
3.3707498
 20
5.8989303
 30
0.0000
 42
0.5769619
  0
VERTEX
  8
CAM_CONTROL
 10
3.3073841
 20
5.8926652
 30
0.0000
 42
0.0000
  0
SEQEND
  0
POLYLINE
  8
CAM_CONTROL
 66
1
 10
0.0000
 20
0.0000
 30
0.0000
 40
0.0020
 41
0.0020
  0
VERTEX
  8
CAM_CONTROL
 10
3.180532
 20
5.864094
 30
0.0000
  0
VERTEX
  8
CAM_CONTROL
 10
3.205535
 20
5.814094
 30
0.0000
  0
SEQEND
  0
POLYLINE
  8
CAM_CONTROL
 66
1
 10
0.0000
 20
0.0000
 30
0.0000
 40
0.0020
 41
0.0020
  0
VERTEX
  8
CAM_CONTROL
 10
3.1805311
 20
5.864094
 30
0.0000
 42
1.0000788
  0
VERTEX
  8
CAM_CONTROL
 10
3.180535
 20
5.914094
 30
0.0000
 42
0.0000
  0
SEQEND
  0
POLYLINE
  8
CAM_CONTROL
 66
1
 10
0.0000
 20
0.0000
 30
0.0000
 40
0.0020
 41
0.0020
  0
VERTEX
  8
CAM_CONTROL
 10
3.14425
 20
5.914094
 30
0.0000
  0
VERTEX
  8
CAM_CONTROL
 10
3.14425
 20
5.864094
 30
0.0000
  0
SEQEND
  0
POLYLINE
  8
CAM_CONTROL
 66
1
 10
0.0000
 20
0.0000
 30
0.0000
 40
0.0020
 41
0.0020
  0
VERTEX
  8
CAM_CONTROL
 10
3.14425
 20
5.814094
 30
0.0000
  0
VERTEX
  8
CAM_CONTROL
 10
3.14425
 20
5.864094
 30
0.0000
  0
SEQEND
  0
POLYLINE
  8
CAM_CONTROL
 66
1
 10
0.0000
 20
0.0000
 30
0.0000
 40
0.0020
 41
0.0020
  0
VERTEX
  8
CAM_CONTROL
 10
3.14425
 20
5.914094
 30
0.0000
  0
VERTEX
  8
CAM_CONTROL
 10
3.180535
 20
5.914094
 30
0.0000
  0
SEQEND
  0
POLYLINE
  8
CAM_CONTROL
 66
1
 10
0.0000
 20
0.0000
 30
0.0000
 40
0.0020
 41
0.0020
  0
VERTEX
  8
CAM_CONTROL
 10
3.14425
 20
5.864094
 30
0.0000
  0
VERTEX
  8
CAM_CONTROL
 10
3.180532
 20
5.864094
 30
0.0000
  0
SEQEND
  0
POLYLINE
  8
CAM_CONTROL
 66
1
 10
0.0000
 20
0.0000
 30
0.0000
 40
0.0020
 41
0.0020
  0
VERTEX
  8
CAM_CONTROL
 10
3.116214
 20
5.835522
 30
0.0000
  0
VERTEX
  8
CAM_CONTROL
 10
3.12425
 20
5.814094
 30
0.0000
  0
SEQEND
  0
POLYLINE
  8
CAM_CONTROL
 66
1
 10
0.0000
 20
0.0000
 30
0.0000
 40
0.0020
 41
0.0020
  0
VERTEX
  8
CAM_CONTROL
 10
3.057285
 20
5.835522
 30
0.0000
  0
VERTEX
  8
CAM_CONTROL
 10
3.08675
 20
5.914094
 30
0.0000
  0
SEQEND
  0
POLYLINE
  8
CAM_CONTROL
 66
1
 10
0.0000
 20
0.0000
 30
0.0000
 40
0.0020
 41
0.0020
  0
VERTEX
  8
CAM_CONTROL
 10
3.08675
 20
5.914094
 30
0.0000
  0
VERTEX
  8
CAM_CONTROL
 10
3.116214
 20
5.835522
 30
0.0000
  0
SEQEND
  0
POLYLINE
  8
CAM_CONTROL
 66
1
 10
0.0000
 20
0.0000
 30
0.0000
 40
0.0020
 41
0.0020
  0
VERTEX
  8
CAM_CONTROL
 10
3.04925
 20
5.814094
 30
0.0000
  0
VERTEX
  8
CAM_CONTROL
 10
3.057285
 20
5.835522
 30
0.0000
  0
SEQEND
  0
POLYLINE
  8
CAM_CONTROL
 66
1
 10
0.0000
 20
0.0000
 30
0.0000
 40
0.0020
 41
0.0020
  0
VERTEX
  8
CAM_CONTROL
 10
3.057285
 20
5.835522
 30
0.0000
  0
VERTEX
  8
CAM_CONTROL
 10
3.116214
 20
5.835522
 30
0.0000
  0
SEQEND
  0
POLYLINE
  8
CAM_CONTROL
 66
1
 10
0.0000
 20
0.0000
 30
0.0000
 40
0.0020
 41
0.0020
  0
VERTEX
  8
CAM_CONTROL
 10
2.970607
 20
5.814094
 30
0.0000
  0
VERTEX
  8
CAM_CONTROL
 10
2.970607
 20
5.864094
 30
0.0000
  0
SEQEND
  0
POLYLINE
  8
CAM_CONTROL
 66
1
 10
0.0000
 20
0.0000
 30
0.0000
 40
0.0020
 41
0.0020
  0
VERTEX
  8
CAM_CONTROL
 10
2.970607
 20
5.914094
 30
0.0000
  0
VERTEX
  8
CAM_CONTROL
 10
2.970607
 20
5.864094
 30
0.0000
  0
SEQEND
  0
POLYLINE
  8
CAM_CONTROL
 66
1
 10
0.0000
 20
0.0000
 30
0.0000
 40
0.0020
 41
0.0020
  0
VERTEX
  8
CAM_CONTROL
 10
2.970607
 20
5.914094
 30
0.0000
  0
VERTEX
  8
CAM_CONTROL
 10
3.02925
 20
5.914094
 30
0.0000
  0
SEQEND
  0
POLYLINE
  8
CAM_CONTROL
 66
1
 10
0.0000
 20
0.0000
 30
0.0000
 40
0.0020
 41
0.0020
  0
VERTEX
  8
CAM_CONTROL
 10
2.970607
 20
5.814094
 30
0.0000
  0
VERTEX
  8
CAM_CONTROL
 10
3.02925
 20
5.814094
 30
0.0000
  0
SEQEND
  0
POLYLINE
  8
CAM_CONTROL
 66
1
 10
0.0000
 20
0.0000
 30
0.0000
 40
0.0020
 41
0.0020
  0
VERTEX
  8
CAM_CONTROL
 10
2.970607
 20
5.864094
 30
0.0000
  0
VERTEX
  8
CAM_CONTROL
 10
3.016393
 20
5.864094
 30
0.0000
  0
SEQEND
  0
POLYLINE
  8
CAM_CONTROL
 66
1
 10
0.0000
 20
0.0000
 30
0.0000
 40
0.0020
 41
0.0020
  0
VERTEX
  8
CAM_CONTROL
 10
2.891964
 20
5.814094
 30
0.0000
  0
VERTEX
  8
CAM_CONTROL
 10
2.950607
 20
5.814094
 30
0.0000
  0
SEQEND
  0
POLYLINE
  8
CAM_CONTROL
 66
1
 10
0.0000
 20
0.0000
 30
0.0000
 40
0.0020
 41
0.0020
  0
VERTEX
  8
CAM_CONTROL
 10
2.891964
 20
5.914094
 30
0.0000
  0
VERTEX
  8
CAM_CONTROL
 10
2.891964
 20
5.814094
 30
0.0000
  0
SEQEND
  0
POLYLINE
  8
CAM_CONTROL
 66
1
 10
0.0000
 20
0.0000
 30
0.0000
 40
0.0020
 41
0.0020
  0
VERTEX
  8
CAM_CONTROL
 10
2.8085988
 20
5.8926654
 30
0.0000
 42
0.1647051
  0
VERTEX
  8
CAM_CONTROL
 10
2.8085989
 20
5.8355226
 30
0.0000
 42
0.0000
  0
SEQEND
  0
POLYLINE
  8
CAM_CONTROL
 66
1
 10
0.0000
 20
0.0000
 30
0.0000
 40
0.0020
 41
0.0020
  0
VERTEX
  8
CAM_CONTROL
 10
2.8085981
 20
5.8355218
 30
0.0000
 42
0.5769621
  0
VERTEX
  8
CAM_CONTROL
 10
2.8719639
 20
5.8292567
 30
0.0000
 42
0.0000
  0
SEQEND
  0
POLYLINE
  8
CAM_CONTROL
 66
1
 10
0.0000
 20
0.0000
 30
0.0000
 40
0.0020
 41
0.0020
  0
VERTEX
  8
CAM_CONTROL
 10
2.8719639
 20
5.8989303
 30
0.0000
 42
0.5769621
  0
VERTEX
  8
CAM_CONTROL
 10
2.8085981
 20
5.8926652
 30
0.0000
 42
0.0000
  0
SEQEND
  0
POLYLINE
  8
CAM_CONTROL
 66
1
 10
0.0000
 20
0.0000
 30
0.0000
 40
0.0020
 41
0.0020
  0
VERTEX
  8
CAM_CONTROL
 10
2.673535
 20
5.864094
 30
0.0000
  0
VERTEX
  8
CAM_CONTROL
 10
2.70675
 20
5.914094
 30
0.0000
  0
SEQEND
  0
POLYLINE
  8
CAM_CONTROL
 66
1
 10
0.0000
 20
0.0000
 30
0.0000
 40
0.0020
 41
0.0020
  0
VERTEX
  8
CAM_CONTROL
 10
2.640321
 20
5.914094
 30
0.0000
  0
VERTEX
  8
CAM_CONTROL
 10
2.673535
 20
5.864094
 30
0.0000
  0
SEQEND
  0
POLYLINE
  8
CAM_CONTROL
 66
1
 10
0.0000
 20
0.0000
 30
0.0000
 40
0.0020
 41
0.0020
  0
VERTEX
  8
CAM_CONTROL
 10
2.673535
 20
5.864094
 30
0.0000
  0
VERTEX
  8
CAM_CONTROL
 10
2.673535
 20
5.814094
 30
0.0000
  0
SEQEND
  0
POLYLINE
  8
CAM_CONTROL
 66
1
 10
0.0000
 20
0.0000
 30
0.0000
 40
0.0020
 41
0.0020
  0
VERTEX
  8
CAM_CONTROL
 10
2.561678
 20
5.814094
 30
0.0000
  0
VERTEX
  8
CAM_CONTROL
 10
2.620321
 20
5.814094
 30
0.0000
  0
SEQEND
  0
POLYLINE
  8
CAM_CONTROL
 66
1
 10
0.0000
 20
0.0000
 30
0.0000
 40
0.0020
 41
0.0020
  0
VERTEX
  8
CAM_CONTROL
 10
2.561678
 20
5.914094
 30
0.0000
  0
VERTEX
  8
CAM_CONTROL
 10
2.561678
 20
5.814094
 30
0.0000
  0
SEQEND
  0
POLYLINE
  8
CAM_CONTROL
 66
1
 10
0.0000
 20
0.0000
 30
0.0000
 40
0.0020
 41
0.0020
  0
VERTEX
  8
CAM_CONTROL
 10
2.5166742
 20
5.864094
 30
0.0000
 42
1.0000771
  0
VERTEX
  8
CAM_CONTROL
 10
2.516678
 20
5.914094
 30
0.0000
 42
0.0000
  0
SEQEND
  0
POLYLINE
  8
CAM_CONTROL
 66
1
 10
0.0000
 20
0.0000
 30
0.0000
 40
0.0020
 41
0.0020
  0
VERTEX
  8
CAM_CONTROL
 10
2.480393
 20
5.914094
 30
0.0000
  0
VERTEX
  8
CAM_CONTROL
 10
2.480393
 20
5.864094
 30
0.0000
  0
SEQEND
  0
POLYLINE
  8
CAM_CONTROL
 66
1
 10
0.0000
 20
0.0000
 30
0.0000
 40
0.0020
 41
0.0020
  0
VERTEX
  8
CAM_CONTROL
 10
2.480393
 20
5.814094
 30
0.0000
  0
VERTEX
  8
CAM_CONTROL
 10
2.480393
 20
5.864094
 30
0.0000
  0
SEQEND
  0
POLYLINE
  8
CAM_CONTROL
 66
1
 10
0.0000
 20
0.0000
 30
0.0000
 40
0.0020
 41
0.0020
  0
VERTEX
  8
CAM_CONTROL
 10
2.480393
 20
5.914094
 30
0.0000
  0
VERTEX
  8
CAM_CONTROL
 10
2.516678
 20
5.914094
 30
0.0000
  0
SEQEND
  0
POLYLINE
  8
CAM_CONTROL
 66
1
 10
0.0000
 20
0.0000
 30
0.0000
 40
0.0020
 41
0.0020
  0
VERTEX
  8
CAM_CONTROL
 10
2.480393
 20
5.864094
 30
0.0000
  0
VERTEX
  8
CAM_CONTROL
 10
2.516674
 20
5.864094
 30
0.0000
  0
SEQEND
  0
POLYLINE
  8
CAM_CONTROL
 66
1
 10
0.0000
 20
0.0000
 30
0.0000
 40
0.0020
 41
0.0020
  0
VERTEX
  8
CAM_CONTROL
 10
2.4353891
 20
5.864094
 30
0.0000
 42
1.0000771
  0
VERTEX
  8
CAM_CONTROL
 10
2.435393
 20
5.914094
 30
0.0000
 42
0.0000
  0
SEQEND
  0
POLYLINE
  8
CAM_CONTROL
 66
1
 10
0.0000
 20
0.0000
 30
0.0000
 40
0.0020
 41
0.0020
  0
VERTEX
  8
CAM_CONTROL
 10
2.399107
 20
5.914094
 30
0.0000
  0
VERTEX
  8
CAM_CONTROL
 10
2.399107
 20
5.864094
 30
0.0000
  0
SEQEND
  0
POLYLINE
  8
CAM_CONTROL
 66
1
 10
0.0000
 20
0.0000
 30
0.0000
 40
0.0020
 41
0.0020
  0
VERTEX
  8
CAM_CONTROL
 10
2.399107
 20
5.814094
 30
0.0000
  0
VERTEX
  8
CAM_CONTROL
 10
2.399107
 20
5.864094
 30
0.0000
  0
SEQEND
  0
POLYLINE
  8
CAM_CONTROL
 66
1
 10
0.0000
 20
0.0000
 30
0.0000
 40
0.0020
 41
0.0020
  0
VERTEX
  8
CAM_CONTROL
 10
2.399107
 20
5.914094
 30
0.0000
  0
VERTEX
  8
CAM_CONTROL
 10
2.435393
 20
5.914094
 30
0.0000
  0
SEQEND
  0
POLYLINE
  8
CAM_CONTROL
 66
1
 10
0.0000
 20
0.0000
 30
0.0000
 40
0.0020
 41
0.0020
  0
VERTEX
  8
CAM_CONTROL
 10
2.399107
 20
5.864094
 30
0.0000
  0
VERTEX
  8
CAM_CONTROL
 10
2.435389
 20
5.864094
 30
0.0000
  0
SEQEND
  0
POLYLINE
  8
CAM_CONTROL
 66
1
 10
0.0000
 20
0.0000
 30
0.0000
 40
0.0020
 41
0.0020
  0
VERTEX
  8
CAM_CONTROL
 10
2.371071
 20
5.835522
 30
0.0000
  0
VERTEX
  8
CAM_CONTROL
 10
2.379107
 20
5.814094
 30
0.0000
  0
SEQEND
  0
POLYLINE
  8
CAM_CONTROL
 66
1
 10
0.0000
 20
0.0000
 30
0.0000
 40
0.0020
 41
0.0020
  0
VERTEX
  8
CAM_CONTROL
 10
2.312143
 20
5.835522
 30
0.0000
  0
VERTEX
  8
CAM_CONTROL
 10
2.341607
 20
5.914094
 30
0.0000
  0
SEQEND
  0
POLYLINE
  8
CAM_CONTROL
 66
1
 10
0.0000
 20
0.0000
 30
0.0000
 40
0.0020
 41
0.0020
  0
VERTEX
  8
CAM_CONTROL
 10
2.341607
 20
5.914094
 30
0.0000
  0
VERTEX
  8
CAM_CONTROL
 10
2.371071
 20
5.835522
 30
0.0000
  0
SEQEND
  0
POLYLINE
  8
CAM_CONTROL
 66
1
 10
0.0000
 20
0.0000
 30
0.0000
 40
0.0020
 41
0.0020
  0
VERTEX
  8
CAM_CONTROL
 10
2.304107
 20
5.814094
 30
0.0000
  0
VERTEX
  8
CAM_CONTROL
 10
2.312143
 20
5.835522
 30
0.0000
  0
SEQEND
  0
POLYLINE
  8
CAM_CONTROL
 66
1
 10
0.0000
 20
0.0000
 30
0.0000
 40
0.0020
 41
0.0020
  0
VERTEX
  8
CAM_CONTROL
 10
2.312143
 20
5.835522
 30
0.0000
  0
VERTEX
  8
CAM_CONTROL
 10
2.371071
 20
5.835522
 30
0.0000
  0
SEQEND
  0
POLYLINE
  8
CAM_CONTROL
 66
1
 10
0.0000
 20
0.0000
 30
0.0000
 40
0.0020
 41
0.0020
  0
VERTEX
  8
CAM_CONTROL
 10
4.883189
 20
6.0645
 30
0.0000
  0
VERTEX
  8
CAM_CONTROL
 10
4.913923
 20
6.100357
 30
0.0000
  0
SEQEND
  0
POLYLINE
  8
CAM_CONTROL
 66
1
 10
0.0000
 20
0.0000
 30
0.0000
 40
0.0020
 41
0.0020
  0
VERTEX
  8
CAM_CONTROL
 10
4.883189
 20
6.0645
 30
0.0000
  0
VERTEX
  8
CAM_CONTROL
 10
4.913923
 20
6.000357
 30
0.0000
  0
SEQEND
  0
POLYLINE
  8
CAM_CONTROL
 66
1
 10
0.0000
 20
0.0000
 30
0.0000
 40
0.0020
 41
0.0020
  0
VERTEX
  8
CAM_CONTROL
 10
4.857994
 20
6.035107
 30
0.0000
  0
VERTEX
  8
CAM_CONTROL
 10
4.857994
 20
6.000357
 30
0.0000
  0
SEQEND
  0
POLYLINE
  8
CAM_CONTROL
 66
1
 10
0.0000
 20
0.0000
 30
0.0000
 40
0.0020
 41
0.0020
  0
VERTEX
  8
CAM_CONTROL
 10
4.857994
 20
6.100357
 30
0.0000
  0
VERTEX
  8
CAM_CONTROL
 10
4.857994
 20
6.035107
 30
0.0000
  0
SEQEND
  0
POLYLINE
  8
CAM_CONTROL
 66
1
 10
0.0000
 20
0.0000
 30
0.0000
 40
0.0020
 41
0.0020
  0
VERTEX
  8
CAM_CONTROL
 10
4.857994
 20
6.035107
 30
0.0000
  0
VERTEX
  8
CAM_CONTROL
 10
4.883189
 20
6.0645
 30
0.0000
  0
SEQEND
  0
POLYLINE
  8
CAM_CONTROL
 66
1
 10
0.0000
 20
0.0000
 30
0.0000
 40
0.0020
 41
0.0020
  0
VERTEX
  8
CAM_CONTROL
 10
4.7746288
 20
6.0789284
 30
0.0000
 42
0.1647051
  0
VERTEX
  8
CAM_CONTROL
 10
4.7746289
 20
6.0217856
 30
0.0000
 42
0.0000
  0
SEQEND
  0
POLYLINE
  8
CAM_CONTROL
 66
1
 10
0.0000
 20
0.0000
 30
0.0000
 40
0.0020
 41
0.0020
  0
VERTEX
  8
CAM_CONTROL
 10
4.7746291
 20
6.0217848
 30
0.0000
 42
0.5769621
  0
VERTEX
  8
CAM_CONTROL
 10
4.8379949
 20
6.0155197
 30
0.0000
 42
0.0000
  0
SEQEND
  0
POLYLINE
  8
CAM_CONTROL
 66
1
 10
0.0000
 20
0.0000
 30
0.0000
 40
0.0020
 41
0.0020
  0
VERTEX
  8
CAM_CONTROL
 10
4.8379949
 20
6.0851933
 30
0.0000
 42
0.5769621
  0
VERTEX
  8
CAM_CONTROL
 10
4.7746291
 20
6.0789282
 30
0.0000
 42
0.0000
  0
SEQEND
  0
POLYLINE
  8
CAM_CONTROL
 66
1
 10
0.0000
 20
0.0000
 30
0.0000
 40
0.0020
 41
0.0020
  0
VERTEX
  8
CAM_CONTROL
 10
4.749923
 20
6.100357
 30
0.0000
  0
VERTEX
  8
CAM_CONTROL
 10
4.735637
 20
6.100357
 30
0.0000
  0
SEQEND
  0
POLYLINE
  8
CAM_CONTROL
 66
1
 10
0.0000
 20
0.0000
 30
0.0000
 40
0.0020
 41
0.0020
  0
VERTEX
  8
CAM_CONTROL
 10
4.721352
 20
6.100357
 30
0.0000
  0
VERTEX
  8
CAM_CONTROL
 10
4.735637
 20
6.100357
 30
0.0000
  0
SEQEND
  0
POLYLINE
  8
CAM_CONTROL
 66
1
 10
0.0000
 20
0.0000
 30
0.0000
 40
0.0020
 41
0.0020
  0
VERTEX
  8
CAM_CONTROL
 10
4.749923
 20
6.000357
 30
0.0000
  0
VERTEX
  8
CAM_CONTROL
 10
4.735637
 20
6.000357
 30
0.0000
  0
SEQEND
  0
POLYLINE
  8
CAM_CONTROL
 66
1
 10
0.0000
 20
0.0000
 30
0.0000
 40
0.0020
 41
0.0020
  0
VERTEX
  8
CAM_CONTROL
 10
4.721352
 20
6.000357
 30
0.0000
  0
VERTEX
  8
CAM_CONTROL
 10
4.735637
 20
6.000357
 30
0.0000
  0
SEQEND
  0
POLYLINE
  8
CAM_CONTROL
 66
1
 10
0.0000
 20
0.0000
 30
0.0000
 40
0.0020
 41
0.0020
  0
VERTEX
  8
CAM_CONTROL
 10
4.735637
 20
6.000357
 30
0.0000
  0
VERTEX
  8
CAM_CONTROL
 10
4.735637
 20
6.100357
 30
0.0000
  0
SEQEND
  0
POLYLINE
  8
CAM_CONTROL
 66
1
 10
0.0000
 20
0.0000
 30
0.0000
 40
0.0020
 41
0.0020
  0
VERTEX
  8
CAM_CONTROL
 10
4.701352
 20
6.000357
 30
0.0000
  0
VERTEX
  8
CAM_CONTROL
 10
4.701352
 20
6.050357
 30
0.0000
  0
SEQEND
  0
POLYLINE
  8
CAM_CONTROL
 66
1
 10
0.0000
 20
0.0000
 30
0.0000
 40
0.0020
 41
0.0020
  0
VERTEX
  8
CAM_CONTROL
 10
4.701352
 20
6.100357
 30
0.0000
  0
VERTEX
  8
CAM_CONTROL
 10
4.701352
 20
6.050357
 30
0.0000
  0
SEQEND
  0
POLYLINE
  8
CAM_CONTROL
 66
1
 10
0.0000
 20
0.0000
 30
0.0000
 40
0.0020
 41
0.0020
  0
VERTEX
  8
CAM_CONTROL
 10
4.640637
 20
6.000357
 30
0.0000
  0
VERTEX
  8
CAM_CONTROL
 10
4.640637
 20
6.050357
 30
0.0000
  0
SEQEND
  0
POLYLINE
  8
CAM_CONTROL
 66
1
 10
0.0000
 20
0.0000
 30
0.0000
 40
0.0020
 41
0.0020
  0
VERTEX
  8
CAM_CONTROL
 10
4.640637
 20
6.100357
 30
0.0000
  0
VERTEX
  8
CAM_CONTROL
 10
4.640637
 20
6.050357
 30
0.0000
  0
SEQEND
  0
POLYLINE
  8
CAM_CONTROL
 66
1
 10
0.0000
 20
0.0000
 30
0.0000
 40
0.0020
 41
0.0020
  0
VERTEX
  8
CAM_CONTROL
 10
4.640637
 20
6.050357
 30
0.0000
  0
VERTEX
  8
CAM_CONTROL
 10
4.701352
 20
6.050357
 30
0.0000
  0
SEQEND
  0
POLYLINE
  8
CAM_CONTROL
 66
1
 10
0.0000
 20
0.0000
 30
0.0000
 40
0.0020
 41
0.0020
  0
VERTEX
  8
CAM_CONTROL
 10
4.588673
 20
6.100357
 30
0.0000
  0
VERTEX
  8
CAM_CONTROL
 10
4.620637
 20
6.100357
 30
0.0000
  0
SEQEND
  0
POLYLINE
  8
CAM_CONTROL
 66
1
 10
0.0000
 20
0.0000
 30
0.0000
 40
0.0020
 41
0.0020
  0
VERTEX
  8
CAM_CONTROL
 10
4.588673
 20
6.000357
 30
0.0000
  0
VERTEX
  8
CAM_CONTROL
 10
4.588673
 20
6.100357
 30
0.0000
  0
SEQEND
  0
POLYLINE
  8
CAM_CONTROL
 66
1
 10
0.0000
 20
0.0000
 30
0.0000
 40
0.0020
 41
0.0020
  0
VERTEX
  8
CAM_CONTROL
 10
4.556709
 20
6.100357
 30
0.0000
  0
VERTEX
  8
CAM_CONTROL
 10
4.588673
 20
6.100357
 30
0.0000
  0
SEQEND
  0
POLYLINE
  8
CAM_CONTROL
 66
1
 10
0.0000
 20
0.0000
 30
0.0000
 40
0.0020
 41
0.0020
  0
VERTEX
  8
CAM_CONTROL
 10
4.39828
 20
6.100357
 30
0.0000
  0
VERTEX
  8
CAM_CONTROL
 10
4.459566
 20
6.000357
 30
0.0000
  0
SEQEND
  0
POLYLINE
  8
CAM_CONTROL
 66
1
 10
0.0000
 20
0.0000
 30
0.0000
 40
0.0020
 41
0.0020
  0
VERTEX
  8
CAM_CONTROL
 10
4.459566
 20
6.000357
 30
0.0000
  0
VERTEX
  8
CAM_CONTROL
 10
4.459566
 20
6.100357
 30
0.0000
  0
SEQEND
  0
POLYLINE
  8
CAM_CONTROL
 66
1
 10
0.0000
 20
0.0000
 30
0.0000
 40
0.0020
 41
0.0020
  0
VERTEX
  8
CAM_CONTROL
 10
4.39828
 20
6.000357
 30
0.0000
  0
VERTEX
  8
CAM_CONTROL
 10
4.39828
 20
6.100357
 30
0.0000
  0
SEQEND
  0
POLYLINE
  8
CAM_CONTROL
 66
1
 10
0.0000
 20
0.0000
 30
0.0000
 40
0.0020
 41
0.0020
  0
VERTEX
  8
CAM_CONTROL
 10
4.37828
 20
6.100357
 30
0.0000
  0
VERTEX
  8
CAM_CONTROL
 10
4.363994
 20
6.100357
 30
0.0000
  0
SEQEND
  0
POLYLINE
  8
CAM_CONTROL
 66
1
 10
0.0000
 20
0.0000
 30
0.0000
 40
0.0020
 41
0.0020
  0
VERTEX
  8
CAM_CONTROL
 10
4.349709
 20
6.100357
 30
0.0000
  0
VERTEX
  8
CAM_CONTROL
 10
4.363994
 20
6.100357
 30
0.0000
  0
SEQEND
  0
POLYLINE
  8
CAM_CONTROL
 66
1
 10
0.0000
 20
0.0000
 30
0.0000
 40
0.0020
 41
0.0020
  0
VERTEX
  8
CAM_CONTROL
 10
4.37828
 20
6.000357
 30
0.0000
  0
VERTEX
  8
CAM_CONTROL
 10
4.363994
 20
6.000357
 30
0.0000
  0
SEQEND
  0
POLYLINE
  8
CAM_CONTROL
 66
1
 10
0.0000
 20
0.0000
 30
0.0000
 40
0.0020
 41
0.0020
  0
VERTEX
  8
CAM_CONTROL
 10
4.349709
 20
6.000357
 30
0.0000
  0
VERTEX
  8
CAM_CONTROL
 10
4.363994
 20
6.000357
 30
0.0000
  0
SEQEND
  0
POLYLINE
  8
CAM_CONTROL
 66
1
 10
0.0000
 20
0.0000
 30
0.0000
 40
0.0020
 41
0.0020
  0
VERTEX
  8
CAM_CONTROL
 10
4.363994
 20
6.000357
 30
0.0000
  0
VERTEX
  8
CAM_CONTROL
 10
4.363994
 20
6.100357
 30
0.0000
  0
SEQEND
  0
POLYLINE
  8
CAM_CONTROL
 66
1
 10
0.0000
 20
0.0000
 30
0.0000
 40
0.0020
 41
0.0020
  0
VERTEX
  8
CAM_CONTROL
 10
4.2466317
 20
6.0166694
 30
0.0000
 42
0.1761558
  0
VERTEX
  8
CAM_CONTROL
 10
4.2466317
 20
6.0840446
 30
0.0000
 42
0.0000
  0
SEQEND
  0
POLYLINE
  8
CAM_CONTROL
 66
1
 10
0.0000
 20
0.0000
 30
0.0000
 40
0.0020
 41
0.0020
  0
VERTEX
  8
CAM_CONTROL
 10
4.1999293
 20
6.0840446
 30
0.0000
 42
0.1761558
  0
VERTEX
  8
CAM_CONTROL
 10
4.1999293
 20
6.0166694
 30
0.0000
 42
0.0000
  0
SEQEND
  0
POLYLINE
  8
CAM_CONTROL
 66
1
 10
0.0000
 20
0.0000
 30
0.0000
 40
0.0020
 41
0.0020
  0
VERTEX
  8
CAM_CONTROL
 10
4.2466317
 20
6.0840444
 30
0.0000
 42
0.7054995
  0
VERTEX
  8
CAM_CONTROL
 10
4.1999283
 20
6.0840444
 30
0.0000
 42
0.0000
  0
SEQEND
  0
POLYLINE
  8
CAM_CONTROL
 66
1
 10
0.0000
 20
0.0000
 30
0.0000
 40
0.0020
 41
0.0020
  0
VERTEX
  8
CAM_CONTROL
 10
4.1999283
 20
6.0166686
 30
0.0000
 42
0.7054995
  0
VERTEX
  8
CAM_CONTROL
 10
4.2466317
 20
6.0166686
 30
0.0000
 42
0.0000
  0
SEQEND
  0
POLYLINE
  8
CAM_CONTROL
 66
1
 10
0.0000
 20
0.0000
 30
0.0000
 40
0.0020
 41
0.0020
  0
VERTEX
  8
CAM_CONTROL
 10
4.113069
 20
6.0797587
 30
0.0000
 42
1.3206513
  0
VERTEX
  8
CAM_CONTROL
 10
4.1702354
 20
6.0777625
 30
0.0000
 42
0.0000
  0
SEQEND
  0
POLYLINE
  8
CAM_CONTROL
 66
1
 10
0.0000
 20
0.0000
 30
0.0000
 40
0.0020
 41
0.0020
  0
VERTEX
  8
CAM_CONTROL
 10
4.1702349
 20
6.0777631
 30
0.0000
 42
0.7548967
  0
VERTEX
  8
CAM_CONTROL
 10
4.1130679
 20
6.0797594
 30
0.0000
 42
0.0000
  0
SEQEND
  0
POLYLINE
  8
CAM_CONTROL
 66
1
 10
0.0000
 20
0.0000
 30
0.0000
 40
0.0020
 41
0.0020
  0
VERTEX
  8
CAM_CONTROL
 10
4.1140094
 20
6.0152389
 30
0.0000
 42
0.6543236
  0
VERTEX
  8
CAM_CONTROL
 10
4.1682412
 20
6.0206546
 30
0.0000
 42
0.0000
  0
SEQEND
  0
POLYLINE
  8
CAM_CONTROL
 66
1
 10
0.0000
 20
0.0000
 30
0.0000
 40
0.0020
 41
0.0020
  0
VERTEX
  8
CAM_CONTROL
 10
4.1682406
 20
6.0206551
 30
0.0000
 42
0.1647051
  0
VERTEX
  8
CAM_CONTROL
 10
4.1702349
 20
6.0777631
 30
0.0000
 42
0.0000
  0
SEQEND
  0
POLYLINE
  8
CAM_CONTROL
 66
1
 10
0.0000
 20
0.0000
 30
0.0000
 40
0.0020
 41
0.0020
  0
VERTEX
  8
CAM_CONTROL
 10
4.0857817
 20
6.0166694
 30
0.0000
 42
0.1761558
  0
VERTEX
  8
CAM_CONTROL
 10
4.0857817
 20
6.0840446
 30
0.0000
 42
0.0000
  0
SEQEND
  0
POLYLINE
  8
CAM_CONTROL
 66
1
 10
0.0000
 20
0.0000
 30
0.0000
 40
0.0020
 41
0.0020
  0
VERTEX
  8
CAM_CONTROL
 10
4.0390793
 20
6.0840446
 30
0.0000
 42
0.1761558
  0
VERTEX
  8
CAM_CONTROL
 10
4.0390793
 20
6.0166694
 30
0.0000
 42
0.0000
  0
SEQEND
  0
POLYLINE
  8
CAM_CONTROL
 66
1
 10
0.0000
 20
0.0000
 30
0.0000
 40
0.0020
 41
0.0020
  0
VERTEX
  8
CAM_CONTROL
 10
4.0857817
 20
6.0840444
 30
0.0000
 42
0.7054995
  0
VERTEX
  8
CAM_CONTROL
 10
4.0390783
 20
6.0840444
 30
0.0000
 42
0.0000
  0
SEQEND
  0
POLYLINE
  8
CAM_CONTROL
 66
1
 10
0.0000
 20
0.0000
 30
0.0000
 40
0.0020
 41
0.0020
  0
VERTEX
  8
CAM_CONTROL
 10
4.0390783
 20
6.0166686
 30
0.0000
 42
0.7054995
  0
VERTEX
  8
CAM_CONTROL
 10
4.0857817
 20
6.0166686
 30
0.0000
 42
0.0000
  0
SEQEND
  0
POLYLINE
  8
CAM_CONTROL
 66
1
 10
0.0000
 20
0.0000
 30
0.0000
 40
0.0020
 41
0.0020
  0
VERTEX
  8
CAM_CONTROL
 10
4.003144
 20
6.005357
 30
0.0000
 42
1.0000
  0
VERTEX
  8
CAM_CONTROL
 10
4.013144
 20
6.005357
 30
0.0000
 42
0.0000
  0
SEQEND
  0
POLYLINE
  8
CAM_CONTROL
 66
1
 10
0.0000
 20
0.0000
 30
0.0000
 40
0.0020
 41
0.0020
  0
VERTEX
  8
CAM_CONTROL
 10
4.013144
 20
6.005357
 30
0.0000
 42
1.0000
  0
VERTEX
  8
CAM_CONTROL
 10
4.003144
 20
6.005357
 30
0.0000
 42
0.0000
  0
SEQEND
  0
POLYLINE
  8
CAM_CONTROL
 66
1
 10
0.0000
 20
0.0000
 30
0.0000
 40
0.0020
 41
0.0020
  0
VERTEX
  8
CAM_CONTROL
 10
3.904574
 20
6.0209452
 30
0.0000
 42
1.3206531
  0
VERTEX
  8
CAM_CONTROL
 10
3.8474076
 20
6.0229415
 30
0.0000
 42
0.0000
  0
SEQEND
  0
POLYLINE
  8
CAM_CONTROL
 66
1
 10
0.0000
 20
0.0000
 30
0.0000
 40
0.0020
 41
0.0020
  0
VERTEX
  8
CAM_CONTROL
 10
3.8474071
 20
6.0229418
 30
0.0000
 42
0.7548949
  0
VERTEX
  8
CAM_CONTROL
 10
3.9045742
 20
6.0209455
 30
0.0000
 42
0.0000
  0
SEQEND
  0
POLYLINE
  8
CAM_CONTROL
 66
1
 10
0.0000
 20
0.0000
 30
0.0000
 40
0.0020
 41
0.0020
  0
VERTEX
  8
CAM_CONTROL
 10
3.9036335
 20
6.0854651
 30
0.0000
 42
0.6543233
  0
VERTEX
  8
CAM_CONTROL
 10
3.8494019
 20
6.0800494
 30
0.0000
 42
0.0000
  0
SEQEND
  0
POLYLINE
  8
CAM_CONTROL
 66
1
 10
0.0000
 20
0.0000
 30
0.0000
 40
0.0020
 41
0.0020
  0
VERTEX
  8
CAM_CONTROL
 10
3.8494014
 20
6.0800499
 30
0.0000
 42
0.1647051
  0
VERTEX
  8
CAM_CONTROL
 10
3.8474072
 20
6.0229419
 30
0.0000
 42
0.0000
  0
SEQEND
  0
POLYLINE
  8
CAM_CONTROL
 66
1
 10
0.0000
 20
0.0000
 30
0.0000
 40
0.0020
 41
0.0020
  0
VERTEX
  8
CAM_CONTROL
 10
3.791737
 20
6.100357
 30
0.0000
  0
VERTEX
  8
CAM_CONTROL
 10
3.823702
 20
6.100357
 30
0.0000
  0
SEQEND
  0
POLYLINE
  8
CAM_CONTROL
 66
1
 10
0.0000
 20
0.0000
 30
0.0000
 40
0.0020
 41
0.0020
  0
VERTEX
  8
CAM_CONTROL
 10
3.791737
 20
6.000357
 30
0.0000
  0
VERTEX
  8
CAM_CONTROL
 10
3.791737
 20
6.100357
 30
0.0000
  0
SEQEND
  0
POLYLINE
  8
CAM_CONTROL
 66
1
 10
0.0000
 20
0.0000
 30
0.0000
 40
0.0020
 41
0.0020
  0
VERTEX
  8
CAM_CONTROL
 10
3.759773
 20
6.100357
 30
0.0000
  0
VERTEX
  8
CAM_CONTROL
 10
3.791737
 20
6.100357
 30
0.0000
  0
SEQEND
  0
POLYLINE
  8
CAM_CONTROL
 66
1
 10
0.0000
 20
0.0000
 30
0.0000
 40
0.0020
 41
0.0020
  0
VERTEX
  8
CAM_CONTROL
 10
3.648344
 20
6.100357
 30
0.0000
  0
VERTEX
  8
CAM_CONTROL
 10
3.634059
 20
6.086071
 30
0.0000
  0
SEQEND
  0
POLYLINE
  8
CAM_CONTROL
 66
1
 10
0.0000
 20
0.0000
 30
0.0000
 40
0.0020
 41
0.0020
  0
VERTEX
  8
CAM_CONTROL
 10
3.648344
 20
6.000357
 30
0.0000
  0
VERTEX
  8
CAM_CONTROL
 10
3.634059
 20
6.000357
 30
0.0000
  0
SEQEND
  0
POLYLINE
  8
CAM_CONTROL
 66
1
 10
0.0000
 20
0.0000
 30
0.0000
 40
0.0020
 41
0.0020
  0
VERTEX
  8
CAM_CONTROL
 10
3.648344
 20
6.000357
 30
0.0000
  0
VERTEX
  8
CAM_CONTROL
 10
3.66263
 20
6.000357
 30
0.0000
  0
SEQEND
  0
POLYLINE
  8
CAM_CONTROL
 66
1
 10
0.0000
 20
0.0000
 30
0.0000
 40
0.0020
 41
0.0020
  0
VERTEX
  8
CAM_CONTROL
 10
3.648344
 20
6.000357
 30
0.0000
  0
VERTEX
  8
CAM_CONTROL
 10
3.648344
 20
6.100357
 30
0.0000
  0
SEQEND
  0
POLYLINE
  8
CAM_CONTROL
 66
1
 10
0.0000
 20
0.0000
 30
0.0000
 40
0.0020
 41
0.0020
  0
VERTEX
  8
CAM_CONTROL
 10
3.612631
 20
6.0209452
 30
0.0000
 42
1.3206531
  0
VERTEX
  8
CAM_CONTROL
 10
3.5554646
 20
6.0229415
 30
0.0000
 42
0.0000
  0
SEQEND
  0
POLYLINE
  8
CAM_CONTROL
 66
1
 10
0.0000
 20
0.0000
 30
0.0000
 40
0.0020
 41
0.0020
  0
VERTEX
  8
CAM_CONTROL
 10
3.5554641
 20
6.0229418
 30
0.0000
 42
0.754895
  0
VERTEX
  8
CAM_CONTROL
 10
3.6126312
 20
6.0209455
 30
0.0000
 42
0.0000
  0
SEQEND
  0
POLYLINE
  8
CAM_CONTROL
 66
1
 10
0.0000
 20
0.0000
 30
0.0000
 40
0.0020
 41
0.0020
  0
VERTEX
  8
CAM_CONTROL
 10
3.6116906
 20
6.0854651
 30
0.0000
 42
0.6543236
  0
VERTEX
  8
CAM_CONTROL
 10
3.5574588
 20
6.0800494
 30
0.0000
 42
0.0000
  0
SEQEND
  0
POLYLINE
  8
CAM_CONTROL
 66
1
 10
0.0000
 20
0.0000
 30
0.0000
 40
0.0020
 41
0.0020
  0
VERTEX
  8
CAM_CONTROL
 10
3.5574584
 20
6.0800499
 30
0.0000
 42
0.1647052
  0
VERTEX
  8
CAM_CONTROL
 10
3.5554642
 20
6.0229419
 30
0.0000
 42
0.0000
  0
SEQEND
  0
POLYLINE
  8
CAM_CONTROL
 66
1
 10
0.0000
 20
0.0000
 30
0.0000
 40
0.0020
 41
0.0020
  0
VERTEX
  8
CAM_CONTROL
 10
3.5258247
 20
6.0166694
 30
0.0000
 42
0.1761558
  0
VERTEX
  8
CAM_CONTROL
 10
3.5258247
 20
6.0840446
 30
0.0000
 42
0.0000
  0
SEQEND
  0
POLYLINE
  8
CAM_CONTROL
 66
1
 10
0.0000
 20
0.0000
 30
0.0000
 40
0.0020
 41
0.0020
  0
VERTEX
  8
CAM_CONTROL
 10
3.4791213
 20
6.0840446
 30
0.0000
 42
0.1761558
  0
VERTEX
  8
CAM_CONTROL
 10
3.4791213
 20
6.0166694
 30
0.0000
 42
0.0000
  0
SEQEND
  0
POLYLINE
  8
CAM_CONTROL
 66
1
 10
0.0000
 20
0.0000
 30
0.0000
 40
0.0020
 41
0.0020
  0
VERTEX
  8
CAM_CONTROL
 10
3.5258246
 20
6.0840444
 30
0.0000
 42
0.7054995
  0
VERTEX
  8
CAM_CONTROL
 10
3.4791213
 20
6.0840444
 30
0.0000
 42
0.0000
  0
SEQEND
  0
POLYLINE
  8
CAM_CONTROL
 66
1
 10
0.0000
 20
0.0000
 30
0.0000
 40
0.0020
 41
0.0020
  0
VERTEX
  8
CAM_CONTROL
 10
3.4791213
 20
6.0166686
 30
0.0000
 42
0.7054995
  0
VERTEX
  8
CAM_CONTROL
 10
3.5258246
 20
6.0166686
 30
0.0000
 42
0.0000
  0
SEQEND
  0
POLYLINE
  8
CAM_CONTROL
 66
1
 10
0.0000
 20
0.0000
 30
0.0000
 40
0.0020
 41
0.0020
  0
VERTEX
  8
CAM_CONTROL
 10
3.45176
 20
6.0209452
 30
0.0000
 42
1.3206532
  0
VERTEX
  8
CAM_CONTROL
 10
3.3945935
 20
6.0229415
 30
0.0000
 42
0.0000
  0
SEQEND
  0
POLYLINE
  8
CAM_CONTROL
 66
1
 10
0.0000
 20
0.0000
 30
0.0000
 40
0.0020
 41
0.0020
  0
VERTEX
  8
CAM_CONTROL
 10
3.3945931
 20
6.0229418
 30
0.0000
 42
0.7548947
  0
VERTEX
  8
CAM_CONTROL
 10
3.4517602
 20
6.0209455
 30
0.0000
 42
0.0000
  0
SEQEND
  0
POLYLINE
  8
CAM_CONTROL
 66
1
 10
0.0000
 20
0.0000
 30
0.0000
 40
0.0020
 41
0.0020
  0
VERTEX
  8
CAM_CONTROL
 10
3.4508196
 20
6.0854651
 30
0.0000
 42
0.6543238
  0
VERTEX
  8
CAM_CONTROL
 10
3.3965879
 20
6.0800494
 30
0.0000
 42
0.0000
  0
SEQEND
  0
POLYLINE
  8
CAM_CONTROL
 66
1
 10
0.0000
 20
0.0000
 30
0.0000
 40
0.0020
 41
0.0020
  0
VERTEX
  8
CAM_CONTROL
 10
3.3965874
 20
6.0800499
 30
0.0000
 42
0.1647051
  0
VERTEX
  8
CAM_CONTROL
 10
3.3945931
 20
6.0229419
 30
0.0000
 42
0.0000
  0
SEQEND
  0
POLYLINE
  8
CAM_CONTROL
 66
1
 10
0.0000
 20
0.0000
 30
0.0000
 40
0.0020
 41
0.0020
  0
VERTEX
  8
CAM_CONTROL
 10
3.272316
 20
6.071785
 30
0.0000
 42
0.9999963
  0
VERTEX
  8
CAM_CONTROL
 10
3.293744
 20
6.071785
 30
0.0000
 42
0.0000
  0
SEQEND
  0
POLYLINE
  8
CAM_CONTROL
 66
1
 10
0.0000
 20
0.0000
 30
0.0000
 40
0.0020
 41
0.0020
  0
VERTEX
  8
CAM_CONTROL
 10
3.293744
 20
6.071785
 30
0.0000
 42
1.0000037
  0
VERTEX
  8
CAM_CONTROL
 10
3.272316
 20
6.071785
 30
0.0000
 42
0.0000
  0
SEQEND
  0
POLYLINE
  8
CAM_CONTROL
 66
1
 10
0.0000
 20
0.0000
 30
0.0000
 40
0.0020
 41
0.0020
  0
VERTEX
  8
CAM_CONTROL
 10
3.272316
 20
6.028928
 30
0.0000
 42
1.0000
  0
VERTEX
  8
CAM_CONTROL
 10
3.293744
 20
6.028928
 30
0.0000
 42
0.0000
  0
SEQEND
  0
POLYLINE
  8
CAM_CONTROL
 66
1
 10
0.0000
 20
0.0000
 30
0.0000
 40
0.0020
 41
0.0020
  0
VERTEX
  8
CAM_CONTROL
 10
3.293744
 20
6.028928
 30
0.0000
 42
1.0000
  0
VERTEX
  8
CAM_CONTROL
 10
3.272316
 20
6.028928
 30
0.0000
 42
0.0000
  0
SEQEND
  0
POLYLINE
  8
CAM_CONTROL
 66
1
 10
0.0000
 20
0.0000
 30
0.0000
 40
0.0020
 41
0.0020
  0
VERTEX
  8
CAM_CONTROL
 10
3.193673
 20
6.000357
 30
0.0000
  0
VERTEX
  8
CAM_CONTROL
 10
3.252316
 20
6.000357
 30
0.0000
  0
SEQEND
  0
POLYLINE
  8
CAM_CONTROL
 66
1
 10
0.0000
 20
0.0000
 30
0.0000
 40
0.0020
 41
0.0020
  0
VERTEX
  8
CAM_CONTROL
 10
3.193673
 20
6.100357
 30
0.0000
  0
VERTEX
  8
CAM_CONTROL
 10
3.193673
 20
6.000357
 30
0.0000
  0
SEQEND
  0
POLYLINE
  8
CAM_CONTROL
 66
1
 10
0.0000
 20
0.0000
 30
0.0000
 40
0.0020
 41
0.0020
  0
VERTEX
  8
CAM_CONTROL
 10
3.165637
 20
6.021785
 30
0.0000
  0
VERTEX
  8
CAM_CONTROL
 10
3.173673
 20
6.000357
 30
0.0000
  0
SEQEND
  0
POLYLINE
  8
CAM_CONTROL
 66
1
 10
0.0000
 20
0.0000
 30
0.0000
 40
0.0020
 41
0.0020
  0
VERTEX
  8
CAM_CONTROL
 10
3.106709
 20
6.021785
 30
0.0000
  0
VERTEX
  8
CAM_CONTROL
 10
3.136173
 20
6.100357
 30
0.0000
  0
SEQEND
  0
POLYLINE
  8
CAM_CONTROL
 66
1
 10
0.0000
 20
0.0000
 30
0.0000
 40
0.0020
 41
0.0020
  0
VERTEX
  8
CAM_CONTROL
 10
3.136173
 20
6.100357
 30
0.0000
  0
VERTEX
  8
CAM_CONTROL
 10
3.165637
 20
6.021785
 30
0.0000
  0
SEQEND
  0
POLYLINE
  8
CAM_CONTROL
 66
1
 10
0.0000
 20
0.0000
 30
0.0000
 40
0.0020
 41
0.0020
  0
VERTEX
  8
CAM_CONTROL
 10
3.098673
 20
6.000357
 30
0.0000
  0
VERTEX
  8
CAM_CONTROL
 10
3.106709
 20
6.021785
 30
0.0000
  0
SEQEND
  0
POLYLINE
  8
CAM_CONTROL
 66
1
 10
0.0000
 20
0.0000
 30
0.0000
 40
0.0020
 41
0.0020
  0
VERTEX
  8
CAM_CONTROL
 10
3.106709
 20
6.021785
 30
0.0000
  0
VERTEX
  8
CAM_CONTROL
 10
3.165637
 20
6.021785
 30
0.0000
  0
SEQEND
  0
POLYLINE
  8
CAM_CONTROL
 66
1
 10
0.0000
 20
0.0000
 30
0.0000
 40
0.0020
 41
0.0020
  0
VERTEX
  8
CAM_CONTROL
 10
3.078673
 20
6.100357
 30
0.0000
  0
VERTEX
  8
CAM_CONTROL
 10
3.064387
 20
6.100357
 30
0.0000
  0
SEQEND
  0
POLYLINE
  8
CAM_CONTROL
 66
1
 10
0.0000
 20
0.0000
 30
0.0000
 40
0.0020
 41
0.0020
  0
VERTEX
  8
CAM_CONTROL
 10
3.050102
 20
6.100357
 30
0.0000
  0
VERTEX
  8
CAM_CONTROL
 10
3.064387
 20
6.100357
 30
0.0000
  0
SEQEND
  0
POLYLINE
  8
CAM_CONTROL
 66
1
 10
0.0000
 20
0.0000
 30
0.0000
 40
0.0020
 41
0.0020
  0
VERTEX
  8
CAM_CONTROL
 10
3.078673
 20
6.000357
 30
0.0000
  0
VERTEX
  8
CAM_CONTROL
 10
3.064387
 20
6.000357
 30
0.0000
  0
SEQEND
  0
POLYLINE
  8
CAM_CONTROL
 66
1
 10
0.0000
 20
0.0000
 30
0.0000
 40
0.0020
 41
0.0020
  0
VERTEX
  8
CAM_CONTROL
 10
3.050102
 20
6.000357
 30
0.0000
  0
VERTEX
  8
CAM_CONTROL
 10
3.064387
 20
6.000357
 30
0.0000
  0
SEQEND
  0
POLYLINE
  8
CAM_CONTROL
 66
1
 10
0.0000
 20
0.0000
 30
0.0000
 40
0.0020
 41
0.0020
  0
VERTEX
  8
CAM_CONTROL
 10
3.064387
 20
6.000357
 30
0.0000
  0
VERTEX
  8
CAM_CONTROL
 10
3.064387
 20
6.100357
 30
0.0000
  0
SEQEND
  0
POLYLINE
  8
CAM_CONTROL
 66
1
 10
0.0000
 20
0.0000
 30
0.0000
 40
0.0020
 41
0.0020
  0
VERTEX
  8
CAM_CONTROL
 10
3.005098
 20
6.050357
 30
0.0000
  0
VERTEX
  8
CAM_CONTROL
 10
3.030102
 20
6.000357
 30
0.0000
  0
SEQEND
  0
POLYLINE
  8
CAM_CONTROL
 66
1
 10
0.0000
 20
0.0000
 30
0.0000
 40
0.0020
 41
0.0020
  0
VERTEX
  8
CAM_CONTROL
 10
3.0050981
 20
6.050357
 30
0.0000
 42
1.0000771
  0
VERTEX
  8
CAM_CONTROL
 10
3.005102
 20
6.100357
 30
0.0000
 42
0.0000
  0
SEQEND
  0
POLYLINE
  8
CAM_CONTROL
 66
1
 10
0.0000
 20
0.0000
 30
0.0000
 40
0.0020
 41
0.0020
  0
VERTEX
  8
CAM_CONTROL
 10
2.968816
 20
6.100357
 30
0.0000
  0
VERTEX
  8
CAM_CONTROL
 10
2.968816
 20
6.050357
 30
0.0000
  0
SEQEND
  0
POLYLINE
  8
CAM_CONTROL
 66
1
 10
0.0000
 20
0.0000
 30
0.0000
 40
0.0020
 41
0.0020
  0
VERTEX
  8
CAM_CONTROL
 10
2.968816
 20
6.000357
 30
0.0000
  0
VERTEX
  8
CAM_CONTROL
 10
2.968816
 20
6.050357
 30
0.0000
  0
SEQEND
  0
POLYLINE
  8
CAM_CONTROL
 66
1
 10
0.0000
 20
0.0000
 30
0.0000
 40
0.0020
 41
0.0020
  0
VERTEX
  8
CAM_CONTROL
 10
2.968816
 20
6.100357
 30
0.0000
  0
VERTEX
  8
CAM_CONTROL
 10
3.005102
 20
6.100357
 30
0.0000
  0
SEQEND
  0
POLYLINE
  8
CAM_CONTROL
 66
1
 10
0.0000
 20
0.0000
 30
0.0000
 40
0.0020
 41
0.0020
  0
VERTEX
  8
CAM_CONTROL
 10
2.968816
 20
6.050357
 30
0.0000
  0
VERTEX
  8
CAM_CONTROL
 10
3.005098
 20
6.050357
 30
0.0000
  0
SEQEND
  0
POLYLINE
  8
CAM_CONTROL
 66
1
 10
0.0000
 20
0.0000
 30
0.0000
 40
0.0020
 41
0.0020
  0
VERTEX
  8
CAM_CONTROL
 10
2.890173
 20
6.000357
 30
0.0000
  0
VERTEX
  8
CAM_CONTROL
 10
2.890173
 20
6.050357
 30
0.0000
  0
SEQEND
  0
POLYLINE
  8
CAM_CONTROL
 66
1
 10
0.0000
 20
0.0000
 30
0.0000
 40
0.0020
 41
0.0020
  0
VERTEX
  8
CAM_CONTROL
 10
2.890173
 20
6.100357
 30
0.0000
  0
VERTEX
  8
CAM_CONTROL
 10
2.890173
 20
6.050357
 30
0.0000
  0
SEQEND
  0
POLYLINE
  8
CAM_CONTROL
 66
1
 10
0.0000
 20
0.0000
 30
0.0000
 40
0.0020
 41
0.0020
  0
VERTEX
  8
CAM_CONTROL
 10
2.890173
 20
6.100357
 30
0.0000
  0
VERTEX
  8
CAM_CONTROL
 10
2.948816
 20
6.100357
 30
0.0000
  0
SEQEND
  0
POLYLINE
  8
CAM_CONTROL
 66
1
 10
0.0000
 20
0.0000
 30
0.0000
 40
0.0020
 41
0.0020
  0
VERTEX
  8
CAM_CONTROL
 10
2.890173
 20
6.000357
 30
0.0000
  0
VERTEX
  8
CAM_CONTROL
 10
2.948816
 20
6.000357
 30
0.0000
  0
SEQEND
  0
POLYLINE
  8
CAM_CONTROL
 66
1
 10
0.0000
 20
0.0000
 30
0.0000
 40
0.0020
 41
0.0020
  0
VERTEX
  8
CAM_CONTROL
 10
2.890173
 20
6.050357
 30
0.0000
  0
VERTEX
  8
CAM_CONTROL
 10
2.935959
 20
6.050357
 30
0.0000
  0
SEQEND
  0
POLYLINE
  8
CAM_CONTROL
 66
1
 10
0.0000
 20
0.0000
 30
0.0000
 40
0.0020
 41
0.0020
  0
VERTEX
  8
CAM_CONTROL
 10
2.838209
 20
6.100357
 30
0.0000
  0
VERTEX
  8
CAM_CONTROL
 10
2.870173
 20
6.100357
 30
0.0000
  0
SEQEND
  0
POLYLINE
  8
CAM_CONTROL
 66
1
 10
0.0000
 20
0.0000
 30
0.0000
 40
0.0020
 41
0.0020
  0
VERTEX
  8
CAM_CONTROL
 10
2.838209
 20
6.000357
 30
0.0000
  0
VERTEX
  8
CAM_CONTROL
 10
2.838209
 20
6.100357
 30
0.0000
  0
SEQEND
  0
POLYLINE
  8
CAM_CONTROL
 66
1
 10
0.0000
 20
0.0000
 30
0.0000
 40
0.0020
 41
0.0020
  0
VERTEX
  8
CAM_CONTROL
 10
2.806244
 20
6.100357
 30
0.0000
  0
VERTEX
  8
CAM_CONTROL
 10
2.838209
 20
6.100357
 30
0.0000
  0
SEQEND
  0
POLYLINE
  8
CAM_CONTROL
 66
1
 10
0.0000
 20
0.0000
 30
0.0000
 40
0.0020
 41
0.0020
  0
VERTEX
  8
CAM_CONTROL
 10
2.778209
 20
6.021785
 30
0.0000
  0
VERTEX
  8
CAM_CONTROL
 10
2.786244
 20
6.000357
 30
0.0000
  0
SEQEND
  0
POLYLINE
  8
CAM_CONTROL
 66
1
 10
0.0000
 20
0.0000
 30
0.0000
 40
0.0020
 41
0.0020
  0
VERTEX
  8
CAM_CONTROL
 10
2.71928
 20
6.021785
 30
0.0000
  0
VERTEX
  8
CAM_CONTROL
 10
2.748744
 20
6.100357
 30
0.0000
  0
SEQEND
  0
POLYLINE
  8
CAM_CONTROL
 66
1
 10
0.0000
 20
0.0000
 30
0.0000
 40
0.0020
 41
0.0020
  0
VERTEX
  8
CAM_CONTROL
 10
2.748744
 20
6.100357
 30
0.0000
  0
VERTEX
  8
CAM_CONTROL
 10
2.778209
 20
6.021785
 30
0.0000
  0
SEQEND
  0
POLYLINE
  8
CAM_CONTROL
 66
1
 10
0.0000
 20
0.0000
 30
0.0000
 40
0.0020
 41
0.0020
  0
VERTEX
  8
CAM_CONTROL
 10
2.711244
 20
6.000357
 30
0.0000
  0
VERTEX
  8
CAM_CONTROL
 10
2.71928
 20
6.021785
 30
0.0000
  0
SEQEND
  0
POLYLINE
  8
CAM_CONTROL
 66
1
 10
0.0000
 20
0.0000
 30
0.0000
 40
0.0020
 41
0.0020
  0
VERTEX
  8
CAM_CONTROL
 10
2.71928
 20
6.021785
 30
0.0000
  0
VERTEX
  8
CAM_CONTROL
 10
2.778209
 20
6.021785
 30
0.0000
  0
SEQEND
  0
POLYLINE
  8
CAM_CONTROL
 66
1
 10
0.0000
 20
0.0000
 30
0.0000
 40
0.0020
 41
0.0020
  0
VERTEX
  8
CAM_CONTROL
 10
2.649102
 20
6.029642
 30
0.0000
  0
VERTEX
  8
CAM_CONTROL
 10
2.691244
 20
6.100357
 30
0.0000
  0
SEQEND
  0
POLYLINE
  8
CAM_CONTROL
 66
1
 10
0.0000
 20
0.0000
 30
0.0000
 40
0.0020
 41
0.0020
  0
VERTEX
  8
CAM_CONTROL
 10
2.606959
 20
6.100357
 30
0.0000
  0
VERTEX
  8
CAM_CONTROL
 10
2.649102
 20
6.029642
 30
0.0000
  0
SEQEND
  0
POLYLINE
  8
CAM_CONTROL
 66
1
 10
0.0000
 20
0.0000
 30
0.0000
 40
0.0020
 41
0.0020
  0
VERTEX
  8
CAM_CONTROL
 10
2.691244
 20
6.000357
 30
0.0000
  0
VERTEX
  8
CAM_CONTROL
 10
2.691244
 20
6.100357
 30
0.0000
  0
SEQEND
  0
POLYLINE
  8
CAM_CONTROL
 66
1
 10
0.0000
 20
0.0000
 30
0.0000
 40
0.0020
 41
0.0020
  0
VERTEX
  8
CAM_CONTROL
 10
2.606959
 20
6.000357
 30
0.0000
  0
VERTEX
  8
CAM_CONTROL
 10
2.606959
 20
6.100357
 30
0.0000
  0
SEQEND
  0
POLYLINE
  8
CAM_CONTROL
 66
1
 10
0.0000
 20
0.0000
 30
0.0000
 40
0.0020
 41
0.0020
  0
VERTEX
  8
CAM_CONTROL
 10
2.5051102
 20
6.0217856
 30
0.0000
 42
0.1647051
  0
VERTEX
  8
CAM_CONTROL
 10
2.5051102
 20
6.0789284
 30
0.0000
 42
0.0000
  0
SEQEND
  0
POLYLINE
  8
CAM_CONTROL
 66
1
 10
0.0000
 20
0.0000
 30
0.0000
 40
0.0020
 41
0.0020
  0
VERTEX
  8
CAM_CONTROL
 10
2.4750657
 20
6.0003561
 30
0.0000
 42
0.2690282
  0
VERTEX
  8
CAM_CONTROL
 10
2.5051098
 20
6.0217848
 30
0.0000
 42
0.0000
  0
SEQEND
  0
POLYLINE
  8
CAM_CONTROL
 66
1
 10
0.0000
 20
0.0000
 30
0.0000
 40
0.0020
 41
0.0020
  0
VERTEX
  8
CAM_CONTROL
 10
2.5051098
 20
6.0789282
 30
0.0000
 42
0.2690282
  0
VERTEX
  8
CAM_CONTROL
 10
2.4750657
 20
6.1003569
 30
0.0000
 42
0.0000
  0
SEQEND
  0
POLYLINE
  8
CAM_CONTROL
 66
1
 10
0.0000
 20
0.0000
 30
0.0000
 40
0.0020
 41
0.0020
  0
VERTEX
  8
CAM_CONTROL
 10
2.447173
 20
6.100357
 30
0.0000
  0
VERTEX
  8
CAM_CONTROL
 10
2.475066
 20
6.100357
 30
0.0000
  0
SEQEND
  0
POLYLINE
  8
CAM_CONTROL
 66
1
 10
0.0000
 20
0.0000
 30
0.0000
 40
0.0020
 41
0.0020
  0
VERTEX
  8
CAM_CONTROL
 10
2.447173
 20
6.000357
 30
0.0000
  0
VERTEX
  8
CAM_CONTROL
 10
2.475066
 20
6.000357
 30
0.0000
  0
SEQEND
  0
POLYLINE
  8
CAM_CONTROL
 66
1
 10
0.0000
 20
0.0000
 30
0.0000
 40
0.0020
 41
0.0020
  0
VERTEX
  8
CAM_CONTROL
 10
2.447173
 20
6.100357
 30
0.0000
  0
VERTEX
  8
CAM_CONTROL
 10
2.447173
 20
6.000357
 30
0.0000
  0
SEQEND
  0
POLYLINE
  8
CAM_CONTROL
 66
1
 10
0.0000
 20
0.0000
 30
0.0000
 40
0.0020
 41
0.0020
  0
VERTEX
  8
CAM_CONTROL
 10
2.427173
 20
6.100357
 30
0.0000
  0
VERTEX
  8
CAM_CONTROL
 10
2.412887
 20
6.100357
 30
0.0000
  0
SEQEND
  0
POLYLINE
  8
CAM_CONTROL
 66
1
 10
0.0000
 20
0.0000
 30
0.0000
 40
0.0020
 41
0.0020
  0
VERTEX
  8
CAM_CONTROL
 10
2.398602
 20
6.100357
 30
0.0000
  0
VERTEX
  8
CAM_CONTROL
 10
2.412887
 20
6.100357
 30
0.0000
  0
SEQEND
  0
POLYLINE
  8
CAM_CONTROL
 66
1
 10
0.0000
 20
0.0000
 30
0.0000
 40
0.0020
 41
0.0020
  0
VERTEX
  8
CAM_CONTROL
 10
2.427173
 20
6.000357
 30
0.0000
  0
VERTEX
  8
CAM_CONTROL
 10
2.412887
 20
6.000357
 30
0.0000
  0
SEQEND
  0
POLYLINE
  8
CAM_CONTROL
 66
1
 10
0.0000
 20
0.0000
 30
0.0000
 40
0.0020
 41
0.0020
  0
VERTEX
  8
CAM_CONTROL
 10
2.398602
 20
6.000357
 30
0.0000
  0
VERTEX
  8
CAM_CONTROL
 10
2.412887
 20
6.000357
 30
0.0000
  0
SEQEND
  0
POLYLINE
  8
CAM_CONTROL
 66
1
 10
0.0000
 20
0.0000
 30
0.0000
 40
0.0020
 41
0.0020
  0
VERTEX
  8
CAM_CONTROL
 10
2.412887
 20
6.000357
 30
0.0000
  0
VERTEX
  8
CAM_CONTROL
 10
2.412887
 20
6.100357
 30
0.0000
  0
SEQEND
  0
POLYLINE
  8
CAM_CONTROL
 66
1
 10
0.0000
 20
0.0000
 30
0.0000
 40
0.0020
 41
0.0020
  0
VERTEX
  8
CAM_CONTROL
 10
2.319959
 20
6.000357
 30
0.0000
  0
VERTEX
  8
CAM_CONTROL
 10
2.378602
 20
6.000357
 30
0.0000
  0
SEQEND
  0
POLYLINE
  8
CAM_CONTROL
 66
1
 10
0.0000
 20
0.0000
 30
0.0000
 40
0.0020
 41
0.0020
  0
VERTEX
  8
CAM_CONTROL
 10
2.319959
 20
6.100357
 30
0.0000
  0
VERTEX
  8
CAM_CONTROL
 10
2.319959
 20
6.000357
 30
0.0000
  0
SEQEND
  0
POLYLINE
  8
CAM_CONTROL
 66
1
 10
0.0000
 20
0.0000
 30
0.0000
 40
0.0020
 41
0.0020
  0
VERTEX
  8
CAM_CONTROL
 10
3.604449
 20
6.160027
 30
0.0000
  0
VERTEX
  8
CAM_CONTROL
 10
3.604449
 20
6.210027
 30
0.0000
  0
SEQEND
  0
POLYLINE
  8
CAM_CONTROL
 66
1
 10
0.0000
 20
0.0000
 30
0.0000
 40
0.0020
 41
0.0020
  0
VERTEX
  8
CAM_CONTROL
 10
3.604449
 20
6.260027
 30
0.0000
  0
VERTEX
  8
CAM_CONTROL
 10
3.604449
 20
6.210027
 30
0.0000
  0
SEQEND
  0
POLYLINE
  8
CAM_CONTROL
 66
1
 10
0.0000
 20
0.0000
 30
0.0000
 40
0.0020
 41
0.0020
  0
VERTEX
  8
CAM_CONTROL
 10
3.604449
 20
6.260027
 30
0.0000
  0
VERTEX
  8
CAM_CONTROL
 10
3.663091
 20
6.260027
 30
0.0000
  0
SEQEND
  0
POLYLINE
  8
CAM_CONTROL
 66
1
 10
0.0000
 20
0.0000
 30
0.0000
 40
0.0020
 41
0.0020
  0
VERTEX
  8
CAM_CONTROL
 10
3.604449
 20
6.160027
 30
0.0000
  0
VERTEX
  8
CAM_CONTROL
 10
3.663091
 20
6.160027
 30
0.0000
  0
SEQEND
  0
POLYLINE
  8
CAM_CONTROL
 66
1
 10
0.0000
 20
0.0000
 30
0.0000
 40
0.0020
 41
0.0020
  0
VERTEX
  8
CAM_CONTROL
 10
3.604449
 20
6.210027
 30
0.0000
  0
VERTEX
  8
CAM_CONTROL
 10
3.650234
 20
6.210027
 30
0.0000
  0
SEQEND
  0
POLYLINE
  8
CAM_CONTROL
 66
1
 10
0.0000
 20
0.0000
 30
0.0000
 40
0.0020
 41
0.0020
  0
VERTEX
  8
CAM_CONTROL
 10
3.525806
 20
6.160027
 30
0.0000
  0
VERTEX
  8
CAM_CONTROL
 10
3.584449
 20
6.160027
 30
0.0000
  0
SEQEND
  0
POLYLINE
  8
CAM_CONTROL
 66
1
 10
0.0000
 20
0.0000
 30
0.0000
 40
0.0020
 41
0.0020
  0
VERTEX
  8
CAM_CONTROL
 10
3.525806
 20
6.260027
 30
0.0000
  0
VERTEX
  8
CAM_CONTROL
 10
3.525806
 20
6.160027
 30
0.0000
  0
SEQEND
  0
POLYLINE
  8
CAM_CONTROL
 66
1
 10
0.0000
 20
0.0000
 30
0.0000
 40
0.0020
 41
0.0020
  0
VERTEX
  8
CAM_CONTROL
 10
3.4438971
 20
6.1814557
 30
0.0000
 42
0.7548959
  0
VERTEX
  8
CAM_CONTROL
 10
3.501099
 20
6.1814557
 30
0.0000
 42
0.0000
  0
SEQEND
  0
POLYLINE
  8
CAM_CONTROL
 66
1
 10
0.0000
 20
0.0000
 30
0.0000
 40
0.0020
 41
0.0020
  0
VERTEX
  8
CAM_CONTROL
 10
3.501099
 20
6.2385983
 30
0.0000
 42
0.7548959
  0
VERTEX
  8
CAM_CONTROL
 10
3.4438971
 20
6.2385983
 30
0.0000
 42
0.0000
  0
SEQEND
  0
POLYLINE
  8
CAM_CONTROL
 66
1
 10
0.0000
 20
0.0000
 30
0.0000
 40
0.0020
 41
0.0020
  0
VERTEX
  8
CAM_CONTROL
 10
3.5010991
 20
6.1814556
 30
0.0000
 42
0.1647051
  0
VERTEX
  8
CAM_CONTROL
 10
3.5010991
 20
6.2385984
 30
0.0000
 42
0.0000
  0
SEQEND
  0
POLYLINE
  8
CAM_CONTROL
 66
1
 10
0.0000
 20
0.0000
 30
0.0000
 40
0.0020
 41
0.0020
  0
VERTEX
  8
CAM_CONTROL
 10
3.4438979
 20
6.2385984
 30
0.0000
 42
0.1647051
  0
VERTEX
  8
CAM_CONTROL
 10
3.4438979
 20
6.1814556
 30
0.0000
 42
0.0000
  0
SEQEND
  0
POLYLINE
  8
CAM_CONTROL
 66
1
 10
0.0000
 20
0.0000
 30
0.0000
 40
0.0020
 41
0.0020
  0
VERTEX
  8
CAM_CONTROL
 10
3.419191
 20
6.160027
 30
0.0000
  0
VERTEX
  8
CAM_CONTROL
 10
3.419191
 20
6.210027
 30
0.0000
  0
SEQEND
  0
POLYLINE
  8
CAM_CONTROL
 66
1
 10
0.0000
 20
0.0000
 30
0.0000
 40
0.0020
 41
0.0020
  0
VERTEX
  8
CAM_CONTROL
 10
3.419191
 20
6.260027
 30
0.0000
  0
VERTEX
  8
CAM_CONTROL
 10
3.419191
 20
6.210027
 30
0.0000
  0
SEQEND
  0
POLYLINE
  8
CAM_CONTROL
 66
1
 10
0.0000
 20
0.0000
 30
0.0000
 40
0.0020
 41
0.0020
  0
VERTEX
  8
CAM_CONTROL
 10
3.358477
 20
6.160027
 30
0.0000
  0
VERTEX
  8
CAM_CONTROL
 10
3.358477
 20
6.210027
 30
0.0000
  0
SEQEND
  0
POLYLINE
  8
CAM_CONTROL
 66
1
 10
0.0000
 20
0.0000
 30
0.0000
 40
0.0020
 41
0.0020
  0
VERTEX
  8
CAM_CONTROL
 10
3.358477
 20
6.260027
 30
0.0000
  0
VERTEX
  8
CAM_CONTROL
 10
3.358477
 20
6.210027
 30
0.0000
  0
SEQEND
  0
POLYLINE
  8
CAM_CONTROL
 66
1
 10
0.0000
 20
0.0000
 30
0.0000
 40
0.0020
 41
0.0020
  0
VERTEX
  8
CAM_CONTROL
 10
3.358477
 20
6.210027
 30
0.0000
  0
VERTEX
  8
CAM_CONTROL
 10
3.419191
 20
6.210027
 30
0.0000
  0
SEQEND
  0
POLYLINE
  8
CAM_CONTROL
 66
1
 10
0.0000
 20
0.0000
 30
0.0000
 40
0.0020
 41
0.0020
  0
VERTEX
  8
CAM_CONTROL
 10
3.338477
 20
6.210027
 30
0.0000
  0
VERTEX
  8
CAM_CONTROL
 10
3.281334
 20
6.210027
 30
0.0000
  0
SEQEND
  0
POLYLINE
  8
CAM_CONTROL
 66
1
 10
0.0000
 20
0.0000
 30
0.0000
 40
0.0020
 41
0.0020
  0
VERTEX
  8
CAM_CONTROL
 10
3.2027631
 20
6.1885986
 30
0.0000
 42
1.0098035
  0
VERTEX
  8
CAM_CONTROL
 10
3.2613339
 20
6.1893128
 30
0.0000
 42
0.0000
  0
SEQEND
  0
POLYLINE
  8
CAM_CONTROL
 66
1
 10
0.0000
 20
0.0000
 30
0.0000
 40
0.0020
 41
0.0020
  0
VERTEX
  8
CAM_CONTROL
 10
3.261334
 20
6.260027
 30
0.0000
  0
VERTEX
  8
CAM_CONTROL
 10
3.261334
 20
6.189313
 30
0.0000
  0
SEQEND
  0
POLYLINE
  8
CAM_CONTROL
 66
1
 10
0.0000
 20
0.0000
 30
0.0000
 40
0.0020
 41
0.0020
  0
VERTEX
  8
CAM_CONTROL
 10
3.202763
 20
6.260027
 30
0.0000
  0
VERTEX
  8
CAM_CONTROL
 10
3.202763
 20
6.188598
 30
0.0000
  0
SEQEND
  0
POLYLINE
  8
CAM_CONTROL
 66
1
 10
0.0000
 20
0.0000
 30
0.0000
 40
0.0020
 41
0.0020
  0
VERTEX
  8
CAM_CONTROL
 10
3.157759
 20
6.210027
 30
0.0000
  0
VERTEX
  8
CAM_CONTROL
 10
3.182763
 20
6.160027
 30
0.0000
  0
SEQEND
  0
POLYLINE
  8
CAM_CONTROL
 66
1
 10
0.0000
 20
0.0000
 30
0.0000
 40
0.0020
 41
0.0020
  0
VERTEX
  8
CAM_CONTROL
 10
3.1577591
 20
6.210027
 30
0.0000
 42
1.0000771
  0
VERTEX
  8
CAM_CONTROL
 10
3.157763
 20
6.260027
 30
0.0000
 42
0.0000
  0
SEQEND
  0
POLYLINE
  8
CAM_CONTROL
 66
1
 10
0.0000
 20
0.0000
 30
0.0000
 40
0.0020
 41
0.0020
  0
VERTEX
  8
CAM_CONTROL
 10
3.121477
 20
6.260027
 30
0.0000
  0
VERTEX
  8
CAM_CONTROL
 10
3.121477
 20
6.210027
 30
0.0000
  0
SEQEND
  0
POLYLINE
  8
CAM_CONTROL
 66
1
 10
0.0000
 20
0.0000
 30
0.0000
 40
0.0020
 41
0.0020
  0
VERTEX
  8
CAM_CONTROL
 10
3.121477
 20
6.160027
 30
0.0000
  0
VERTEX
  8
CAM_CONTROL
 10
3.121477
 20
6.210027
 30
0.0000
  0
SEQEND
  0
POLYLINE
  8
CAM_CONTROL
 66
1
 10
0.0000
 20
0.0000
 30
0.0000
 40
0.0020
 41
0.0020
  0
VERTEX
  8
CAM_CONTROL
 10
3.121477
 20
6.260027
 30
0.0000
  0
VERTEX
  8
CAM_CONTROL
 10
3.157763
 20
6.260027
 30
0.0000
  0
SEQEND
  0
POLYLINE
  8
CAM_CONTROL
 66
1
 10
0.0000
 20
0.0000
 30
0.0000
 40
0.0020
 41
0.0020
  0
VERTEX
  8
CAM_CONTROL
 10
3.121477
 20
6.210027
 30
0.0000
  0
VERTEX
  8
CAM_CONTROL
 10
3.157759
 20
6.210027
 30
0.0000
  0
SEQEND
  0
POLYLINE
  8
CAM_CONTROL
 66
1
 10
0.0000
 20
0.0000
 30
0.0000
 40
0.0020
 41
0.0020
  0
VERTEX
  8
CAM_CONTROL
 10
3.101477
 20
6.160027
 30
0.0000
  0
VERTEX
  8
CAM_CONTROL
 10
3.101477
 20
6.210027
 30
0.0000
  0
SEQEND
  0
POLYLINE
  8
CAM_CONTROL
 66
1
 10
0.0000
 20
0.0000
 30
0.0000
 40
0.0020
 41
0.0020
  0
VERTEX
  8
CAM_CONTROL
 10
3.101477
 20
6.260027
 30
0.0000
  0
VERTEX
  8
CAM_CONTROL
 10
3.101477
 20
6.210027
 30
0.0000
  0
SEQEND
  0
POLYLINE
  8
CAM_CONTROL
 66
1
 10
0.0000
 20
0.0000
 30
0.0000
 40
0.0020
 41
0.0020
  0
VERTEX
  8
CAM_CONTROL
 10
3.040763
 20
6.160027
 30
0.0000
  0
VERTEX
  8
CAM_CONTROL
 10
3.040763
 20
6.210027
 30
0.0000
  0
SEQEND
  0
POLYLINE
  8
CAM_CONTROL
 66
1
 10
0.0000
 20
0.0000
 30
0.0000
 40
0.0020
 41
0.0020
  0
VERTEX
  8
CAM_CONTROL
 10
3.040763
 20
6.260027
 30
0.0000
  0
VERTEX
  8
CAM_CONTROL
 10
3.040763
 20
6.210027
 30
0.0000
  0
SEQEND
  0
POLYLINE
  8
CAM_CONTROL
 66
1
 10
0.0000
 20
0.0000
 30
0.0000
 40
0.0020
 41
0.0020
  0
VERTEX
  8
CAM_CONTROL
 10
3.040763
 20
6.210027
 30
0.0000
  0
VERTEX
  8
CAM_CONTROL
 10
3.101477
 20
6.210027
 30
0.0000
  0
SEQEND
  0
POLYLINE
  8
CAM_CONTROL
 66
1
 10
0.0000
 20
0.0000
 30
0.0000
 40
0.0020
 41
0.0020
  0
VERTEX
  8
CAM_CONTROL
 10
2.988799
 20
6.260027
 30
0.0000
  0
VERTEX
  8
CAM_CONTROL
 10
3.020763
 20
6.260027
 30
0.0000
  0
SEQEND
  0
POLYLINE
  8
CAM_CONTROL
 66
1
 10
0.0000
 20
0.0000
 30
0.0000
 40
0.0020
 41
0.0020
  0
VERTEX
  8
CAM_CONTROL
 10
2.988799
 20
6.160027
 30
0.0000
  0
VERTEX
  8
CAM_CONTROL
 10
2.988799
 20
6.260027
 30
0.0000
  0
SEQEND
  0
POLYLINE
  8
CAM_CONTROL
 66
1
 10
0.0000
 20
0.0000
 30
0.0000
 40
0.0020
 41
0.0020
  0
VERTEX
  8
CAM_CONTROL
 10
2.956834
 20
6.260027
 30
0.0000
  0
VERTEX
  8
CAM_CONTROL
 10
2.988799
 20
6.260027
 30
0.0000
  0
SEQEND
  0
POLYLINE
  8
CAM_CONTROL
 66
1
 10
0.0000
 20
0.0000
 30
0.0000
 40
0.0020
 41
0.0020
  0
VERTEX
  8
CAM_CONTROL
 10
2.826477
 20
6.213598
 30
0.0000
  0
VERTEX
  8
CAM_CONTROL
 10
2.832906
 20
6.213598
 30
0.0000
  0
SEQEND
  0
POLYLINE
  8
CAM_CONTROL
 66
1
 10
0.0000
 20
0.0000
 30
0.0000
 40
0.0020
 41
0.0020
  0
VERTEX
  8
CAM_CONTROL
 10
2.826477
 20
6.160027
 30
0.0000
  0
VERTEX
  8
CAM_CONTROL
 10
2.832906
 20
6.160027
 30
0.0000
  0
SEQEND
  0
POLYLINE
  8
CAM_CONTROL
 66
1
 10
0.0000
 20
0.0000
 30
0.0000
 40
0.0020
 41
0.0020
  0
VERTEX
  8
CAM_CONTROL
 10
2.826477
 20
6.260027
 30
0.0000
  0
VERTEX
  8
CAM_CONTROL
 10
2.832906
 20
6.260027
 30
0.0000
  0
SEQEND
  0
POLYLINE
  8
CAM_CONTROL
 66
1
 10
0.0000
 20
0.0000
 30
0.0000
 40
0.0020
 41
0.0020
  0
VERTEX
  8
CAM_CONTROL
 10
2.832906
 20
6.160027
 30
0.0000
 42
0.4142136
  0
VERTEX
  8
CAM_CONTROL
 10
2.859692
 20
6.186813
 30
0.0000
 42
0.0000
  0
SEQEND
  0
POLYLINE
  8
CAM_CONTROL
 66
1
 10
0.0000
 20
0.0000
 30
0.0000
 40
0.0020
 41
0.0020
  0
VERTEX
  8
CAM_CONTROL
 10
2.85612
 20
6.236813
 30
0.0000
 42
0.4142136
  0
VERTEX
  8
CAM_CONTROL
 10
2.832906
 20
6.260027
 30
0.0000
 42
0.0000
  0
SEQEND
  0
POLYLINE
  8
CAM_CONTROL
 66
1
 10
0.0000
 20
0.0000
 30
0.0000
 40
0.0020
 41
0.0020
  0
VERTEX
  8
CAM_CONTROL
 10
2.859692
 20
6.186813
 30
0.0000
 42
0.4142136
  0
VERTEX
  8
CAM_CONTROL
 10
2.832906
 20
6.213599
 30
0.0000
 42
0.0000
  0
SEQEND
  0
POLYLINE
  8
CAM_CONTROL
 66
1
 10
0.0000
 20
0.0000
 30
0.0000
 40
0.0020
 41
0.0020
  0
VERTEX
  8
CAM_CONTROL
 10
2.832906
 20
6.213599
 30
0.0000
 42
0.4142136
  0
VERTEX
  8
CAM_CONTROL
 10
2.85612
 20
6.236813
 30
0.0000
 42
0.0000
  0
SEQEND
  0
POLYLINE
  8
CAM_CONTROL
 66
1
 10
0.0000
 20
0.0000
 30
0.0000
 40
0.0020
 41
0.0020
  0
VERTEX
  8
CAM_CONTROL
 10
2.826477
 20
6.260027
 30
0.0000
 42
0.1207881
  0
VERTEX
  8
CAM_CONTROL
 10
2.8157403
 20
6.2573949
 30
0.0000
 42
0.0000
  0
SEQEND
  0
POLYLINE
  8
CAM_CONTROL
 66
1
 10
0.0000
 20
0.0000
 30
0.0000
 40
0.0020
 41
0.0020
  0
VERTEX
  8
CAM_CONTROL
 10
2.8157403
 20
6.2573949
 30
0.0000
 42
0.7844587
  0
VERTEX
  8
CAM_CONTROL
 10
2.826477
 20
6.213599
 30
0.0000
 42
0.0000
  0
SEQEND
  0
POLYLINE
  8
CAM_CONTROL
 66
1
 10
0.0000
 20
0.0000
 30
0.0000
 40
0.0020
 41
0.0020
  0
VERTEX
  8
CAM_CONTROL
 10
2.8044513
 20
6.1715698
 30
0.0000
 42
0.2461524
  0
VERTEX
  8
CAM_CONTROL
 10
2.826477
 20
6.160027
 30
0.0000
 42
0.0000
  0
SEQEND
  0
POLYLINE
  8
CAM_CONTROL
 66
1
 10
0.0000
 20
0.0000
 30
0.0000
 40
0.0020
 41
0.0020
  0
VERTEX
  8
CAM_CONTROL
 10
2.826477
 20
6.213599
 30
0.0000
 42
0.6049402
  0
VERTEX
  8
CAM_CONTROL
 10
2.8044513
 20
6.1715698
 30
0.0000
 42
0.0000
  0
SEQEND
  0
POLYLINE
  8
CAM_CONTROL
 66
1
 10
0.0000
 20
0.0000
 30
0.0000
 40
0.0020
 41
0.0020
  0
VERTEX
  8
CAM_CONTROL
 10
2.718766
 20
6.2394287
 30
0.0000
 42
1.3206513
  0
VERTEX
  8
CAM_CONTROL
 10
2.7759324
 20
6.2374325
 30
0.0000
 42
0.0000
  0
SEQEND
  0
POLYLINE
  8
CAM_CONTROL
 66
1
 10
0.0000
 20
0.0000
 30
0.0000
 40
0.0020
 41
0.0020
  0
VERTEX
  8
CAM_CONTROL
 10
2.7759319
 20
6.2374331
 30
0.0000
 42
0.7548967
  0
VERTEX
  8
CAM_CONTROL
 10
2.7187649
 20
6.2394294
 30
0.0000
 42
0.0000
  0
SEQEND
  0
POLYLINE
  8
CAM_CONTROL
 66
1
 10
0.0000
 20
0.0000
 30
0.0000
 40
0.0020
 41
0.0020
  0
VERTEX
  8
CAM_CONTROL
 10
2.7197065
 20
6.1749089
 30
0.0000
 42
0.6543233
  0
VERTEX
  8
CAM_CONTROL
 10
2.7739381
 20
6.1803246
 30
0.0000
 42
0.0000
  0
SEQEND
  0
POLYLINE
  8
CAM_CONTROL
 66
1
 10
0.0000
 20
0.0000
 30
0.0000
 40
0.0020
 41
0.0020
  0
VERTEX
  8
CAM_CONTROL
 10
2.7739376
 20
6.1803251
 30
0.0000
 42
0.1647051
  0
VERTEX
  8
CAM_CONTROL
 10
2.7759319
 20
6.2374331
 30
0.0000
 42
0.0000
  0
SEQEND
  0
POLYLINE
  8
CAM_CONTROL
 66
1
 10
0.0000
 20
0.0000
 30
0.0000
 40
0.0020
 41
0.0020
  0
VERTEX
  8
CAM_CONTROL
 10
2.6914787
 20
6.1763394
 30
0.0000
 42
0.1761558
  0
VERTEX
  8
CAM_CONTROL
 10
2.6914787
 20
6.2437146
 30
0.0000
 42
0.0000
  0
SEQEND
  0
POLYLINE
  8
CAM_CONTROL
 66
1
 10
0.0000
 20
0.0000
 30
0.0000
 40
0.0020
 41
0.0020
  0
VERTEX
  8
CAM_CONTROL
 10
2.6447763
 20
6.2437146
 30
0.0000
 42
0.1761558
  0
VERTEX
  8
CAM_CONTROL
 10
2.6447763
 20
6.1763394
 30
0.0000
 42
0.0000
  0
SEQEND
  0
POLYLINE
  8
CAM_CONTROL
 66
1
 10
0.0000
 20
0.0000
 30
0.0000
 40
0.0020
 41
0.0020
  0
VERTEX
  8
CAM_CONTROL
 10
2.6914787
 20
6.2437144
 30
0.0000
 42
0.7054995
  0
VERTEX
  8
CAM_CONTROL
 10
2.6447754
 20
6.2437144
 30
0.0000
 42
0.0000
  0
SEQEND
  0
POLYLINE
  8
CAM_CONTROL
 66
1
 10
0.0000
 20
0.0000
 30
0.0000
 40
0.0020
 41
0.0020
  0
VERTEX
  8
CAM_CONTROL
 10
2.6447754
 20
6.1763386
 30
0.0000
 42
0.7054995
  0
VERTEX
  8
CAM_CONTROL
 10
2.6914787
 20
6.1763386
 30
0.0000
 42
0.0000
  0
SEQEND
  0
POLYLINE
  8
CAM_CONTROL
 66
1
 10
0.0000
 20
0.0000
 30
0.0000
 40
0.0020
 41
0.0020
  0
VERTEX
  8
CAM_CONTROL
 10
2.608841
 20
6.165027
 30
0.0000
 42
1.0000
  0
VERTEX
  8
CAM_CONTROL
 10
2.618841
 20
6.165027
 30
0.0000
 42
0.0000
  0
SEQEND
  0
POLYLINE
  8
CAM_CONTROL
 66
1
 10
0.0000
 20
0.0000
 30
0.0000
 40
0.0020
 41
0.0020
  0
VERTEX
  8
CAM_CONTROL
 10
2.618841
 20
6.165027
 30
0.0000
 42
1.0000
  0
VERTEX
  8
CAM_CONTROL
 10
2.608841
 20
6.165027
 30
0.0000
 42
0.0000
  0
SEQEND
  0
POLYLINE
  8
CAM_CONTROL
 66
1
 10
0.0000
 20
0.0000
 30
0.0000
 40
0.0020
 41
0.0020
  0
VERTEX
  8
CAM_CONTROL
 10
2.5829067
 20
6.1763394
 30
0.0000
 42
0.1761559
  0
VERTEX
  8
CAM_CONTROL
 10
2.5829067
 20
6.2437146
 30
0.0000
 42
0.0000
  0
SEQEND
  0
POLYLINE
  8
CAM_CONTROL
 66
1
 10
0.0000
 20
0.0000
 30
0.0000
 40
0.0020
 41
0.0020
  0
VERTEX
  8
CAM_CONTROL
 10
2.5362043
 20
6.2437146
 30
0.0000
 42
0.1761558
  0
VERTEX
  8
CAM_CONTROL
 10
2.5362043
 20
6.1763394
 30
0.0000
 42
0.0000
  0
SEQEND
  0
POLYLINE
  8
CAM_CONTROL
 66
1
 10
0.0000
 20
0.0000
 30
0.0000
 40
0.0020
 41
0.0020
  0
VERTEX
  8
CAM_CONTROL
 10
2.5829076
 20
6.2437144
 30
0.0000
 42
0.7054995
  0
VERTEX
  8
CAM_CONTROL
 10
2.5362043
 20
6.2437144
 30
0.0000
 42
0.0000
  0
SEQEND
  0
POLYLINE
  8
CAM_CONTROL
 66
1
 10
0.0000
 20
0.0000
 30
0.0000
 40
0.0020
 41
0.0020
  0
VERTEX
  8
CAM_CONTROL
 10
2.5362043
 20
6.1763386
 30
0.0000
 42
0.7054995
  0
VERTEX
  8
CAM_CONTROL
 10
2.5829076
 20
6.1763386
 30
0.0000
 42
0.0000
  0
SEQEND
  0
POLYLINE
  8
CAM_CONTROL
 66
1
 10
0.0000
 20
0.0000
 30
0.0000
 40
0.0020
 41
0.0020
  0
VERTEX
  8
CAM_CONTROL
 10
2.411699
 20
6.231455
 30
0.0000
 42
0.9999963
  0
VERTEX
  8
CAM_CONTROL
 10
2.433127
 20
6.231455
 30
0.0000
 42
0.0000
  0
SEQEND
  0
POLYLINE
  8
CAM_CONTROL
 66
1
 10
0.0000
 20
0.0000
 30
0.0000
 40
0.0020
 41
0.0020
  0
VERTEX
  8
CAM_CONTROL
 10
2.433127
 20
6.231455
 30
0.0000
 42
1.0000037
  0
VERTEX
  8
CAM_CONTROL
 10
2.411699
 20
6.231455
 30
0.0000
 42
0.0000
  0
SEQEND
  0
POLYLINE
  8
CAM_CONTROL
 66
1
 10
0.0000
 20
0.0000
 30
0.0000
 40
0.0020
 41
0.0020
  0
VERTEX
  8
CAM_CONTROL
 10
2.411699
 20
6.188598
 30
0.0000
 42
1.0000
  0
VERTEX
  8
CAM_CONTROL
 10
2.433127
 20
6.188598
 30
0.0000
 42
0.0000
  0
SEQEND
  0
POLYLINE
  8
CAM_CONTROL
 66
1
 10
0.0000
 20
0.0000
 30
0.0000
 40
0.0020
 41
0.0020
  0
VERTEX
  8
CAM_CONTROL
 10
2.433127
 20
6.188598
 30
0.0000
 42
1.0000
  0
VERTEX
  8
CAM_CONTROL
 10
2.411699
 20
6.188598
 30
0.0000
 42
0.0000
  0
SEQEND
  0
POLYLINE
  8
CAM_CONTROL
 66
1
 10
0.0000
 20
0.0000
 30
0.0000
 40
0.0020
 41
0.0020
  0
VERTEX
  8
CAM_CONTROL
 10
2.383663
 20
6.181455
 30
0.0000
  0
VERTEX
  8
CAM_CONTROL
 10
2.391699
 20
6.160027
 30
0.0000
  0
SEQEND
  0
POLYLINE
  8
CAM_CONTROL
 66
1
 10
0.0000
 20
0.0000
 30
0.0000
 40
0.0020
 41
0.0020
  0
VERTEX
  8
CAM_CONTROL
 10
2.324734
 20
6.181455
 30
0.0000
  0
VERTEX
  8
CAM_CONTROL
 10
2.354199
 20
6.260027
 30
0.0000
  0
SEQEND
  0
POLYLINE
  8
CAM_CONTROL
 66
1
 10
0.0000
 20
0.0000
 30
0.0000
 40
0.0020
 41
0.0020
  0
VERTEX
  8
CAM_CONTROL
 10
2.354199
 20
6.260027
 30
0.0000
  0
VERTEX
  8
CAM_CONTROL
 10
2.383663
 20
6.181455
 30
0.0000
  0
SEQEND
  0
POLYLINE
  8
CAM_CONTROL
 66
1
 10
0.0000
 20
0.0000
 30
0.0000
 40
0.0020
 41
0.0020
  0
VERTEX
  8
CAM_CONTROL
 10
2.316699
 20
6.160027
 30
0.0000
  0
VERTEX
  8
CAM_CONTROL
 10
2.324734
 20
6.181455
 30
0.0000
  0
SEQEND
  0
POLYLINE
  8
CAM_CONTROL
 66
1
 10
0.0000
 20
0.0000
 30
0.0000
 40
0.0020
 41
0.0020
  0
VERTEX
  8
CAM_CONTROL
 10
2.324734
 20
6.181455
 30
0.0000
  0
VERTEX
  8
CAM_CONTROL
 10
2.383663
 20
6.181455
 30
0.0000
  0
SEQEND
  0
POLYLINE
  8
CAM_CONTROL
 66
1
 10
0.0000
 20
0.0000
 30
0.0000
 40
0.0020
 41
0.0020
  0
VERTEX
  8
CAM_CONTROL
 10
3.57482
 20
6.312036
 30
0.0000
  0
VERTEX
  8
CAM_CONTROL
 10
3.57482
 20
6.362036
 30
0.0000
  0
SEQEND
  0
POLYLINE
  8
CAM_CONTROL
 66
1
 10
0.0000
 20
0.0000
 30
0.0000
 40
0.0020
 41
0.0020
  0
VERTEX
  8
CAM_CONTROL
 10
3.57482
 20
6.412036
 30
0.0000
  0
VERTEX
  8
CAM_CONTROL
 10
3.57482
 20
6.362036
 30
0.0000
  0
SEQEND
  0
POLYLINE
  8
CAM_CONTROL
 66
1
 10
0.0000
 20
0.0000
 30
0.0000
 40
0.0020
 41
0.0020
  0
VERTEX
  8
CAM_CONTROL
 10
3.57482
 20
6.412036
 30
0.0000
  0
VERTEX
  8
CAM_CONTROL
 10
3.633463
 20
6.412036
 30
0.0000
  0
SEQEND
  0
POLYLINE
  8
CAM_CONTROL
 66
1
 10
0.0000
 20
0.0000
 30
0.0000
 40
0.0020
 41
0.0020
  0
VERTEX
  8
CAM_CONTROL
 10
3.57482
 20
6.312036
 30
0.0000
  0
VERTEX
  8
CAM_CONTROL
 10
3.633463
 20
6.312036
 30
0.0000
  0
SEQEND
  0
POLYLINE
  8
CAM_CONTROL
 66
1
 10
0.0000
 20
0.0000
 30
0.0000
 40
0.0020
 41
0.0020
  0
VERTEX
  8
CAM_CONTROL
 10
3.57482
 20
6.362036
 30
0.0000
  0
VERTEX
  8
CAM_CONTROL
 10
3.620605
 20
6.362036
 30
0.0000
  0
SEQEND
  0
POLYLINE
  8
CAM_CONTROL
 66
1
 10
0.0000
 20
0.0000
 30
0.0000
 40
0.0020
 41
0.0020
  0
VERTEX
  8
CAM_CONTROL
 10
3.496177
 20
6.312036
 30
0.0000
  0
VERTEX
  8
CAM_CONTROL
 10
3.55482
 20
6.312036
 30
0.0000
  0
SEQEND
  0
POLYLINE
  8
CAM_CONTROL
 66
1
 10
0.0000
 20
0.0000
 30
0.0000
 40
0.0020
 41
0.0020
  0
VERTEX
  8
CAM_CONTROL
 10
3.496177
 20
6.412036
 30
0.0000
  0
VERTEX
  8
CAM_CONTROL
 10
3.496177
 20
6.312036
 30
0.0000
  0
SEQEND
  0
POLYLINE
  8
CAM_CONTROL
 66
1
 10
0.0000
 20
0.0000
 30
0.0000
 40
0.0020
 41
0.0020
  0
VERTEX
  8
CAM_CONTROL
 10
3.414268
 20
6.3334637
 30
0.0000
 42
0.7548959
  0
VERTEX
  8
CAM_CONTROL
 10
3.4714699
 20
6.3334637
 30
0.0000
 42
0.0000
  0
SEQEND
  0
POLYLINE
  8
CAM_CONTROL
 66
1
 10
0.0000
 20
0.0000
 30
0.0000
 40
0.0020
 41
0.0020
  0
VERTEX
  8
CAM_CONTROL
 10
3.4714699
 20
6.3906072
 30
0.0000
 42
0.7548959
  0
VERTEX
  8
CAM_CONTROL
 10
3.414268
 20
6.3906072
 30
0.0000
 42
0.0000
  0
SEQEND
  0
POLYLINE
  8
CAM_CONTROL
 66
1
 10
0.0000
 20
0.0000
 30
0.0000
 40
0.0020
 41
0.0020
  0
VERTEX
  8
CAM_CONTROL
 10
3.4714702
 20
6.3334646
 30
0.0000
 42
0.1647051
  0
VERTEX
  8
CAM_CONTROL
 10
3.4714702
 20
6.3906074
 30
0.0000
 42
0.0000
  0
SEQEND
  0
POLYLINE
  8
CAM_CONTROL
 66
1
 10
0.0000
 20
0.0000
 30
0.0000
 40
0.0020
 41
0.0020
  0
VERTEX
  8
CAM_CONTROL
 10
3.4142688
 20
6.3906074
 30
0.0000
 42
0.1647051
  0
VERTEX
  8
CAM_CONTROL
 10
3.4142689
 20
6.3334646
 30
0.0000
 42
0.0000
  0
SEQEND
  0
POLYLINE
  8
CAM_CONTROL
 66
1
 10
0.0000
 20
0.0000
 30
0.0000
 40
0.0020
 41
0.0020
  0
VERTEX
  8
CAM_CONTROL
 10
3.389563
 20
6.312036
 30
0.0000
  0
VERTEX
  8
CAM_CONTROL
 10
3.389563
 20
6.362036
 30
0.0000
  0
SEQEND
  0
POLYLINE
  8
CAM_CONTROL
 66
1
 10
0.0000
 20
0.0000
 30
0.0000
 40
0.0020
 41
0.0020
  0
VERTEX
  8
CAM_CONTROL
 10
3.389563
 20
6.412036
 30
0.0000
  0
VERTEX
  8
CAM_CONTROL
 10
3.389563
 20
6.362036
 30
0.0000
  0
SEQEND
  0
POLYLINE
  8
CAM_CONTROL
 66
1
 10
0.0000
 20
0.0000
 30
0.0000
 40
0.0020
 41
0.0020
  0
VERTEX
  8
CAM_CONTROL
 10
3.328848
 20
6.312036
 30
0.0000
  0
VERTEX
  8
CAM_CONTROL
 10
3.328848
 20
6.362036
 30
0.0000
  0
SEQEND
  0
POLYLINE
  8
CAM_CONTROL
 66
1
 10
0.0000
 20
0.0000
 30
0.0000
 40
0.0020
 41
0.0020
  0
VERTEX
  8
CAM_CONTROL
 10
3.328848
 20
6.412036
 30
0.0000
  0
VERTEX
  8
CAM_CONTROL
 10
3.328848
 20
6.362036
 30
0.0000
  0
SEQEND
  0
POLYLINE
  8
CAM_CONTROL
 66
1
 10
0.0000
 20
0.0000
 30
0.0000
 40
0.0020
 41
0.0020
  0
VERTEX
  8
CAM_CONTROL
 10
3.328848
 20
6.362036
 30
0.0000
  0
VERTEX
  8
CAM_CONTROL
 10
3.389563
 20
6.362036
 30
0.0000
  0
SEQEND
  0
POLYLINE
  8
CAM_CONTROL
 66
1
 10
0.0000
 20
0.0000
 30
0.0000
 40
0.0020
 41
0.0020
  0
VERTEX
  8
CAM_CONTROL
 10
3.308848
 20
6.362036
 30
0.0000
  0
VERTEX
  8
CAM_CONTROL
 10
3.251705
 20
6.362036
 30
0.0000
  0
SEQEND
  0
POLYLINE
  8
CAM_CONTROL
 66
1
 10
0.0000
 20
0.0000
 30
0.0000
 40
0.0020
 41
0.0020
  0
VERTEX
  8
CAM_CONTROL
 10
3.1731341
 20
6.3406065
 30
0.0000
 42
1.0098022
  0
VERTEX
  8
CAM_CONTROL
 10
3.231705
 20
6.3413209
 30
0.0000
 42
0.0000
  0
SEQEND
  0
POLYLINE
  8
CAM_CONTROL
 66
1
 10
0.0000
 20
0.0000
 30
0.0000
 40
0.0020
 41
0.0020
  0
VERTEX
  8
CAM_CONTROL
 10
3.231705
 20
6.412036
 30
0.0000
  0
VERTEX
  8
CAM_CONTROL
 10
3.231705
 20
6.341321
 30
0.0000
  0
SEQEND
  0
POLYLINE
  8
CAM_CONTROL
 66
1
 10
0.0000
 20
0.0000
 30
0.0000
 40
0.0020
 41
0.0020
  0
VERTEX
  8
CAM_CONTROL
 10
3.173134
 20
6.412036
 30
0.0000
  0
VERTEX
  8
CAM_CONTROL
 10
3.173134
 20
6.340607
 30
0.0000
  0
SEQEND
  0
POLYLINE
  8
CAM_CONTROL
 66
1
 10
0.0000
 20
0.0000
 30
0.0000
 40
0.0020
 41
0.0020
  0
VERTEX
  8
CAM_CONTROL
 10
3.12813
 20
6.362036
 30
0.0000
  0
VERTEX
  8
CAM_CONTROL
 10
3.153134
 20
6.312036
 30
0.0000
  0
SEQEND
  0
POLYLINE
  8
CAM_CONTROL
 66
1
 10
0.0000
 20
0.0000
 30
0.0000
 40
0.0020
 41
0.0020
  0
VERTEX
  8
CAM_CONTROL
 10
3.1281302
 20
6.362036
 30
0.0000
 42
1.0000771
  0
VERTEX
  8
CAM_CONTROL
 10
3.128134
 20
6.412036
 30
0.0000
 42
0.0000
  0
SEQEND
  0
POLYLINE
  8
CAM_CONTROL
 66
1
 10
0.0000
 20
0.0000
 30
0.0000
 40
0.0020
 41
0.0020
  0
VERTEX
  8
CAM_CONTROL
 10
3.091848
 20
6.412036
 30
0.0000
  0
VERTEX
  8
CAM_CONTROL
 10
3.091848
 20
6.362036
 30
0.0000
  0
SEQEND
  0
POLYLINE
  8
CAM_CONTROL
 66
1
 10
0.0000
 20
0.0000
 30
0.0000
 40
0.0020
 41
0.0020
  0
VERTEX
  8
CAM_CONTROL
 10
3.091848
 20
6.312036
 30
0.0000
  0
VERTEX
  8
CAM_CONTROL
 10
3.091848
 20
6.362036
 30
0.0000
  0
SEQEND
  0
POLYLINE
  8
CAM_CONTROL
 66
1
 10
0.0000
 20
0.0000
 30
0.0000
 40
0.0020
 41
0.0020
  0
VERTEX
  8
CAM_CONTROL
 10
3.091848
 20
6.412036
 30
0.0000
  0
VERTEX
  8
CAM_CONTROL
 10
3.128134
 20
6.412036
 30
0.0000
  0
SEQEND
  0
POLYLINE
  8
CAM_CONTROL
 66
1
 10
0.0000
 20
0.0000
 30
0.0000
 40
0.0020
 41
0.0020
  0
VERTEX
  8
CAM_CONTROL
 10
3.091848
 20
6.362036
 30
0.0000
  0
VERTEX
  8
CAM_CONTROL
 10
3.12813
 20
6.362036
 30
0.0000
  0
SEQEND
  0
POLYLINE
  8
CAM_CONTROL
 66
1
 10
0.0000
 20
0.0000
 30
0.0000
 40
0.0020
 41
0.0020
  0
VERTEX
  8
CAM_CONTROL
 10
3.071848
 20
6.312036
 30
0.0000
  0
VERTEX
  8
CAM_CONTROL
 10
3.071848
 20
6.362036
 30
0.0000
  0
SEQEND
  0
POLYLINE
  8
CAM_CONTROL
 66
1
 10
0.0000
 20
0.0000
 30
0.0000
 40
0.0020
 41
0.0020
  0
VERTEX
  8
CAM_CONTROL
 10
3.071848
 20
6.412036
 30
0.0000
  0
VERTEX
  8
CAM_CONTROL
 10
3.071848
 20
6.362036
 30
0.0000
  0
SEQEND
  0
POLYLINE
  8
CAM_CONTROL
 66
1
 10
0.0000
 20
0.0000
 30
0.0000
 40
0.0020
 41
0.0020
  0
VERTEX
  8
CAM_CONTROL
 10
3.011134
 20
6.312036
 30
0.0000
  0
VERTEX
  8
CAM_CONTROL
 10
3.011134
 20
6.362036
 30
0.0000
  0
SEQEND
  0
POLYLINE
  8
CAM_CONTROL
 66
1
 10
0.0000
 20
0.0000
 30
0.0000
 40
0.0020
 41
0.0020
  0
VERTEX
  8
CAM_CONTROL
 10
3.011134
 20
6.412036
 30
0.0000
  0
VERTEX
  8
CAM_CONTROL
 10
3.011134
 20
6.362036
 30
0.0000
  0
SEQEND
  0
POLYLINE
  8
CAM_CONTROL
 66
1
 10
0.0000
 20
0.0000
 30
0.0000
 40
0.0020
 41
0.0020
  0
VERTEX
  8
CAM_CONTROL
 10
3.011134
 20
6.362036
 30
0.0000
  0
VERTEX
  8
CAM_CONTROL
 10
3.071848
 20
6.362036
 30
0.0000
  0
SEQEND
  0
POLYLINE
  8
CAM_CONTROL
 66
1
 10
0.0000
 20
0.0000
 30
0.0000
 40
0.0020
 41
0.0020
  0
VERTEX
  8
CAM_CONTROL
 10
2.95917
 20
6.412036
 30
0.0000
  0
VERTEX
  8
CAM_CONTROL
 10
2.991134
 20
6.412036
 30
0.0000
  0
SEQEND
  0
POLYLINE
  8
CAM_CONTROL
 66
1
 10
0.0000
 20
0.0000
 30
0.0000
 40
0.0020
 41
0.0020
  0
VERTEX
  8
CAM_CONTROL
 10
2.95917
 20
6.312036
 30
0.0000
  0
VERTEX
  8
CAM_CONTROL
 10
2.95917
 20
6.412036
 30
0.0000
  0
SEQEND
  0
POLYLINE
  8
CAM_CONTROL
 66
1
 10
0.0000
 20
0.0000
 30
0.0000
 40
0.0020
 41
0.0020
  0
VERTEX
  8
CAM_CONTROL
 10
2.927205
 20
6.412036
 30
0.0000
  0
VERTEX
  8
CAM_CONTROL
 10
2.95917
 20
6.412036
 30
0.0000
  0
SEQEND
  0
POLYLINE
  8
CAM_CONTROL
 66
1
 10
0.0000
 20
0.0000
 30
0.0000
 40
0.0020
 41
0.0020
  0
VERTEX
  8
CAM_CONTROL
 10
2.828635
 20
6.3326243
 30
0.0000
 42
1.3206531
  0
VERTEX
  8
CAM_CONTROL
 10
2.7714686
 20
6.3346206
 30
0.0000
 42
0.0000
  0
SEQEND
  0
POLYLINE
  8
CAM_CONTROL
 66
1
 10
0.0000
 20
0.0000
 30
0.0000
 40
0.0020
 41
0.0020
  0
VERTEX
  8
CAM_CONTROL
 10
2.7714681
 20
6.3346209
 30
0.0000
 42
0.7548957
  0
VERTEX
  8
CAM_CONTROL
 10
2.8286351
 20
6.3326245
 30
0.0000
 42
0.0000
  0
SEQEND
  0
POLYLINE
  8
CAM_CONTROL
 66
1
 10
0.0000
 20
0.0000
 30
0.0000
 40
0.0020
 41
0.0020
  0
VERTEX
  8
CAM_CONTROL
 10
2.8276946
 20
6.3971441
 30
0.0000
 42
0.6543229
  0
VERTEX
  8
CAM_CONTROL
 10
2.7734628
 20
6.3917285
 30
0.0000
 42
0.0000
  0
SEQEND
  0
POLYLINE
  8
CAM_CONTROL
 66
1
 10
0.0000
 20
0.0000
 30
0.0000
 40
0.0020
 41
0.0020
  0
VERTEX
  8
CAM_CONTROL
 10
2.7734624
 20
6.3917289
 30
0.0000
 42
0.1647051
  0
VERTEX
  8
CAM_CONTROL
 10
2.7714681
 20
6.3346209
 30
0.0000
 42
0.0000
  0
SEQEND
  0
POLYLINE
  8
CAM_CONTROL
 66
1
 10
0.0000
 20
0.0000
 30
0.0000
 40
0.0020
 41
0.0020
  0
VERTEX
  8
CAM_CONTROL
 10
2.711704
 20
6.311935
 30
0.0000
  0
VERTEX
  8
CAM_CONTROL
 10
2.716217
 20
6.311936
 30
0.0000
  0
SEQEND
  0
POLYLINE
  8
CAM_CONTROL
 66
1
 10
0.0000
 20
0.0000
 30
0.0000
 40
0.0020
 41
0.0020
  0
VERTEX
  8
CAM_CONTROL
 10
2.7137127
 20
6.3763214
 30
0.0000
 42
0.1660443
  0
VERTEX
  8
CAM_CONTROL
 10
2.6851412
 20
6.3677483
 30
0.0000
 42
0.0000
  0
SEQEND
  0
POLYLINE
  8
CAM_CONTROL
 66
1
 10
0.0000
 20
0.0000
 30
0.0000
 40
0.0020
 41
0.0020
  0
VERTEX
  8
CAM_CONTROL
 10
2.685142
 20
6.3262224
 30
0.0000
 42
0.0672123
  0
VERTEX
  8
CAM_CONTROL
 10
2.6907427
 20
6.3198075
 30
0.0000
 42
0.0000
  0
SEQEND
  0
POLYLINE
  8
CAM_CONTROL
 66
1
 10
0.0000
 20
0.0000
 30
0.0000
 40
0.0020
 41
0.0020
  0
VERTEX
  8
CAM_CONTROL
 10
2.6907427
 20
6.3198075
 30
0.0000
 42
0.1817398
  0
VERTEX
  8
CAM_CONTROL
 10
2.7117039
 20
6.311935
 30
0.0000
 42
0.0000
  0
SEQEND
  0
POLYLINE
  8
CAM_CONTROL
 66
1
 10
0.0000
 20
0.0000
 30
0.0000
 40
0.0020
 41
0.0020
  0
VERTEX
  8
CAM_CONTROL
 10
2.7162178
 20
6.311937
 30
0.0000
 42
0.2690679
  0
VERTEX
  8
CAM_CONTROL
 10
2.7434649
 20
6.3277543
 30
0.0000
 42
0.0000
  0
SEQEND
  0
POLYLINE
  8
CAM_CONTROL
 66
1
 10
0.0000
 20
0.0000
 30
0.0000
 40
0.0020
 41
0.0020
  0
VERTEX
  8
CAM_CONTROL
 10
2.7434647
 20
6.3277535
 30
0.0000
 42
0.2840789
  0
VERTEX
  8
CAM_CONTROL
 10
2.7422839
 20
6.362035
 30
0.0000
 42
0.0000
  0
SEQEND
  0
POLYLINE
  8
CAM_CONTROL
 66
1
 10
0.0000
 20
0.0000
 30
0.0000
 40
0.0020
 41
0.0020
  0
VERTEX
  8
CAM_CONTROL
 10
2.7422833
 20
6.3620349
 30
0.0000
 42
0.1305201
  0
VERTEX
  8
CAM_CONTROL
 10
2.7306231
 20
6.3723283
 30
0.0000
 42
0.0000
  0
SEQEND
  0
POLYLINE
  8
CAM_CONTROL
 66
1
 10
0.0000
 20
0.0000
 30
0.0000
 40
0.0020
 41
0.0020
  0
VERTEX
  8
CAM_CONTROL
 10
2.7306239
 20
6.3723289
 30
0.0000
 42
0.1164338
  0
VERTEX
  8
CAM_CONTROL
 10
2.713713
 20
6.376321
 30
0.0000
 42
0.0000
  0
SEQEND
  0
POLYLINE
  8
CAM_CONTROL
 66
1
 10
0.0000
 20
0.0000
 30
0.0000
 40
0.0020
 41
0.0020
  0
VERTEX
  8
CAM_CONTROL
 10
2.685141
 20
6.412036
 30
0.0000
  0
VERTEX
  8
CAM_CONTROL
 10
2.685141
 20
6.367748
 30
0.0000
  0
SEQEND
  0
POLYLINE
  8
CAM_CONTROL
 66
1
 10
0.0000
 20
0.0000
 30
0.0000
 40
0.0020
 41
0.0020
  0
VERTEX
  8
CAM_CONTROL
 10
2.745601
 20
6.412036
 30
0.0000
  0
VERTEX
  8
CAM_CONTROL
 10
2.685141
 20
6.412036
 30
0.0000
  0
SEQEND
  0
POLYLINE
  8
CAM_CONTROL
 66
1
 10
0.0000
 20
0.0000
 30
0.0000
 40
0.0020
 41
0.0020
  0
VERTEX
  8
CAM_CONTROL
 10
2.650855
 20
6.412036
 30
0.0000
  0
VERTEX
  8
CAM_CONTROL
 10
2.63657
 20
6.39775
 30
0.0000
  0
SEQEND
  0
POLYLINE
  8
CAM_CONTROL
 66
1
 10
0.0000
 20
0.0000
 30
0.0000
 40
0.0020
 41
0.0020
  0
VERTEX
  8
CAM_CONTROL
 10
2.650855
 20
6.312036
 30
0.0000
  0
VERTEX
  8
CAM_CONTROL
 10
2.63657
 20
6.312036
 30
0.0000
  0
SEQEND
  0
POLYLINE
  8
CAM_CONTROL
 66
1
 10
0.0000
 20
0.0000
 30
0.0000
 40
0.0020
 41
0.0020
  0
VERTEX
  8
CAM_CONTROL
 10
2.650855
 20
6.312036
 30
0.0000
  0
VERTEX
  8
CAM_CONTROL
 10
2.665141
 20
6.312036
 30
0.0000
  0
SEQEND
  0
POLYLINE
  8
CAM_CONTROL
 66
1
 10
0.0000
 20
0.0000
 30
0.0000
 40
0.0020
 41
0.0020
  0
VERTEX
  8
CAM_CONTROL
 10
2.650855
 20
6.312036
 30
0.0000
  0
VERTEX
  8
CAM_CONTROL
 10
2.650855
 20
6.412036
 30
0.0000
  0
SEQEND
  0
POLYLINE
  8
CAM_CONTROL
 66
1
 10
0.0000
 20
0.0000
 30
0.0000
 40
0.0020
 41
0.0020
  0
VERTEX
  8
CAM_CONTROL
 10
2.60657
 20
6.317036
 30
0.0000
 42
1.0000
  0
VERTEX
  8
CAM_CONTROL
 10
2.61657
 20
6.317036
 30
0.0000
 42
0.0000
  0
SEQEND
  0
POLYLINE
  8
CAM_CONTROL
 66
1
 10
0.0000
 20
0.0000
 30
0.0000
 40
0.0020
 41
0.0020
  0
VERTEX
  8
CAM_CONTROL
 10
2.61657
 20
6.317036
 30
0.0000
 42
1.0000
  0
VERTEX
  8
CAM_CONTROL
 10
2.60657
 20
6.317036
 30
0.0000
 42
0.0000
  0
SEQEND
  0
POLYLINE
  8
CAM_CONTROL
 66
1
 10
0.0000
 20
0.0000
 30
0.0000
 40
0.0020
 41
0.0020
  0
VERTEX
  8
CAM_CONTROL
 10
2.5806357
 20
6.3283483
 30
0.0000
 42
0.1761558
  0
VERTEX
  8
CAM_CONTROL
 10
2.5806357
 20
6.3957236
 30
0.0000
 42
0.0000
  0
SEQEND
  0
POLYLINE
  8
CAM_CONTROL
 66
1
 10
0.0000
 20
0.0000
 30
0.0000
 40
0.0020
 41
0.0020
  0
VERTEX
  8
CAM_CONTROL
 10
2.5339333
 20
6.3957236
 30
0.0000
 42
0.1761558
  0
VERTEX
  8
CAM_CONTROL
 10
2.5339333
 20
6.3283483
 30
0.0000
 42
0.0000
  0
SEQEND
  0
POLYLINE
  8
CAM_CONTROL
 66
1
 10
0.0000
 20
0.0000
 30
0.0000
 40
0.0020
 41
0.0020
  0
VERTEX
  8
CAM_CONTROL
 10
2.5806357
 20
6.3957234
 30
0.0000
 42
0.7055017
  0
VERTEX
  8
CAM_CONTROL
 10
2.5339324
 20
6.3957234
 30
0.0000
 42
0.0000
  0
SEQEND
  0
POLYLINE
  8
CAM_CONTROL
 66
1
 10
0.0000
 20
0.0000
 30
0.0000
 40
0.0020
 41
0.0020
  0
VERTEX
  8
CAM_CONTROL
 10
2.5339324
 20
6.3283476
 30
0.0000
 42
0.7055017
  0
VERTEX
  8
CAM_CONTROL
 10
2.5806357
 20
6.3283476
 30
0.0000
 42
0.0000
  0
SEQEND
  0
POLYLINE
  8
CAM_CONTROL
 66
1
 10
0.0000
 20
0.0000
 30
0.0000
 40
0.0020
 41
0.0020
  0
VERTEX
  8
CAM_CONTROL
 10
2.409427
 20
6.383464
 30
0.0000
 42
1.0000
  0
VERTEX
  8
CAM_CONTROL
 10
2.430855
 20
6.383464
 30
0.0000
 42
0.0000
  0
SEQEND
  0
POLYLINE
  8
CAM_CONTROL
 66
1
 10
0.0000
 20
0.0000
 30
0.0000
 40
0.0020
 41
0.0020
  0
VERTEX
  8
CAM_CONTROL
 10
2.430855
 20
6.383464
 30
0.0000
 42
1.0000
  0
VERTEX
  8
CAM_CONTROL
 10
2.409427
 20
6.383464
 30
0.0000
 42
0.0000
  0
SEQEND
  0
POLYLINE
  8
CAM_CONTROL
 66
1
 10
0.0000
 20
0.0000
 30
0.0000
 40
0.0020
 41
0.0020
  0
VERTEX
  8
CAM_CONTROL
 10
2.409427
 20
6.340607
 30
0.0000
 42
1.0000
  0
VERTEX
  8
CAM_CONTROL
 10
2.430855
 20
6.340607
 30
0.0000
 42
0.0000
  0
SEQEND
  0
POLYLINE
  8
CAM_CONTROL
 66
1
 10
0.0000
 20
0.0000
 30
0.0000
 40
0.0020
 41
0.0020
  0
VERTEX
  8
CAM_CONTROL
 10
2.430855
 20
6.340607
 30
0.0000
 42
1.0000
  0
VERTEX
  8
CAM_CONTROL
 10
2.409427
 20
6.340607
 30
0.0000
 42
0.0000
  0
SEQEND
  0
POLYLINE
  8
CAM_CONTROL
 66
1
 10
0.0000
 20
0.0000
 30
0.0000
 40
0.0020
 41
0.0020
  0
VERTEX
  8
CAM_CONTROL
 10
2.364481
 20
6.312218
 30
0.0000
  0
VERTEX
  8
CAM_CONTROL
 10
2.325641
 20
6.312218
 30
0.0000
  0
SEQEND
  0
POLYLINE
  8
CAM_CONTROL
 66
1
 10
0.0000
 20
0.0000
 30
0.0000
 40
0.0020
 41
0.0020
  0
VERTEX
  8
CAM_CONTROL
 10
2.362775
 20
6.36216
 30
0.0000
  0
VERTEX
  8
CAM_CONTROL
 10
2.325641
 20
6.362036
 30
0.0000
  0
SEQEND
  0
POLYLINE
  8
CAM_CONTROL
 66
1
 10
0.0000
 20
0.0000
 30
0.0000
 40
0.0020
 41
0.0020
  0
VERTEX
  8
CAM_CONTROL
 10
2.364481
 20
6.312218
 30
0.0000
 42
1.0347427
  0
VERTEX
  8
CAM_CONTROL
 10
2.362775
 20
6.3621598
 30
0.0000
 42
0.0000
  0
SEQEND
  0
POLYLINE
  8
CAM_CONTROL
 66
1
 10
0.0000
 20
0.0000
 30
0.0000
 40
0.0020
 41
0.0020
  0
VERTEX
  8
CAM_CONTROL
 10
2.3627746
 20
6.3621604
 30
0.0000
 42
0.9513092
  0
VERTEX
  8
CAM_CONTROL
 10
2.360284
 20
6.412036
 30
0.0000
 42
0.0000
  0
SEQEND
  0
POLYLINE
  8
CAM_CONTROL
 66
1
 10
0.0000
 20
0.0000
 30
0.0000
 40
0.0020
 41
0.0020
  0
VERTEX
  8
CAM_CONTROL
 10
2.360284
 20
6.412036
 30
0.0000
  0
VERTEX
  8
CAM_CONTROL
 10
2.325641
 20
6.412036
 30
0.0000
  0
SEQEND
  0
POLYLINE
  8
CAM_CONTROL
 66
1
 10
0.0000
 20
0.0000
 30
0.0000
 40
0.0020
 41
0.0020
  0
VERTEX
  8
CAM_CONTROL
 10
2.325641
 20
6.412036
 30
0.0000
  0
VERTEX
  8
CAM_CONTROL
 10
2.325641
 20
6.362036
 30
0.0000
  0
SEQEND
  0
POLYLINE
  8
CAM_CONTROL
 66
1
 10
0.0000
 20
0.0000
 30
0.0000
 40
0.0020
 41
0.0020
  0
VERTEX
  8
CAM_CONTROL
 10
2.325641
 20
6.312218
 30
0.0000
  0
VERTEX
  8
CAM_CONTROL
 10
2.325641
 20
6.362036
 30
0.0000
  0
SEQEND
  0
POLYLINE
  8
CAM_CONTROL
 66
1
 10
0.0000
 20
0.0000
 30
0.0000
 40
0.0020
 41
0.0020
  0
VERTEX
  8
CAM_CONTROL
 10
2.734605
 20
6.553914
 30
0.0000
 42
1.0000
  0
VERTEX
  8
CAM_CONTROL
 10
2.756033
 20
6.553914
 30
0.0000
 42
0.0000
  0
SEQEND
  0
POLYLINE
  8
CAM_CONTROL
 66
1
 10
0.0000
 20
0.0000
 30
0.0000
 40
0.0020
 41
0.0020
  0
VERTEX
  8
CAM_CONTROL
 10
2.756033
 20
6.553914
 30
0.0000
 42
1.0000
  0
VERTEX
  8
CAM_CONTROL
 10
2.734605
 20
6.553914
 30
0.0000
 42
0.0000
  0
SEQEND
  0
POLYLINE
  8
CAM_CONTROL
 66
1
 10
0.0000
 20
0.0000
 30
0.0000
 40
0.0020
 41
0.0020
  0
VERTEX
  8
CAM_CONTROL
 10
2.734605
 20
6.511057
 30
0.0000
 42
1.0000
  0
VERTEX
  8
CAM_CONTROL
 10
2.756033
 20
6.511057
 30
0.0000
 42
0.0000
  0
SEQEND
  0
POLYLINE
  8
CAM_CONTROL
 66
1
 10
0.0000
 20
0.0000
 30
0.0000
 40
0.0020
 41
0.0020
  0
VERTEX
  8
CAM_CONTROL
 10
2.756033
 20
6.511057
 30
0.0000
 42
1.0000
  0
VERTEX
  8
CAM_CONTROL
 10
2.734605
 20
6.511057
 30
0.0000
 42
0.0000
  0
SEQEND
  0
POLYLINE
  8
CAM_CONTROL
 66
1
 10
0.0000
 20
0.0000
 30
0.0000
 40
0.0020
 41
0.0020
  0
VERTEX
  8
CAM_CONTROL
 10
2.664801
 20
6.540938
 30
0.0000
  0
VERTEX
  8
CAM_CONTROL
 10
2.704158
 20
6.524034
 30
0.0000
  0
SEQEND
  0
POLYLINE
  8
CAM_CONTROL
 66
1
 10
0.0000
 20
0.0000
 30
0.0000
 40
0.0020
 41
0.0020
  0
VERTEX
  8
CAM_CONTROL
 10
2.680964
 20
6.582583
 30
0.0000
  0
VERTEX
  8
CAM_CONTROL
 10
2.689089
 20
6.582484
 30
0.0000
  0
SEQEND
  0
POLYLINE
  8
CAM_CONTROL
 66
1
 10
0.0000
 20
0.0000
 30
0.0000
 40
0.0020
 41
0.0020
  0
VERTEX
  8
CAM_CONTROL
 10
2.7135686
 20
6.5682994
 30
0.0000
 42
0.2622347
  0
VERTEX
  8
CAM_CONTROL
 10
2.689089
 20
6.5824839
 30
0.0000
 42
0.0000
  0
SEQEND
  0
POLYLINE
  8
CAM_CONTROL
 66
1
 10
0.0000
 20
0.0000
 30
0.0000
 40
0.0020
 41
0.0020
  0
VERTEX
  8
CAM_CONTROL
 10
2.6809642
 20
6.582583
 30
0.0000
 42
0.4042915
  0
VERTEX
  8
CAM_CONTROL
 10
2.6543541
 20
6.5574854
 30
0.0000
 42
0.0000
  0
SEQEND
  0
POLYLINE
  8
CAM_CONTROL
 66
1
 10
0.0000
 20
0.0000
 30
0.0000
 40
0.0020
 41
0.0020
  0
VERTEX
  8
CAM_CONTROL
 10
2.6543549
 20
6.5574857
 30
0.0000
 42
0.2408287
  0
VERTEX
  8
CAM_CONTROL
 10
2.6648013
 20
6.5409376
 30
0.0000
 42
0.0000
  0
SEQEND
  0
POLYLINE
  8
CAM_CONTROL
 66
1
 10
0.0000
 20
0.0000
 30
0.0000
 40
0.0020
 41
0.0020
  0
VERTEX
  8
CAM_CONTROL
 10
2.67787
 20
6.482487
 30
0.0000
  0
VERTEX
  8
CAM_CONTROL
 10
2.68806
 20
6.482388
 30
0.0000
  0
SEQEND
  0
POLYLINE
  8
CAM_CONTROL
 66
1
 10
0.0000
 20
0.0000
 30
0.0000
 40
0.0020
 41
0.0020
  0
VERTEX
  8
CAM_CONTROL
 10
2.6533184
 20
6.4966717
 30
0.0000
 42
0.2629004
  0
VERTEX
  8
CAM_CONTROL
 10
2.6778698
 20
6.4824864
 30
0.0000
 42
0.0000
  0
SEQEND
  0
POLYLINE
  8
CAM_CONTROL
 66
1
 10
0.0000
 20
0.0000
 30
0.0000
 40
0.0020
 41
0.0020
  0
VERTEX
  8
CAM_CONTROL
 10
2.6880603
 20
6.4823872
 30
0.0000
 42
0.4035676
  0
VERTEX
  8
CAM_CONTROL
 10
2.7146049
 20
6.5074856
 30
0.0000
 42
0.0000
  0
SEQEND
  0
POLYLINE
  8
CAM_CONTROL
 66
1
 10
0.0000
 20
0.0000
 30
0.0000
 40
0.0020
 41
0.0020
  0
VERTEX
  8
CAM_CONTROL
 10
2.7146042
 20
6.5074863
 30
0.0000
 42
0.2408298
  0
VERTEX
  8
CAM_CONTROL
 10
2.7041576
 20
6.5240344
 30
0.0000
 42
0.0000
  0
SEQEND
  0
POLYLINE
  8
CAM_CONTROL
 66
1
 10
0.0000
 20
0.0000
 30
0.0000
 40
0.0020
 41
0.0020
  0
VERTEX
  8
CAM_CONTROL
 10
2.574676
 20
6.482486
 30
0.0000
  0
VERTEX
  8
CAM_CONTROL
 10
2.574676
 20
6.532486
 30
0.0000
  0
SEQEND
  0
POLYLINE
  8
CAM_CONTROL
 66
1
 10
0.0000
 20
0.0000
 30
0.0000
 40
0.0020
 41
0.0020
  0
VERTEX
  8
CAM_CONTROL
 10
2.574676
 20
6.582486
 30
0.0000
  0
VERTEX
  8
CAM_CONTROL
 10
2.574676
 20
6.532486
 30
0.0000
  0
SEQEND
  0
POLYLINE
  8
CAM_CONTROL
 66
1
 10
0.0000
 20
0.0000
 30
0.0000
 40
0.0020
 41
0.0020
  0
VERTEX
  8
CAM_CONTROL
 10
2.574676
 20
6.582486
 30
0.0000
  0
VERTEX
  8
CAM_CONTROL
 10
2.633319
 20
6.582486
 30
0.0000
  0
SEQEND
  0
POLYLINE
  8
CAM_CONTROL
 66
1
 10
0.0000
 20
0.0000
 30
0.0000
 40
0.0020
 41
0.0020
  0
VERTEX
  8
CAM_CONTROL
 10
2.574676
 20
6.482486
 30
0.0000
  0
VERTEX
  8
CAM_CONTROL
 10
2.633319
 20
6.482486
 30
0.0000
  0
SEQEND
  0
POLYLINE
  8
CAM_CONTROL
 66
1
 10
0.0000
 20
0.0000
 30
0.0000
 40
0.0020
 41
0.0020
  0
VERTEX
  8
CAM_CONTROL
 10
2.574676
 20
6.532486
 30
0.0000
  0
VERTEX
  8
CAM_CONTROL
 10
2.620461
 20
6.532486
 30
0.0000
  0
SEQEND
  0
POLYLINE
  8
CAM_CONTROL
 66
1
 10
0.0000
 20
0.0000
 30
0.0000
 40
0.0020
 41
0.0020
  0
VERTEX
  8
CAM_CONTROL
 10
2.522711
 20
6.582486
 30
0.0000
  0
VERTEX
  8
CAM_CONTROL
 10
2.554676
 20
6.582486
 30
0.0000
  0
SEQEND
  0
POLYLINE
  8
CAM_CONTROL
 66
1
 10
0.0000
 20
0.0000
 30
0.0000
 40
0.0020
 41
0.0020
  0
VERTEX
  8
CAM_CONTROL
 10
2.522711
 20
6.482486
 30
0.0000
  0
VERTEX
  8
CAM_CONTROL
 10
2.522711
 20
6.582486
 30
0.0000
  0
SEQEND
  0
POLYLINE
  8
CAM_CONTROL
 66
1
 10
0.0000
 20
0.0000
 30
0.0000
 40
0.0020
 41
0.0020
  0
VERTEX
  8
CAM_CONTROL
 10
2.490747
 20
6.582486
 30
0.0000
  0
VERTEX
  8
CAM_CONTROL
 10
2.522711
 20
6.582486
 30
0.0000
  0
SEQEND
  0
POLYLINE
  8
CAM_CONTROL
 66
1
 10
0.0000
 20
0.0000
 30
0.0000
 40
0.0020
 41
0.0020
  0
VERTEX
  8
CAM_CONTROL
 10
2.4088391
 20
6.5039147
 30
0.0000
 42
0.7548959
  0
VERTEX
  8
CAM_CONTROL
 10
2.4660409
 20
6.5039147
 30
0.0000
 42
0.0000
  0
SEQEND
  0
POLYLINE
  8
CAM_CONTROL
 66
1
 10
0.0000
 20
0.0000
 30
0.0000
 40
0.0020
 41
0.0020
  0
VERTEX
  8
CAM_CONTROL
 10
2.4660409
 20
6.5610572
 30
0.0000
 42
0.7548959
  0
VERTEX
  8
CAM_CONTROL
 10
2.4088391
 20
6.5610572
 30
0.0000
 42
0.0000
  0
SEQEND
  0
POLYLINE
  8
CAM_CONTROL
 66
1
 10
0.0000
 20
0.0000
 30
0.0000
 40
0.0020
 41
0.0020
  0
VERTEX
  8
CAM_CONTROL
 10
2.4660402
 20
6.5039146
 30
0.0000
 42
0.1647051
  0
VERTEX
  8
CAM_CONTROL
 10
2.4660402
 20
6.5610574
 30
0.0000
 42
0.0000
  0
SEQEND
  0
POLYLINE
  8
CAM_CONTROL
 66
1
 10
0.0000
 20
0.0000
 30
0.0000
 40
0.0020
 41
0.0020
  0
VERTEX
  8
CAM_CONTROL
 10
2.4088388
 20
6.5610574
 30
0.0000
 42
0.1647051
  0
VERTEX
  8
CAM_CONTROL
 10
2.4088389
 20
6.5039146
 30
0.0000
 42
0.0000
  0
SEQEND
  0
POLYLINE
  8
CAM_CONTROL
 66
1
 10
0.0000
 20
0.0000
 30
0.0000
 40
0.0020
 41
0.0020
  0
VERTEX
  8
CAM_CONTROL
 10
2.322847
 20
6.582486
 30
0.0000
  0
VERTEX
  8
CAM_CONTROL
 10
2.384133
 20
6.482486
 30
0.0000
  0
SEQEND
  0
POLYLINE
  8
CAM_CONTROL
 66
1
 10
0.0000
 20
0.0000
 30
0.0000
 40
0.0020
 41
0.0020
  0
VERTEX
  8
CAM_CONTROL
 10
2.384133
 20
6.482486
 30
0.0000
  0
VERTEX
  8
CAM_CONTROL
 10
2.384133
 20
6.582486
 30
0.0000
  0
SEQEND
  0
POLYLINE
  8
CAM_CONTROL
 66
1
 10
0.0000
 20
0.0000
 30
0.0000
 40
0.0020
 41
0.0020
  0
VERTEX
  8
CAM_CONTROL
 10
2.322847
 20
6.482486
 30
0.0000
  0
VERTEX
  8
CAM_CONTROL
 10
2.322847
 20
6.582486
 30
0.0000
  0
SEQEND
  0
POLYLINE
  8
CAM_CONTROL
 66
1
 10
0.0000
 20
0.0000
 30
0.0000
 40
0.0020
 41
0.0020
  0
VERTEX
  8
CAM_CONTROL
 10
6.33641
 20
2.231444
 30
0.0000
  0
VERTEX
  8
CAM_CONTROL
 10
6.29757
 20
2.231444
 30
0.0000
  0
SEQEND
  0
POLYLINE
  8
CAM_CONTROL
 66
1
 10
0.0000
 20
0.0000
 30
0.0000
 40
0.0020
 41
0.0020
  0
VERTEX
  8
CAM_CONTROL
 10
6.334704
 20
2.281385
 30
0.0000
  0
VERTEX
  8
CAM_CONTROL
 10
6.29757
 20
2.281261
 30
0.0000
  0
SEQEND
  0
POLYLINE
  8
CAM_CONTROL
 66
1
 10
0.0000
 20
0.0000
 30
0.0000
 40
0.0020
 41
0.0020
  0
VERTEX
  8
CAM_CONTROL
 10
6.33641
 20
2.231444
 30
0.0000
 42
1.0347427
  0
VERTEX
  8
CAM_CONTROL
 10
6.334704
 20
2.2813857
 30
0.0000
 42
0.0000
  0
SEQEND
  0
POLYLINE
  8
CAM_CONTROL
 66
1
 10
0.0000
 20
0.0000
 30
0.0000
 40
0.0020
 41
0.0020
  0
VERTEX
  8
CAM_CONTROL
 10
6.3347036
 20
2.2813854
 30
0.0000
 42
0.9513093
  0
VERTEX
  8
CAM_CONTROL
 10
6.332213
 20
2.331261
 30
0.0000
 42
0.0000
  0
SEQEND
  0
POLYLINE
  8
CAM_CONTROL
 66
1
 10
0.0000
 20
0.0000
 30
0.0000
 40
0.0020
 41
0.0020
  0
VERTEX
  8
CAM_CONTROL
 10
6.332213
 20
2.331261
 30
0.0000
  0
VERTEX
  8
CAM_CONTROL
 10
6.29757
 20
2.331261
 30
0.0000
  0
SEQEND
  0
POLYLINE
  8
CAM_CONTROL
 66
1
 10
0.0000
 20
0.0000
 30
0.0000
 40
0.0020
 41
0.0020
  0
VERTEX
  8
CAM_CONTROL
 10
6.29757
 20
2.331261
 30
0.0000
  0
VERTEX
  8
CAM_CONTROL
 10
6.29757
 20
2.281261
 30
0.0000
  0
SEQEND
  0
POLYLINE
  8
CAM_CONTROL
 66
1
 10
0.0000
 20
0.0000
 30
0.0000
 40
0.0020
 41
0.0020
  0
VERTEX
  8
CAM_CONTROL
 10
6.29757
 20
2.231444
 30
0.0000
  0
VERTEX
  8
CAM_CONTROL
 10
6.29757
 20
2.281261
 30
0.0000
  0
SEQEND
  0
POLYLINE
  8
CAM_CONTROL
 66
1
 10
0.0000
 20
0.0000
 30
0.0000
 40
0.0020
 41
0.0020
  0
VERTEX
  8
CAM_CONTROL
 10
6.312701
 20
4.452153
 30
0.0000
  0
VERTEX
  8
CAM_CONTROL
 10
6.273862
 20
4.452153
 30
0.0000
  0
SEQEND
  0
POLYLINE
  8
CAM_CONTROL
 66
1
 10
0.0000
 20
0.0000
 30
0.0000
 40
0.0020
 41
0.0020
  0
VERTEX
  8
CAM_CONTROL
 10
6.310995
 20
4.502094
 30
0.0000
  0
VERTEX
  8
CAM_CONTROL
 10
6.273862
 20
4.50197
 30
0.0000
  0
SEQEND
  0
POLYLINE
  8
CAM_CONTROL
 66
1
 10
0.0000
 20
0.0000
 30
0.0000
 40
0.0020
 41
0.0020
  0
VERTEX
  8
CAM_CONTROL
 10
6.312701
 20
4.452153
 30
0.0000
 42
1.0347427
  0
VERTEX
  8
CAM_CONTROL
 10
6.310995
 20
4.5020947
 30
0.0000
 42
0.0000
  0
SEQEND
  0
POLYLINE
  8
CAM_CONTROL
 66
1
 10
0.0000
 20
0.0000
 30
0.0000
 40
0.0020
 41
0.0020
  0
VERTEX
  8
CAM_CONTROL
 10
6.3109946
 20
4.5020944
 30
0.0000
 42
0.9513092
  0
VERTEX
  8
CAM_CONTROL
 10
6.308504
 20
4.55197
 30
0.0000
 42
0.0000
  0
SEQEND
  0
POLYLINE
  8
CAM_CONTROL
 66
1
 10
0.0000
 20
0.0000
 30
0.0000
 40
0.0020
 41
0.0020
  0
VERTEX
  8
CAM_CONTROL
 10
6.308504
 20
4.55197
 30
0.0000
  0
VERTEX
  8
CAM_CONTROL
 10
6.273862
 20
4.55197
 30
0.0000
  0
SEQEND
  0
POLYLINE
  8
CAM_CONTROL
 66
1
 10
0.0000
 20
0.0000
 30
0.0000
 40
0.0020
 41
0.0020
  0
VERTEX
  8
CAM_CONTROL
 10
6.273862
 20
4.55197
 30
0.0000
  0
VERTEX
  8
CAM_CONTROL
 10
6.273862
 20
4.50197
 30
0.0000
  0
SEQEND
  0
POLYLINE
  8
CAM_CONTROL
 66
1
 10
0.0000
 20
0.0000
 30
0.0000
 40
0.0020
 41
0.0020
  0
VERTEX
  8
CAM_CONTROL
 10
6.273862
 20
4.452153
 30
0.0000
  0
VERTEX
  8
CAM_CONTROL
 10
6.273862
 20
4.50197
 30
0.0000
  0
SEQEND
  0
POLYLINE
  8
CAM_CONTROL
 66
1
 10
0.0000
 20
0.0000
 30
0.0000
 40
0.0020
 41
0.0020
  0
VERTEX
  8
CAM_CONTROL
 10
2.686892
 20
2.241469
 30
0.0000
  0
VERTEX
  8
CAM_CONTROL
 10
2.648053
 20
2.241469
 30
0.0000
  0
SEQEND
  0
POLYLINE
  8
CAM_CONTROL
 66
1
 10
0.0000
 20
0.0000
 30
0.0000
 40
0.0020
 41
0.0020
  0
VERTEX
  8
CAM_CONTROL
 10
2.685186
 20
2.29141
 30
0.0000
  0
VERTEX
  8
CAM_CONTROL
 10
2.648053
 20
2.291286
 30
0.0000
  0
SEQEND
  0
POLYLINE
  8
CAM_CONTROL
 66
1
 10
0.0000
 20
0.0000
 30
0.0000
 40
0.0020
 41
0.0020
  0
VERTEX
  8
CAM_CONTROL
 10
2.686892
 20
2.241469
 30
0.0000
 42
1.0347427
  0
VERTEX
  8
CAM_CONTROL
 10
2.685186
 20
2.2914107
 30
0.0000
 42
0.0000
  0
SEQEND
  0
POLYLINE
  8
CAM_CONTROL
 66
1
 10
0.0000
 20
0.0000
 30
0.0000
 40
0.0020
 41
0.0020
  0
VERTEX
  8
CAM_CONTROL
 10
2.6851866
 20
2.2914104
 30
0.0000
 42
0.9513092
  0
VERTEX
  8
CAM_CONTROL
 10
2.682696
 20
2.341286
 30
0.0000
 42
0.0000
  0
SEQEND
  0
POLYLINE
  8
CAM_CONTROL
 66
1
 10
0.0000
 20
0.0000
 30
0.0000
 40
0.0020
 41
0.0020
  0
VERTEX
  8
CAM_CONTROL
 10
2.682696
 20
2.341286
 30
0.0000
  0
VERTEX
  8
CAM_CONTROL
 10
2.648053
 20
2.341286
 30
0.0000
  0
SEQEND
  0
POLYLINE
  8
CAM_CONTROL
 66
1
 10
0.0000
 20
0.0000
 30
0.0000
 40
0.0020
 41
0.0020
  0
VERTEX
  8
CAM_CONTROL
 10
2.648053
 20
2.341286
 30
0.0000
  0
VERTEX
  8
CAM_CONTROL
 10
2.648053
 20
2.291286
 30
0.0000
  0
SEQEND
  0
POLYLINE
  8
CAM_CONTROL
 66
1
 10
0.0000
 20
0.0000
 30
0.0000
 40
0.0020
 41
0.0020
  0
VERTEX
  8
CAM_CONTROL
 10
2.648053
 20
2.241469
 30
0.0000
  0
VERTEX
  8
CAM_CONTROL
 10
2.648053
 20
2.291286
 30
0.0000
  0
SEQEND
  0
POLYLINE
  8
CAM_CONTROL
 66
1
 10
0.0000
 20
0.0000
 30
0.0000
 40
0.0020
 41
0.0020
  0
VERTEX
  8
CAM_CONTROL
 10
2.686892
 20
4.461469
 30
0.0000
  0
VERTEX
  8
CAM_CONTROL
 10
2.648053
 20
4.461469
 30
0.0000
  0
SEQEND
  0
POLYLINE
  8
CAM_CONTROL
 66
1
 10
0.0000
 20
0.0000
 30
0.0000
 40
0.0020
 41
0.0020
  0
VERTEX
  8
CAM_CONTROL
 10
2.685186
 20
4.51141
 30
0.0000
  0
VERTEX
  8
CAM_CONTROL
 10
2.648053
 20
4.511286
 30
0.0000
  0
SEQEND
  0
POLYLINE
  8
CAM_CONTROL
 66
1
 10
0.0000
 20
0.0000
 30
0.0000
 40
0.0020
 41
0.0020
  0
VERTEX
  8
CAM_CONTROL
 10
2.686892
 20
4.461469
 30
0.0000
 42
1.0347427
  0
VERTEX
  8
CAM_CONTROL
 10
2.685186
 20
4.5114107
 30
0.0000
 42
0.0000
  0
SEQEND
  0
POLYLINE
  8
CAM_CONTROL
 66
1
 10
0.0000
 20
0.0000
 30
0.0000
 40
0.0020
 41
0.0020
  0
VERTEX
  8
CAM_CONTROL
 10
2.6851866
 20
4.5114104
 30
0.0000
 42
0.9513092
  0
VERTEX
  8
CAM_CONTROL
 10
2.682696
 20
4.561286
 30
0.0000
 42
0.0000
  0
SEQEND
  0
POLYLINE
  8
CAM_CONTROL
 66
1
 10
0.0000
 20
0.0000
 30
0.0000
 40
0.0020
 41
0.0020
  0
VERTEX
  8
CAM_CONTROL
 10
2.682696
 20
4.561286
 30
0.0000
  0
VERTEX
  8
CAM_CONTROL
 10
2.648053
 20
4.561286
 30
0.0000
  0
SEQEND
  0
POLYLINE
  8
CAM_CONTROL
 66
1
 10
0.0000
 20
0.0000
 30
0.0000
 40
0.0020
 41
0.0020
  0
VERTEX
  8
CAM_CONTROL
 10
2.648053
 20
4.561286
 30
0.0000
  0
VERTEX
  8
CAM_CONTROL
 10
2.648053
 20
4.511286
 30
0.0000
  0
SEQEND
  0
POLYLINE
  8
CAM_CONTROL
 66
1
 10
0.0000
 20
0.0000
 30
0.0000
 40
0.0020
 41
0.0020
  0
VERTEX
  8
CAM_CONTROL
 10
2.648053
 20
4.461469
 30
0.0000
  0
VERTEX
  8
CAM_CONTROL
 10
2.648053
 20
4.511286
 30
0.0000
  0
SEQEND
  0
POLYLINE
  8
CAM_CONTROL
 66
1
 10
0.0000
 20
0.0000
 30
0.0000
 40
0.0020
 41
0.0020
  0
VERTEX
  8
CAM_CONTROL
 10
6.4750
 20
4.50994
 30
0.0000
  0
VERTEX
  8
CAM_CONTROL
 10
6.39687
 20
4.50994
 30
0.0000
  0
SEQEND
  0
POLYLINE
  8
CAM_CONTROL
 66
1
 10
0.0000
 20
0.0000
 30
0.0000
 40
0.0020
 41
0.0020
  0
VERTEX
  8
CAM_CONTROL
 10
6.4750
 20
4.50994
 30
0.0000
  0
VERTEX
  8
CAM_CONTROL
 10
6.4750
 20
4.43181
 30
0.0000
  0
SEQEND
  0
POLYLINE
  8
CAM_CONTROL
 66
1
 10
0.0000
 20
0.0000
 30
0.0000
 40
0.0020
 41
0.0020
  0
VERTEX
  8
CAM_CONTROL
 10
6.4750
 20
4.50994
 30
0.0000
  0
VERTEX
  8
CAM_CONTROL
 10
6.55313
 20
4.50994
 30
0.0000
  0
SEQEND
  0
POLYLINE
  8
CAM_CONTROL
 66
1
 10
0.0000
 20
0.0000
 30
0.0000
 40
0.0020
 41
0.0020
  0
VERTEX
  8
CAM_CONTROL
 10
6.4750
 20
4.50994
 30
0.0000
  0
VERTEX
  8
CAM_CONTROL
 10
6.4750
 20
4.58807
 30
0.0000
  0
SEQEND
  0
POLYLINE
  8
CAM_CONTROL
 66
1
 10
0.0000
 20
0.0000
 30
0.0000
 70
1
 40
0.0020
 41
0.0020
  0
VERTEX
  8
CAM_CONTROL
 10
6.39687
 20
4.50994
 30
0.0000
 42
1
  0
VERTEX
  8
CAM_CONTROL
 10
6.55313
 20
4.50994
 30
0.0000
 42
1
  0
SEQEND
  0
POLYLINE
  8
CAM_CONTROL
 66
1
 10
0.0000
 20
0.0000
 30
0.0000
 40
0.0020
 41
0.0020
  0
VERTEX
  8
CAM_CONTROL
 10
6.4750
 20
2.28994
 30
0.0000
  0
VERTEX
  8
CAM_CONTROL
 10
6.39687
 20
2.28994
 30
0.0000
  0
SEQEND
  0
POLYLINE
  8
CAM_CONTROL
 66
1
 10
0.0000
 20
0.0000
 30
0.0000
 40
0.0020
 41
0.0020
  0
VERTEX
  8
CAM_CONTROL
 10
6.4750
 20
2.28994
 30
0.0000
  0
VERTEX
  8
CAM_CONTROL
 10
6.4750
 20
2.21181
 30
0.0000
  0
SEQEND
  0
POLYLINE
  8
CAM_CONTROL
 66
1
 10
0.0000
 20
0.0000
 30
0.0000
 40
0.0020
 41
0.0020
  0
VERTEX
  8
CAM_CONTROL
 10
6.4750
 20
2.28994
 30
0.0000
  0
VERTEX
  8
CAM_CONTROL
 10
6.55313
 20
2.28994
 30
0.0000
  0
SEQEND
  0
POLYLINE
  8
CAM_CONTROL
 66
1
 10
0.0000
 20
0.0000
 30
0.0000
 40
0.0020
 41
0.0020
  0
VERTEX
  8
CAM_CONTROL
 10
6.4750
 20
2.28994
 30
0.0000
  0
VERTEX
  8
CAM_CONTROL
 10
6.4750
 20
2.36807
 30
0.0000
  0
SEQEND
  0
POLYLINE
  8
CAM_CONTROL
 66
1
 10
0.0000
 20
0.0000
 30
0.0000
 70
1
 40
0.0020
 41
0.0020
  0
VERTEX
  8
CAM_CONTROL
 10
6.39687
 20
2.28994
 30
0.0000
 42
1
  0
VERTEX
  8
CAM_CONTROL
 10
6.55313
 20
2.28994
 30
0.0000
 42
1
  0
SEQEND
  0
POLYLINE
  8
CAM_CONTROL
 66
1
 10
0.0000
 20
0.0000
 30
0.0000
 40
0.0020
 41
0.0020
  0
VERTEX
  8
CAM_CONTROL
 10
2.5250
 20
2.28994
 30
0.0000
  0
VERTEX
  8
CAM_CONTROL
 10
2.44687
 20
2.28994
 30
0.0000
  0
SEQEND
  0
POLYLINE
  8
CAM_CONTROL
 66
1
 10
0.0000
 20
0.0000
 30
0.0000
 40
0.0020
 41
0.0020
  0
VERTEX
  8
CAM_CONTROL
 10
2.5250
 20
2.28994
 30
0.0000
  0
VERTEX
  8
CAM_CONTROL
 10
2.5250
 20
2.21181
 30
0.0000
  0
SEQEND
  0
POLYLINE
  8
CAM_CONTROL
 66
1
 10
0.0000
 20
0.0000
 30
0.0000
 40
0.0020
 41
0.0020
  0
VERTEX
  8
CAM_CONTROL
 10
2.5250
 20
2.28994
 30
0.0000
  0
VERTEX
  8
CAM_CONTROL
 10
2.60313
 20
2.28994
 30
0.0000
  0
SEQEND
  0
POLYLINE
  8
CAM_CONTROL
 66
1
 10
0.0000
 20
0.0000
 30
0.0000
 40
0.0020
 41
0.0020
  0
VERTEX
  8
CAM_CONTROL
 10
2.5250
 20
2.28994
 30
0.0000
  0
VERTEX
  8
CAM_CONTROL
 10
2.5250
 20
2.36807
 30
0.0000
  0
SEQEND
  0
POLYLINE
  8
CAM_CONTROL
 66
1
 10
0.0000
 20
0.0000
 30
0.0000
 70
1
 40
0.0020
 41
0.0020
  0
VERTEX
  8
CAM_CONTROL
 10
2.44687
 20
2.28994
 30
0.0000
 42
1
  0
VERTEX
  8
CAM_CONTROL
 10
2.60313
 20
2.28994
 30
0.0000
 42
1
  0
SEQEND
  0
POLYLINE
  8
CAM_CONTROL
 66
1
 10
0.0000
 20
0.0000
 30
0.0000
 40
0.0020
 41
0.0020
  0
VERTEX
  8
CAM_CONTROL
 10
2.5250
 20
4.50994
 30
0.0000
  0
VERTEX
  8
CAM_CONTROL
 10
2.44687
 20
4.50994
 30
0.0000
  0
SEQEND
  0
POLYLINE
  8
CAM_CONTROL
 66
1
 10
0.0000
 20
0.0000
 30
0.0000
 40
0.0020
 41
0.0020
  0
VERTEX
  8
CAM_CONTROL
 10
2.5250
 20
4.50994
 30
0.0000
  0
VERTEX
  8
CAM_CONTROL
 10
2.5250
 20
4.43181
 30
0.0000
  0
SEQEND
  0
POLYLINE
  8
CAM_CONTROL
 66
1
 10
0.0000
 20
0.0000
 30
0.0000
 40
0.0020
 41
0.0020
  0
VERTEX
  8
CAM_CONTROL
 10
2.5250
 20
4.50994
 30
0.0000
  0
VERTEX
  8
CAM_CONTROL
 10
2.60313
 20
4.50994
 30
0.0000
  0
SEQEND
  0
POLYLINE
  8
CAM_CONTROL
 66
1
 10
0.0000
 20
0.0000
 30
0.0000
 40
0.0020
 41
0.0020
  0
VERTEX
  8
CAM_CONTROL
 10
2.5250
 20
4.50994
 30
0.0000
  0
VERTEX
  8
CAM_CONTROL
 10
2.5250
 20
4.58807
 30
0.0000
  0
SEQEND
  0
POLYLINE
  8
CAM_CONTROL
 66
1
 10
0.0000
 20
0.0000
 30
0.0000
 70
1
 40
0.0020
 41
0.0020
  0
VERTEX
  8
CAM_CONTROL
 10
2.44687
 20
4.50994
 30
0.0000
 42
1
  0
VERTEX
  8
CAM_CONTROL
 10
2.60313
 20
4.50994
 30
0.0000
 42
1
  0
SEQEND
  0
POLYLINE
  8
CAM_CONTROL
 66
1
 10
0.0000
 20
0.0000
 30
0.0000
 40
0.0020
 41
0.0020
  0
VERTEX
  8
CAM_CONTROL
 10
2.5000
 20
3.89994
 30
0.0000
  0
VERTEX
  8
CAM_CONTROL
 10
2.5490
 20
3.89994
 30
0.0000
  0
SEQEND
  0
POLYLINE
  8
CAM_CONTROL
 66
1
 10
0.0000
 20
0.0000
 30
0.0000
 40
0.0020
 41
0.0020
  0
VERTEX
  8
CAM_CONTROL
 10
2.5000
 20
3.89994
 30
0.0000
  0
VERTEX
  8
CAM_CONTROL
 10
2.5000
 20
3.85094
 30
0.0000
  0
SEQEND
  0
POLYLINE
  8
CAM_CONTROL
 66
1
 10
0.0000
 20
0.0000
 30
0.0000
 40
0.0020
 41
0.0020
  0
VERTEX
  8
CAM_CONTROL
 10
2.5000
 20
3.89994
 30
0.0000
  0
VERTEX
  8
CAM_CONTROL
 10
2.4510
 20
3.89994
 30
0.0000
  0
SEQEND
  0
POLYLINE
  8
CAM_CONTROL
 66
1
 10
0.0000
 20
0.0000
 30
0.0000
 40
0.0020
 41
0.0020
  0
VERTEX
  8
CAM_CONTROL
 10
2.5000
 20
3.89994
 30
0.0000
  0
VERTEX
  8
CAM_CONTROL
 10
2.5000
 20
3.94894
 30
0.0000
  0
SEQEND
  0
POLYLINE
  8
CAM_CONTROL
 66
1
 10
0.0000
 20
0.0000
 30
0.0000
 40
0.0020
 41
0.0020
  0
VERTEX
  8
CAM_CONTROL
 10
2.5000
 20
2.89994
 30
0.0000
  0
VERTEX
  8
CAM_CONTROL
 10
2.5490
 20
2.89994
 30
0.0000
  0
SEQEND
  0
POLYLINE
  8
CAM_CONTROL
 66
1
 10
0.0000
 20
0.0000
 30
0.0000
 40
0.0020
 41
0.0020
  0
VERTEX
  8
CAM_CONTROL
 10
2.5000
 20
2.89994
 30
0.0000
  0
VERTEX
  8
CAM_CONTROL
 10
2.5000
 20
2.85094
 30
0.0000
  0
SEQEND
  0
POLYLINE
  8
CAM_CONTROL
 66
1
 10
0.0000
 20
0.0000
 30
0.0000
 40
0.0020
 41
0.0020
  0
VERTEX
  8
CAM_CONTROL
 10
2.5000
 20
2.89994
 30
0.0000
  0
VERTEX
  8
CAM_CONTROL
 10
2.4510
 20
2.89994
 30
0.0000
  0
SEQEND
  0
POLYLINE
  8
CAM_CONTROL
 66
1
 10
0.0000
 20
0.0000
 30
0.0000
 40
0.0020
 41
0.0020
  0
VERTEX
  8
CAM_CONTROL
 10
2.5000
 20
2.89994
 30
0.0000
  0
VERTEX
  8
CAM_CONTROL
 10
2.5000
 20
2.94894
 30
0.0000
  0
SEQEND
  0
POLYLINE
  8
CAM_CONTROL
 66
1
 10
0.0000
 20
0.0000
 30
0.0000
 40
0.0020
 41
0.0020
  0
VERTEX
  8
CAM_CONTROL
 10
3.5000
 20
2.27494
 30
0.0000
  0
VERTEX
  8
CAM_CONTROL
 10
3.5490
 20
2.27494
 30
0.0000
  0
SEQEND
  0
POLYLINE
  8
CAM_CONTROL
 66
1
 10
0.0000
 20
0.0000
 30
0.0000
 40
0.0020
 41
0.0020
  0
VERTEX
  8
CAM_CONTROL
 10
3.5000
 20
2.27494
 30
0.0000
  0
VERTEX
  8
CAM_CONTROL
 10
3.5000
 20
2.22594
 30
0.0000
  0
SEQEND
  0
POLYLINE
  8
CAM_CONTROL
 66
1
 10
0.0000
 20
0.0000
 30
0.0000
 40
0.0020
 41
0.0020
  0
VERTEX
  8
CAM_CONTROL
 10
3.5000
 20
2.27494
 30
0.0000
  0
VERTEX
  8
CAM_CONTROL
 10
3.4510
 20
2.27494
 30
0.0000
  0
SEQEND
  0
POLYLINE
  8
CAM_CONTROL
 66
1
 10
0.0000
 20
0.0000
 30
0.0000
 40
0.0020
 41
0.0020
  0
VERTEX
  8
CAM_CONTROL
 10
3.5000
 20
2.27494
 30
0.0000
  0
VERTEX
  8
CAM_CONTROL
 10
3.5000
 20
2.32394
 30
0.0000
  0
SEQEND
  0
POLYLINE
  8
CAM_CONTROL
 66
1
 10
0.0000
 20
0.0000
 30
0.0000
 40
0.0020
 41
0.0020
  0
VERTEX
  8
CAM_CONTROL
 10
4.5000
 20
2.27494
 30
0.0000
  0
VERTEX
  8
CAM_CONTROL
 10
4.5490
 20
2.27494
 30
0.0000
  0
SEQEND
  0
POLYLINE
  8
CAM_CONTROL
 66
1
 10
0.0000
 20
0.0000
 30
0.0000
 40
0.0020
 41
0.0020
  0
VERTEX
  8
CAM_CONTROL
 10
4.5000
 20
2.27494
 30
0.0000
  0
VERTEX
  8
CAM_CONTROL
 10
4.5000
 20
2.22594
 30
0.0000
  0
SEQEND
  0
POLYLINE
  8
CAM_CONTROL
 66
1
 10
0.0000
 20
0.0000
 30
0.0000
 40
0.0020
 41
0.0020
  0
VERTEX
  8
CAM_CONTROL
 10
4.5000
 20
2.27494
 30
0.0000
  0
VERTEX
  8
CAM_CONTROL
 10
4.4510
 20
2.27494
 30
0.0000
  0
SEQEND
  0
POLYLINE
  8
CAM_CONTROL
 66
1
 10
0.0000
 20
0.0000
 30
0.0000
 40
0.0020
 41
0.0020
  0
VERTEX
  8
CAM_CONTROL
 10
4.5000
 20
2.27494
 30
0.0000
  0
VERTEX
  8
CAM_CONTROL
 10
4.5000
 20
2.32394
 30
0.0000
  0
SEQEND
  0
POLYLINE
  8
CAM_CONTROL
 66
1
 10
0.0000
 20
0.0000
 30
0.0000
 40
0.0020
 41
0.0020
  0
VERTEX
  8
CAM_CONTROL
 10
5.5000
 20
2.27494
 30
0.0000
  0
VERTEX
  8
CAM_CONTROL
 10
5.5490
 20
2.27494
 30
0.0000
  0
SEQEND
  0
POLYLINE
  8
CAM_CONTROL
 66
1
 10
0.0000
 20
0.0000
 30
0.0000
 40
0.0020
 41
0.0020
  0
VERTEX
  8
CAM_CONTROL
 10
5.5000
 20
2.27494
 30
0.0000
  0
VERTEX
  8
CAM_CONTROL
 10
5.5000
 20
2.22594
 30
0.0000
  0
SEQEND
  0
POLYLINE
  8
CAM_CONTROL
 66
1
 10
0.0000
 20
0.0000
 30
0.0000
 40
0.0020
 41
0.0020
  0
VERTEX
  8
CAM_CONTROL
 10
5.5000
 20
2.27494
 30
0.0000
  0
VERTEX
  8
CAM_CONTROL
 10
5.4510
 20
2.27494
 30
0.0000
  0
SEQEND
  0
POLYLINE
  8
CAM_CONTROL
 66
1
 10
0.0000
 20
0.0000
 30
0.0000
 40
0.0020
 41
0.0020
  0
VERTEX
  8
CAM_CONTROL
 10
5.5000
 20
2.27494
 30
0.0000
  0
VERTEX
  8
CAM_CONTROL
 10
5.5000
 20
2.32394
 30
0.0000
  0
SEQEND
  0
POLYLINE
  8
CAM_CONTROL
 66
1
 10
0.0000
 20
0.0000
 30
0.0000
 40
0.0020
 41
0.0020
  0
VERTEX
  8
CAM_CONTROL
 10
6.5000
 20
2.89994
 30
0.0000
  0
VERTEX
  8
CAM_CONTROL
 10
6.5490
 20
2.89994
 30
0.0000
  0
SEQEND
  0
POLYLINE
  8
CAM_CONTROL
 66
1
 10
0.0000
 20
0.0000
 30
0.0000
 40
0.0020
 41
0.0020
  0
VERTEX
  8
CAM_CONTROL
 10
6.5000
 20
2.89994
 30
0.0000
  0
VERTEX
  8
CAM_CONTROL
 10
6.5000
 20
2.85094
 30
0.0000
  0
SEQEND
  0
POLYLINE
  8
CAM_CONTROL
 66
1
 10
0.0000
 20
0.0000
 30
0.0000
 40
0.0020
 41
0.0020
  0
VERTEX
  8
CAM_CONTROL
 10
6.5000
 20
2.89994
 30
0.0000
  0
VERTEX
  8
CAM_CONTROL
 10
6.4510
 20
2.89994
 30
0.0000
  0
SEQEND
  0
POLYLINE
  8
CAM_CONTROL
 66
1
 10
0.0000
 20
0.0000
 30
0.0000
 40
0.0020
 41
0.0020
  0
VERTEX
  8
CAM_CONTROL
 10
6.5000
 20
2.89994
 30
0.0000
  0
VERTEX
  8
CAM_CONTROL
 10
6.5000
 20
2.94894
 30
0.0000
  0
SEQEND
  0
POLYLINE
  8
CAM_CONTROL
 66
1
 10
0.0000
 20
0.0000
 30
0.0000
 40
0.0020
 41
0.0020
  0
VERTEX
  8
CAM_CONTROL
 10
6.5000
 20
3.89994
 30
0.0000
  0
VERTEX
  8
CAM_CONTROL
 10
6.5490
 20
3.89994
 30
0.0000
  0
SEQEND
  0
POLYLINE
  8
CAM_CONTROL
 66
1
 10
0.0000
 20
0.0000
 30
0.0000
 40
0.0020
 41
0.0020
  0
VERTEX
  8
CAM_CONTROL
 10
6.5000
 20
3.89994
 30
0.0000
  0
VERTEX
  8
CAM_CONTROL
 10
6.5000
 20
3.85094
 30
0.0000
  0
SEQEND
  0
POLYLINE
  8
CAM_CONTROL
 66
1
 10
0.0000
 20
0.0000
 30
0.0000
 40
0.0020
 41
0.0020
  0
VERTEX
  8
CAM_CONTROL
 10
6.5000
 20
3.89994
 30
0.0000
  0
VERTEX
  8
CAM_CONTROL
 10
6.4510
 20
3.89994
 30
0.0000
  0
SEQEND
  0
POLYLINE
  8
CAM_CONTROL
 66
1
 10
0.0000
 20
0.0000
 30
0.0000
 40
0.0020
 41
0.0020
  0
VERTEX
  8
CAM_CONTROL
 10
6.5000
 20
3.89994
 30
0.0000
  0
VERTEX
  8
CAM_CONTROL
 10
6.5000
 20
3.94894
 30
0.0000
  0
SEQEND
  0
POLYLINE
  8
CAM_CONTROL
 66
1
 10
0.0000
 20
0.0000
 30
0.0000
 40
0.0020
 41
0.0020
  0
VERTEX
  8
CAM_CONTROL
 10
5.5000
 20
4.52494
 30
0.0000
  0
VERTEX
  8
CAM_CONTROL
 10
5.5490
 20
4.52494
 30
0.0000
  0
SEQEND
  0
POLYLINE
  8
CAM_CONTROL
 66
1
 10
0.0000
 20
0.0000
 30
0.0000
 40
0.0020
 41
0.0020
  0
VERTEX
  8
CAM_CONTROL
 10
5.5000
 20
4.52494
 30
0.0000
  0
VERTEX
  8
CAM_CONTROL
 10
5.5000
 20
4.47594
 30
0.0000
  0
SEQEND
  0
POLYLINE
  8
CAM_CONTROL
 66
1
 10
0.0000
 20
0.0000
 30
0.0000
 40
0.0020
 41
0.0020
  0
VERTEX
  8
CAM_CONTROL
 10
5.5000
 20
4.52494
 30
0.0000
  0
VERTEX
  8
CAM_CONTROL
 10
5.4510
 20
4.52494
 30
0.0000
  0
SEQEND
  0
POLYLINE
  8
CAM_CONTROL
 66
1
 10
0.0000
 20
0.0000
 30
0.0000
 40
0.0020
 41
0.0020
  0
VERTEX
  8
CAM_CONTROL
 10
5.5000
 20
4.52494
 30
0.0000
  0
VERTEX
  8
CAM_CONTROL
 10
5.5000
 20
4.57394
 30
0.0000
  0
SEQEND
  0
POLYLINE
  8
CAM_CONTROL
 66
1
 10
0.0000
 20
0.0000
 30
0.0000
 40
0.0020
 41
0.0020
  0
VERTEX
  8
CAM_CONTROL
 10
4.5000
 20
4.52494
 30
0.0000
  0
VERTEX
  8
CAM_CONTROL
 10
4.5490
 20
4.52494
 30
0.0000
  0
SEQEND
  0
POLYLINE
  8
CAM_CONTROL
 66
1
 10
0.0000
 20
0.0000
 30
0.0000
 40
0.0020
 41
0.0020
  0
VERTEX
  8
CAM_CONTROL
 10
4.5000
 20
4.52494
 30
0.0000
  0
VERTEX
  8
CAM_CONTROL
 10
4.5000
 20
4.47594
 30
0.0000
  0
SEQEND
  0
POLYLINE
  8
CAM_CONTROL
 66
1
 10
0.0000
 20
0.0000
 30
0.0000
 40
0.0020
 41
0.0020
  0
VERTEX
  8
CAM_CONTROL
 10
4.5000
 20
4.52494
 30
0.0000
  0
VERTEX
  8
CAM_CONTROL
 10
4.4510
 20
4.52494
 30
0.0000
  0
SEQEND
  0
POLYLINE
  8
CAM_CONTROL
 66
1
 10
0.0000
 20
0.0000
 30
0.0000
 40
0.0020
 41
0.0020
  0
VERTEX
  8
CAM_CONTROL
 10
4.5000
 20
4.52494
 30
0.0000
  0
VERTEX
  8
CAM_CONTROL
 10
4.5000
 20
4.57394
 30
0.0000
  0
SEQEND
  0
POLYLINE
  8
CAM_CONTROL
 66
1
 10
0.0000
 20
0.0000
 30
0.0000
 40
0.0020
 41
0.0020
  0
VERTEX
  8
CAM_CONTROL
 10
3.5000
 20
4.52494
 30
0.0000
  0
VERTEX
  8
CAM_CONTROL
 10
3.5490
 20
4.52494
 30
0.0000
  0
SEQEND
  0
POLYLINE
  8
CAM_CONTROL
 66
1
 10
0.0000
 20
0.0000
 30
0.0000
 40
0.0020
 41
0.0020
  0
VERTEX
  8
CAM_CONTROL
 10
3.5000
 20
4.52494
 30
0.0000
  0
VERTEX
  8
CAM_CONTROL
 10
3.5000
 20
4.47594
 30
0.0000
  0
SEQEND
  0
POLYLINE
  8
CAM_CONTROL
 66
1
 10
0.0000
 20
0.0000
 30
0.0000
 40
0.0020
 41
0.0020
  0
VERTEX
  8
CAM_CONTROL
 10
3.5000
 20
4.52494
 30
0.0000
  0
VERTEX
  8
CAM_CONTROL
 10
3.4510
 20
4.52494
 30
0.0000
  0
SEQEND
  0
POLYLINE
  8
CAM_CONTROL
 66
1
 10
0.0000
 20
0.0000
 30
0.0000
 40
0.0020
 41
0.0020
  0
VERTEX
  8
CAM_CONTROL
 10
3.5000
 20
4.52494
 30
0.0000
  0
VERTEX
  8
CAM_CONTROL
 10
3.5000
 20
4.57394
 30
0.0000
  0
SEQEND
  0
TEXT
  8
CAM_CONTROL
 10
6.556538
 20
3.95897
 30
0.0000
 40
0.0479999
 41
0.734694
 51
0.0000
 71
0
  1
A
 50
90.0000
  7
STYLE_1
  0
TEXT
  8
CAM_CONTROL
 10
6.556538
 20
2.95897
 30
0.0000
 40
0.0479999
 41
0.734694
 51
0.0000
 71
0
  1
A
 50
90.0000
  7
STYLE_1
  0
TEXT
  8
CAM_CONTROL
 10
2.556508
 20
3.9590
 30
0.0000
 40
0.0479999
 41
0.734694
 51
0.0000
 71
0
  1
A
 50
90.0000
  7
STYLE_1
  0
TEXT
  8
CAM_CONTROL
 10
2.556508
 20
2.9590
 30
0.0000
 40
0.0479999
 41
0.734694
 51
0.0000
 71
0
  1
A
 50
90.0000
  7
STYLE_1
  0
TEXT
  8
CAM_CONTROL
 10
5.5590
 20
4.468432
 30
0.0000
 40
0.0479999
 41
0.734694
 51
0.0000
 71
0
  1
A
 50
0.0000
  7
STYLE_0
  0
TEXT
  8
CAM_CONTROL
 10
3.5590
 20
4.468432
 30
0.0000
 40
0.0479999
 41
0.734694
 51
0.0000
 71
0
  1
A
 50
0.0000
  7
STYLE_0
  0
TEXT
  8
CAM_CONTROL
 10
4.5590
 20
4.468432
 30
0.0000
 40
0.0479999
 41
0.734694
 51
0.0000
 71
0
  1
A
 50
0.0000
  7
STYLE_0
  0
TEXT
  8
CAM_CONTROL
 10
4.55902
 20
2.218402
 30
0.0000
 40
0.0479999
 41
0.734694
 51
0.0000
 71
0
  1
A
 50
0.0000
  7
STYLE_0
  0
TEXT
  8
CAM_CONTROL
 10
3.55902
 20
2.218402
 30
0.0000
 40
0.0479999
 41
0.734694
 51
0.0000
 71
0
  1
A
 50
0.0000
  7
STYLE_0
  0
TEXT
  8
CAM_CONTROL
 10
5.55902
 20
2.218402
 30
0.0000
 40
0.0479999
 41
0.734694
 51
0.0000
 71
0
  1
A
 50
0.0000
  7
STYLE_0
  0
POLYLINE
  8
CAM_CONTROL
 66
1
 10
0.0000
 20
0.0000
 30
0.0000
 40
0.0020
 41
0.0020
  0
VERTEX
  8
CAM_CONTROL
 10
2.3750
 20
2.14994
 30
0.0000
  0
VERTEX
  8
CAM_CONTROL
 10
2.3750
 20
4.64994
 30
0.0000
  0
SEQEND
  0
POLYLINE
  8
CAM_CONTROL
 66
1
 10
0.0000
 20
0.0000
 30
0.0000
 40
0.0020
 41
0.0020
  0
VERTEX
  8
CAM_CONTROL
 10
6.6250
 20
2.14994
 30
0.0000
  0
VERTEX
  8
CAM_CONTROL
 10
2.3750
 20
2.14994
 30
0.0000
  0
SEQEND
  0
POLYLINE
  8
CAM_CONTROL
 66
1
 10
0.0000
 20
0.0000
 30
0.0000
 40
0.0020
 41
0.0020
  0
VERTEX
  8
CAM_CONTROL
 10
6.6250
 20
4.64994
 30
0.0000
  0
VERTEX
  8
CAM_CONTROL
 10
6.6250
 20
2.14994
 30
0.0000
  0
SEQEND
  0
POLYLINE
  8
CAM_CONTROL
 66
1
 10
0.0000
 20
0.0000
 30
0.0000
 40
0.0020
 41
0.0020
  0
VERTEX
  8
CAM_CONTROL
 10
2.3750
 20
4.64994
 30
0.0000
  0
VERTEX
  8
CAM_CONTROL
 10
6.6250
 20
4.64994
 30
0.0000
  0
SEQEND
  0
ENDSEC
  0
EOF
