  0
SECTION
  2
HEADER
  9
$EXTMIN
 10
-0.0050
 20
-0.0050
 30
0.0000
  9
$EXTMAX
 10
6.1825
 20
3.4775
 30
0.0000
  0
ENDSEC
  0
SECTION
  2
TABLES
  0
TABLE
  2
LTYPE
 70
3
  0
LTYPE
  2
BYBLOCK
 70
0
  3

 72
65
 73
0
 40
0.0000
  0
LTYPE
  2
BYLAYER
 70
0
  3

 72
65
 73
0
 40
0.0000
  0
LTYPE
  2
CONTINUOUS
 70
0
  3
Solid line
 72
65
 73
0
 40
0.0000
  0
ENDTAB
  0
TABLE
  2
LAYER
 70
2
  0
LAYER
  2
0
 70
0
 62
7
  6
CONTINUOUS
  0
LAYER
  2
LPF39_DRD
 70
0
 62
6
  6
CONTINUOUS
  0
LAYER
  2
LPF39_SMT
 70
0
 62
1
  6
CONTINUOUS
  0
ENDTAB
  0
TABLE
  2
STYLE
 70
2
  0
STYLE
  2
STYLE_0
 70
0
 40
0.065625
 41
1.0000
 50
0.0000
 71
0
 42
0.1000
  3
TXT
  0
STYLE
  2
STYLE_1
 70
0
 40
0.0492187
 41
1.0000
 50
0.0000
 71
0
 42
0.0750
  3
TXT
  0
ENDTAB
  0
ENDSEC
  0
SECTION
  2
BLOCKS
  0
BLOCK
  2
ROUND_1
  3
ROUND_1
 70
64
 10
0.0000
 20
0.0000
 30
0.0000
  0
CIRCLE
  8
0
 10
0.0000
 20
0.0000
 30
0.0000
 40
0.0110
  0
ENDBLK
  0
BLOCK
  2
ROUND_5
  3
ROUND_5
 70
64
 10
0.0000
 20
0.0000
 30
0.0000
  0
CIRCLE
  8
0
 10
0.0000
 20
0.0000
 30
0.0000
 40
0.0050
  0
ENDBLK
  0
BLOCK
  2
ROUND_6
  3
ROUND_6
 70
64
 10
0.0000
 20
0.0000
 30
0.0000
  0
CIRCLE
  8
0
 10
0.0000
 20
0.0000
 30
0.0000
 40
0.0275
  0
ENDBLK
  0
BLOCK
  2
ROUND_17
  3
ROUND_17
 70
64
 10
0.0000
 20
0.0000
 30
0.0000
  0
CIRCLE
  8
0
 10
0.0000
 20
0.0000
 30
0.0000
 40
0.0030
  0
ENDBLK
  0
ENDSEC
  0
SECTION
  2
ENTITIES
  0
POLYLINE
  8
LPF39_DRD
 66
1
 10
0.0000
 20
0.0000
 30
0.0000
 40
0.0100
 41
0.0100
  0
VERTEX
  8
LPF39_DRD
 10
6.0358
 20
1.4138
 30
0.0000
  0
VERTEX
  8
LPF39_DRD
 10
6.0441
 20
1.4221
 30
0.0000
  0
SEQEND
  0
POLYLINE
  8
LPF39_DRD
 66
1
 10
0.0000
 20
0.0000
 30
0.0000
 40
0.0100
 41
0.0100
  0
VERTEX
  8
LPF39_DRD
 10
6.0441
 20
1.4222
 30
0.0000
  0
VERTEX
  8
LPF39_DRD
 10
6.0525
 20
1.4263
 30
0.0000
  0
VERTEX
  8
LPF39_DRD
 10
6.0692
 20
1.4263
 30
0.0000
  0
VERTEX
  8
LPF39_DRD
 10
6.0775
 20
1.4221
 30
0.0000
  0
SEQEND
  0
POLYLINE
  8
LPF39_DRD
 66
1
 10
0.0000
 20
0.0000
 30
0.0000
 40
0.0100
 41
0.0100
  0
VERTEX
  8
LPF39_DRD
 10
6.0775
 20
1.4222
 30
0.0000
  0
VERTEX
  8
LPF39_DRD
 10
6.0858
 20
1.4138
 30
0.0000
  0
VERTEX
  8
LPF39_DRD
 10
6.0858
 20
1.4055
 30
0.0000
  0
VERTEX
  8
LPF39_DRD
 10
6.0775
 20
1.3971
 30
0.0000
  0
SEQEND
  0
POLYLINE
  8
LPF39_DRD
 66
1
 10
0.0000
 20
0.0000
 30
0.0000
 40
0.0100
 41
0.0100
  0
VERTEX
  8
LPF39_DRD
 10
6.0775
 20
1.3972
 30
0.0000
  0
VERTEX
  8
LPF39_DRD
 10
6.0692
 20
1.3930
 30
0.0000
  0
VERTEX
  8
LPF39_DRD
 10
6.0525
 20
1.3930
 30
0.0000
  0
VERTEX
  8
LPF39_DRD
 10
6.0441
 20
1.3971
 30
0.0000
  0
SEQEND
  0
POLYLINE
  8
LPF39_DRD
 66
1
 10
0.0000
 20
0.0000
 30
0.0000
 40
0.0100
 41
0.0100
  0
VERTEX
  8
LPF39_DRD
 10
6.0441
 20
1.3972
 30
0.0000
  0
VERTEX
  8
LPF39_DRD
 10
6.0358
 20
1.4055
 30
0.0000
  0
VERTEX
  8
LPF39_DRD
 10
6.0358
 20
1.4138
 30
0.0000
  0
SEQEND
  0
POLYLINE
  8
LPF39_DRD
 66
1
 10
0.0000
 20
0.0000
 30
0.0000
 40
0.0100
 41
0.0100
  0
VERTEX
  8
LPF39_DRD
 10
6.0358
 20
1.4713
 30
0.0000
  0
VERTEX
  8
LPF39_DRD
 10
6.0441
 20
1.4796
 30
0.0000
  0
SEQEND
  0
POLYLINE
  8
LPF39_DRD
 66
1
 10
0.0000
 20
0.0000
 30
0.0000
 40
0.0100
 41
0.0100
  0
VERTEX
  8
LPF39_DRD
 10
6.0441
 20
1.4797
 30
0.0000
  0
VERTEX
  8
LPF39_DRD
 10
6.0525
 20
1.4838
 30
0.0000
  0
VERTEX
  8
LPF39_DRD
 10
6.0692
 20
1.4838
 30
0.0000
  0
VERTEX
  8
LPF39_DRD
 10
6.0775
 20
1.4796
 30
0.0000
  0
SEQEND
  0
POLYLINE
  8
LPF39_DRD
 66
1
 10
0.0000
 20
0.0000
 30
0.0000
 40
0.0100
 41
0.0100
  0
VERTEX
  8
LPF39_DRD
 10
6.0775
 20
1.4797
 30
0.0000
  0
VERTEX
  8
LPF39_DRD
 10
6.0858
 20
1.4713
 30
0.0000
  0
VERTEX
  8
LPF39_DRD
 10
6.0858
 20
1.4630
 30
0.0000
  0
VERTEX
  8
LPF39_DRD
 10
6.0775
 20
1.4546
 30
0.0000
  0
SEQEND
  0
POLYLINE
  8
LPF39_DRD
 66
1
 10
0.0000
 20
0.0000
 30
0.0000
 40
0.0100
 41
0.0100
  0
VERTEX
  8
LPF39_DRD
 10
6.0775
 20
1.4547
 30
0.0000
  0
VERTEX
  8
LPF39_DRD
 10
6.0692
 20
1.4505
 30
0.0000
  0
VERTEX
  8
LPF39_DRD
 10
6.0525
 20
1.4505
 30
0.0000
  0
VERTEX
  8
LPF39_DRD
 10
6.0441
 20
1.4546
 30
0.0000
  0
SEQEND
  0
POLYLINE
  8
LPF39_DRD
 66
1
 10
0.0000
 20
0.0000
 30
0.0000
 40
0.0100
 41
0.0100
  0
VERTEX
  8
LPF39_DRD
 10
6.0441
 20
1.4547
 30
0.0000
  0
VERTEX
  8
LPF39_DRD
 10
6.0358
 20
1.4630
 30
0.0000
  0
VERTEX
  8
LPF39_DRD
 10
6.0358
 20
1.4713
 30
0.0000
  0
SEQEND
  0
POLYLINE
  8
LPF39_DRD
 66
1
 10
0.0000
 20
0.0000
 30
0.0000
 40
0.0100
 41
0.0100
  0
VERTEX
  8
LPF39_DRD
 10
6.0358
 20
1.5288
 30
0.0000
  0
VERTEX
  8
LPF39_DRD
 10
6.0441
 20
1.5371
 30
0.0000
  0
SEQEND
  0
POLYLINE
  8
LPF39_DRD
 66
1
 10
0.0000
 20
0.0000
 30
0.0000
 40
0.0100
 41
0.0100
  0
VERTEX
  8
LPF39_DRD
 10
6.0441
 20
1.5372
 30
0.0000
  0
VERTEX
  8
LPF39_DRD
 10
6.0525
 20
1.5413
 30
0.0000
  0
VERTEX
  8
LPF39_DRD
 10
6.0692
 20
1.5413
 30
0.0000
  0
VERTEX
  8
LPF39_DRD
 10
6.0775
 20
1.5371
 30
0.0000
  0
SEQEND
  0
POLYLINE
  8
LPF39_DRD
 66
1
 10
0.0000
 20
0.0000
 30
0.0000
 40
0.0100
 41
0.0100
  0
VERTEX
  8
LPF39_DRD
 10
6.0775
 20
1.5372
 30
0.0000
  0
VERTEX
  8
LPF39_DRD
 10
6.0858
 20
1.5288
 30
0.0000
  0
VERTEX
  8
LPF39_DRD
 10
6.0858
 20
1.5205
 30
0.0000
  0
VERTEX
  8
LPF39_DRD
 10
6.0775
 20
1.5121
 30
0.0000
  0
SEQEND
  0
POLYLINE
  8
LPF39_DRD
 66
1
 10
0.0000
 20
0.0000
 30
0.0000
 40
0.0100
 41
0.0100
  0
VERTEX
  8
LPF39_DRD
 10
6.0775
 20
1.5122
 30
0.0000
  0
VERTEX
  8
LPF39_DRD
 10
6.0692
 20
1.5080
 30
0.0000
  0
VERTEX
  8
LPF39_DRD
 10
6.0525
 20
1.5080
 30
0.0000
  0
VERTEX
  8
LPF39_DRD
 10
6.0441
 20
1.5121
 30
0.0000
  0
SEQEND
  0
POLYLINE
  8
LPF39_DRD
 66
1
 10
0.0000
 20
0.0000
 30
0.0000
 40
0.0100
 41
0.0100
  0
VERTEX
  8
LPF39_DRD
 10
6.0441
 20
1.5122
 30
0.0000
  0
VERTEX
  8
LPF39_DRD
 10
6.0358
 20
1.5205
 30
0.0000
  0
VERTEX
  8
LPF39_DRD
 10
6.0358
 20
1.5288
 30
0.0000
  0
SEQEND
  0
POLYLINE
  8
LPF39_DRD
 66
1
 10
0.0000
 20
0.0000
 30
0.0000
 40
0.0100
 41
0.0100
  0
VERTEX
  8
LPF39_DRD
 10
6.0441
 20
1.5988
 30
0.0000
  0
VERTEX
  8
LPF39_DRD
 10
6.0358
 20
1.5905
 30
0.0000
  0
VERTEX
  8
LPF39_DRD
 10
6.0358
 20
1.5738
 30
0.0000
  0
VERTEX
  8
LPF39_DRD
 10
6.0441
 20
1.5655
 30
0.0000
  0
VERTEX
  8
LPF39_DRD
 10
6.0525
 20
1.5655
 30
0.0000
  0
VERTEX
  8
LPF39_DRD
 10
6.0692
 20
1.5821
 30
0.0000
  0
VERTEX
  8
LPF39_DRD
 10
6.0858
 20
1.5655
 30
0.0000
  0
VERTEX
  8
LPF39_DRD
 10
6.0858
 20
1.5988
 30
0.0000
  0
SEQEND
  0
POLYLINE
  8
LPF39_DRD
 66
1
 10
0.0000
 20
0.0000
 30
0.0000
 40
0.0100
 41
0.0100
  0
VERTEX
  8
LPF39_DRD
 10
3.0462
 20
3.3308
 30
0.0000
  0
VERTEX
  8
LPF39_DRD
 10
3.0379
 20
3.3391
 30
0.0000
  0
VERTEX
  8
LPF39_DRD
 10
3.0337
 20
3.3475
 30
0.0000
  0
VERTEX
  8
LPF39_DRD
 10
3.0337
 20
3.3642
 30
0.0000
  0
VERTEX
  8
LPF39_DRD
 10
3.0379
 20
3.3725
 30
0.0000
  0
VERTEX
  8
LPF39_DRD
 10
3.0462
 20
3.3808
 30
0.0000
  0
VERTEX
  8
LPF39_DRD
 10
3.0546
 20
3.3808
 30
0.0000
  0
VERTEX
  8
LPF39_DRD
 10
3.0629
 20
3.3725
 30
0.0000
  0
VERTEX
  8
LPF39_DRD
 10
3.0671
 20
3.3642
 30
0.0000
  0
VERTEX
  8
LPF39_DRD
 10
3.0671
 20
3.3475
 30
0.0000
  0
VERTEX
  8
LPF39_DRD
 10
3.0629
 20
3.3391
 30
0.0000
  0
VERTEX
  8
LPF39_DRD
 10
3.0546
 20
3.3308
 30
0.0000
  0
VERTEX
  8
LPF39_DRD
 10
3.0462
 20
3.3308
 30
0.0000
  0
SEQEND
  0
POLYLINE
  8
LPF39_DRD
 66
1
 10
0.0000
 20
0.0000
 30
0.0000
 40
0.0100
 41
0.0100
  0
VERTEX
  8
LPF39_DRD
 10
3.0096
 20
3.3308
 30
0.0000
  0
VERTEX
  8
LPF39_DRD
 10
2.9762
 20
3.3308
 30
0.0000
  0
VERTEX
  8
LPF39_DRD
 10
3.0096
 20
3.3642
 30
0.0000
  0
VERTEX
  8
LPF39_DRD
 10
3.0096
 20
3.3725
 30
0.0000
  0
VERTEX
  8
LPF39_DRD
 10
3.0054
 20
3.3808
 30
0.0000
  0
VERTEX
  8
LPF39_DRD
 10
2.9804
 20
3.3808
 30
0.0000
  0
VERTEX
  8
LPF39_DRD
 10
2.9762
 20
3.3725
 30
0.0000
  0
SEQEND
  0
POLYLINE
  8
LPF39_DRD
 66
1
 10
0.0000
 20
0.0000
 30
0.0000
 40
0.0100
 41
0.0100
  0
VERTEX
  8
LPF39_DRD
 10
2.9479
 20
3.3558
 30
0.0000
  0
VERTEX
  8
LPF39_DRD
 10
2.9229
 20
3.3558
 30
0.0000
  0
VERTEX
  8
LPF39_DRD
 10
2.9187
 20
3.3642
 30
0.0000
  0
VERTEX
  8
LPF39_DRD
 10
2.9187
 20
3.3725
 30
0.0000
  0
VERTEX
  8
LPF39_DRD
 10
2.9229
 20
3.3808
 30
0.0000
  0
VERTEX
  8
LPF39_DRD
 10
2.9479
 20
3.3808
 30
0.0000
  0
VERTEX
  8
LPF39_DRD
 10
2.9521
 20
3.3725
 30
0.0000
  0
VERTEX
  8
LPF39_DRD
 10
2.9521
 20
3.3642
 30
0.0000
  0
VERTEX
  8
LPF39_DRD
 10
2.9354
 20
3.3308
 30
0.0000
  0
SEQEND
  0
POLYLINE
  8
LPF39_DRD
 66
1
 10
0.0000
 20
0.0000
 30
0.0000
 40
0.0100
 41
0.0100
  0
VERTEX
  8
LPF39_DRD
 10
2.8612
 20
3.3391
 30
0.0000
  0
VERTEX
  8
LPF39_DRD
 10
2.8654
 20
3.3308
 30
0.0000
  0
VERTEX
  8
LPF39_DRD
 10
2.8904
 20
3.3308
 30
0.0000
  0
VERTEX
  8
LPF39_DRD
 10
2.8946
 20
3.3391
 30
0.0000
  0
VERTEX
  8
LPF39_DRD
 10
2.8946
 20
3.3558
 30
0.0000
  0
VERTEX
  8
LPF39_DRD
 10
2.8862
 20
3.3642
 30
0.0000
  0
VERTEX
  8
LPF39_DRD
 10
2.8612
 20
3.3642
 30
0.0000
  0
VERTEX
  8
LPF39_DRD
 10
2.8612
 20
3.3808
 30
0.0000
  0
VERTEX
  8
LPF39_DRD
 10
2.8946
 20
3.3808
 30
0.0000
  0
SEQEND
  0
POLYLINE
  8
LPF39_DRD
 66
1
 10
0.0000
 20
0.0000
 30
0.0000
 40
0.0100
 41
0.0100
  0
VERTEX
  8
LPF39_DRD
 10
5.9200
 20
3.2475
 30
0.0000
  0
VERTEX
  8
LPF39_DRD
 10
5.9200
 20
3.4725
 30
0.0000
  0
SEQEND
  0
POLYLINE
  8
LPF39_DRD
 66
1
 10
0.0000
 20
0.0000
 30
0.0000
 40
0.0100
 41
0.0100
  0
VERTEX
  8
LPF39_DRD
 10
3.1192
 20
3.3600
 30
0.0000
  0
VERTEX
  8
LPF39_DRD
 10
5.9200
 20
3.3600
 30
0.0000
  0
SEQEND
  0
POLYLINE
  8
LPF39_DRD
 66
1
 10
0.0000
 20
0.0000
 30
0.0000
 40
0.0100
 41
0.0100
  0
VERTEX
  8
LPF39_DRD
 10
5.8638
 20
3.3787
 30
0.0000
  0
VERTEX
  8
LPF39_DRD
 10
5.9200
 20
3.3600
 30
0.0000
  0
VERTEX
  8
LPF39_DRD
 10
5.8638
 20
3.3412
 30
0.0000
  0
SEQEND
  0
POLYLINE
  8
LPF39_DRD
 66
1
 10
0.0000
 20
0.0000
 30
0.0000
 40
0.0100
 41
0.0100
  0
VERTEX
  8
LPF39_DRD
 10
0.0000
 20
3.2475
 30
0.0000
  0
VERTEX
  8
LPF39_DRD
 10
0.0000
 20
3.4725
 30
0.0000
  0
SEQEND
  0
POLYLINE
  8
LPF39_DRD
 66
1
 10
0.0000
 20
0.0000
 30
0.0000
 40
0.0100
 41
0.0100
  0
VERTEX
  8
LPF39_DRD
 10
2.8008
 20
3.3600
 30
0.0000
  0
VERTEX
  8
LPF39_DRD
 10
0.0000
 20
3.3600
 30
0.0000
  0
SEQEND
  0
POLYLINE
  8
LPF39_DRD
 66
1
 10
0.0000
 20
0.0000
 30
0.0000
 40
0.0100
 41
0.0100
  0
VERTEX
  8
LPF39_DRD
 10
0.0562
 20
3.3412
 30
0.0000
  0
VERTEX
  8
LPF39_DRD
 10
0.0000
 20
3.3600
 30
0.0000
  0
VERTEX
  8
LPF39_DRD
 10
0.0562
 20
3.3787
 30
0.0000
  0
SEQEND
  0
POLYLINE
  8
LPF39_DRD
 66
1
 10
0.0000
 20
0.0000
 30
0.0000
 40
0.0100
 41
0.0100
  0
VERTEX
  8
LPF39_DRD
 10
5.9525
 20
0.0001
 30
0.0000
  0
VERTEX
  8
LPF39_DRD
 10
6.1775
 20
0.0001
 30
0.0000
  0
SEQEND
  0
POLYLINE
  8
LPF39_DRD
 66
1
 10
0.0000
 20
0.0000
 30
0.0000
 40
0.0100
 41
0.0100
  0
VERTEX
  8
LPF39_DRD
 10
6.0650
 20
1.3409
 30
0.0000
  0
VERTEX
  8
LPF39_DRD
 10
6.0650
 20
0.0001
 30
0.0000
  0
SEQEND
  0
POLYLINE
  8
LPF39_DRD
 66
1
 10
0.0000
 20
0.0000
 30
0.0000
 40
0.0100
 41
0.0100
  0
VERTEX
  8
LPF39_DRD
 10
6.0837
 20
0.0564
 30
0.0000
  0
VERTEX
  8
LPF39_DRD
 10
6.0650
 20
0.0001
 30
0.0000
  0
VERTEX
  8
LPF39_DRD
 10
6.0462
 20
0.0564
 30
0.0000
  0
SEQEND
  0
POLYLINE
  8
LPF39_DRD
 66
1
 10
0.0000
 20
0.0000
 30
0.0000
 40
0.0100
 41
0.0100
  0
VERTEX
  8
LPF39_DRD
 10
5.9525
 20
3.0000
 30
0.0000
  0
VERTEX
  8
LPF39_DRD
 10
6.1775
 20
3.0000
 30
0.0000
  0
SEQEND
  0
POLYLINE
  8
LPF39_DRD
 66
1
 10
0.0000
 20
0.0000
 30
0.0000
 40
0.0100
 41
0.0100
  0
VERTEX
  8
LPF39_DRD
 10
6.0650
 20
1.6592
 30
0.0000
  0
VERTEX
  8
LPF39_DRD
 10
6.0650
 20
3.0000
 30
0.0000
  0
SEQEND
  0
POLYLINE
  8
LPF39_DRD
 66
1
 10
0.0000
 20
0.0000
 30
0.0000
 40
0.0100
 41
0.0100
  0
VERTEX
  8
LPF39_DRD
 10
6.0462
 20
2.9437
 30
0.0000
  0
VERTEX
  8
LPF39_DRD
 10
6.0650
 20
3.0000
 30
0.0000
  0
VERTEX
  8
LPF39_DRD
 10
6.0837
 20
2.9437
 30
0.0000
  0
SEQEND
  0
POLYLINE
  8
LPF39_DRD
 66
1
 10
0.0000
 20
0.0000
 30
0.0000
 40
0.0100
 41
0.0100
  0
VERTEX
  8
LPF39_DRD
 10
4.3900
 20
3.0000
 30
0.0000
  0
VERTEX
  8
LPF39_DRD
 10
0.0000
 20
3.0000
 30
0.0000
  0
VERTEX
  8
LPF39_DRD
 10
0.0000
 20
0.0000
 30
0.0000
  0
VERTEX
  8
LPF39_DRD
 10
2.5600
 20
0.0000
 30
0.0000
  0
VERTEX
  8
LPF39_DRD
 10
2.5600
 20
0.4650
 30
0.0000
  0
VERTEX
  8
LPF39_DRD
 10
3.6350
 20
0.4650
 30
0.0000
  0
VERTEX
  8
LPF39_DRD
 10
3.6350
 20
0.0000
 30
0.0000
  0
VERTEX
  8
LPF39_DRD
 10
5.9200
 20
0.0000
 30
0.0000
  0
VERTEX
  8
LPF39_DRD
 10
5.9200
 20
3.0000
 30
0.0000
  0
VERTEX
  8
LPF39_DRD
 10
4.3900
 20
3.0000
 30
0.0000
  0
SEQEND
  0
POLYLINE
  8
LPF39_DRD
 66
1
 10
0.0000
 20
0.0000
 30
0.0000
 40
0.0100
 41
0.0100
  0
VERTEX
  8
LPF39_DRD
 10
1.5050
 20
0.2000
 30
0.0000
  0
VERTEX
  8
LPF39_DRD
 10
1.5050
 20
0.1500
 30
0.0000
  0
SEQEND
  0
POLYLINE
  8
LPF39_DRD
 66
1
 10
0.0000
 20
0.0000
 30
0.0000
 40
0.0100
 41
0.0100
  0
VERTEX
  8
LPF39_DRD
 10
1.5550
 20
0.2000
 30
0.0000
  0
VERTEX
  8
LPF39_DRD
 10
1.5050
 20
0.2000
 30
0.0000
  0
SEQEND
  0
POLYLINE
  8
LPF39_DRD
 66
1
 10
0.0000
 20
0.0000
 30
0.0000
 40
0.0100
 41
0.0100
  0
VERTEX
  8
LPF39_DRD
 10
1.5550
 20
0.1500
 30
0.0000
  0
VERTEX
  8
LPF39_DRD
 10
1.5550
 20
0.2000
 30
0.0000
  0
SEQEND
  0
POLYLINE
  8
LPF39_DRD
 66
1
 10
0.0000
 20
0.0000
 30
0.0000
 40
0.0100
 41
0.0100
  0
VERTEX
  8
LPF39_DRD
 10
1.5050
 20
0.1500
 30
0.0000
  0
VERTEX
  8
LPF39_DRD
 10
1.5550
 20
0.1500
 30
0.0000
  0
SEQEND
  0
POLYLINE
  8
LPF39_DRD
 66
1
 10
0.0000
 20
0.0000
 30
0.0000
 40
0.0100
 41
0.0100
  0
VERTEX
  8
LPF39_DRD
 10
1.5550
 20
0.2000
 30
0.0000
  0
VERTEX
  8
LPF39_DRD
 10
1.5050
 20
0.1500
 30
0.0000
  0
SEQEND
  0
POLYLINE
  8
LPF39_DRD
 66
1
 10
0.0000
 20
0.0000
 30
0.0000
 40
0.0100
 41
0.0100
  0
VERTEX
  8
LPF39_DRD
 10
1.5550
 20
0.1500
 30
0.0000
  0
VERTEX
  8
LPF39_DRD
 10
1.5050
 20
0.2000
 30
0.0000
  0
SEQEND
  0
POLYLINE
  8
LPF39_DRD
 66
1
 10
0.0000
 20
0.0000
 30
0.0000
 40
0.0100
 41
0.0100
  0
VERTEX
  8
LPF39_DRD
 10
3.8850
 20
0.7800
 30
0.0000
  0
VERTEX
  8
LPF39_DRD
 10
3.8350
 20
0.7300
 30
0.0000
  0
SEQEND
  0
POLYLINE
  8
LPF39_DRD
 66
1
 10
0.0000
 20
0.0000
 30
0.0000
 40
0.0100
 41
0.0100
  0
VERTEX
  8
LPF39_DRD
 10
3.8850
 20
0.7300
 30
0.0000
  0
VERTEX
  8
LPF39_DRD
 10
3.8350
 20
0.7800
 30
0.0000
  0
SEQEND
  0
POLYLINE
  8
LPF39_DRD
 66
1
 10
0.0000
 20
0.0000
 30
0.0000
 40
0.0100
 41
0.0100
  0
VERTEX
  8
LPF39_DRD
 10
5.7350
 20
0.2250
 30
0.0000
  0
VERTEX
  8
LPF39_DRD
 10
5.6850
 20
0.1750
 30
0.0000
  0
SEQEND
  0
POLYLINE
  8
LPF39_DRD
 66
1
 10
0.0000
 20
0.0000
 30
0.0000
 40
0.0100
 41
0.0100
  0
VERTEX
  8
LPF39_DRD
 10
5.7350
 20
0.1750
 30
0.0000
  0
VERTEX
  8
LPF39_DRD
 10
5.6850
 20
0.2250
 30
0.0000
  0
SEQEND
  0
POLYLINE
  8
LPF39_DRD
 66
1
 10
0.0000
 20
0.0000
 30
0.0000
 40
0.0100
 41
0.0100
  0
VERTEX
  8
LPF39_DRD
 10
1.6900
 20
2.8250
 30
0.0000
  0
VERTEX
  8
LPF39_DRD
 10
1.6900
 20
2.7750
 30
0.0000
  0
SEQEND
  0
POLYLINE
  8
LPF39_DRD
 66
1
 10
0.0000
 20
0.0000
 30
0.0000
 40
0.0100
 41
0.0100
  0
VERTEX
  8
LPF39_DRD
 10
1.7400
 20
2.8250
 30
0.0000
  0
VERTEX
  8
LPF39_DRD
 10
1.6900
 20
2.8250
 30
0.0000
  0
SEQEND
  0
POLYLINE
  8
LPF39_DRD
 66
1
 10
0.0000
 20
0.0000
 30
0.0000
 40
0.0100
 41
0.0100
  0
VERTEX
  8
LPF39_DRD
 10
1.7400
 20
2.7750
 30
0.0000
  0
VERTEX
  8
LPF39_DRD
 10
1.7400
 20
2.8250
 30
0.0000
  0
SEQEND
  0
POLYLINE
  8
LPF39_DRD
 66
1
 10
0.0000
 20
0.0000
 30
0.0000
 40
0.0100
 41
0.0100
  0
VERTEX
  8
LPF39_DRD
 10
1.6900
 20
2.7750
 30
0.0000
  0
VERTEX
  8
LPF39_DRD
 10
1.7400
 20
2.7750
 30
0.0000
  0
SEQEND
  0
POLYLINE
  8
LPF39_DRD
 66
1
 10
0.0000
 20
0.0000
 30
0.0000
 40
0.0100
 41
0.0100
  0
VERTEX
  8
LPF39_DRD
 10
1.7400
 20
2.8250
 30
0.0000
  0
VERTEX
  8
LPF39_DRD
 10
1.6900
 20
2.7750
 30
0.0000
  0
SEQEND
  0
POLYLINE
  8
LPF39_DRD
 66
1
 10
0.0000
 20
0.0000
 30
0.0000
 40
0.0100
 41
0.0100
  0
VERTEX
  8
LPF39_DRD
 10
1.7400
 20
2.7750
 30
0.0000
  0
VERTEX
  8
LPF39_DRD
 10
1.6900
 20
2.8250
 30
0.0000
  0
SEQEND
  0
POLYLINE
  8
LPF39_DRD
 66
1
 10
0.0000
 20
0.0000
 30
0.0000
 40
0.0100
 41
0.0100
  0
VERTEX
  8
LPF39_DRD
 10
5.6850
 20
0.8600
 30
0.0000
  0
VERTEX
  8
LPF39_DRD
 10
5.6850
 20
0.8100
 30
0.0000
  0
SEQEND
  0
POLYLINE
  8
LPF39_DRD
 66
1
 10
0.0000
 20
0.0000
 30
0.0000
 40
0.0100
 41
0.0100
  0
VERTEX
  8
LPF39_DRD
 10
5.7350
 20
0.8600
 30
0.0000
  0
VERTEX
  8
LPF39_DRD
 10
5.6850
 20
0.8600
 30
0.0000
  0
SEQEND
  0
POLYLINE
  8
LPF39_DRD
 66
1
 10
0.0000
 20
0.0000
 30
0.0000
 40
0.0100
 41
0.0100
  0
VERTEX
  8
LPF39_DRD
 10
5.7350
 20
0.8100
 30
0.0000
  0
VERTEX
  8
LPF39_DRD
 10
5.7350
 20
0.8600
 30
0.0000
  0
SEQEND
  0
POLYLINE
  8
LPF39_DRD
 66
1
 10
0.0000
 20
0.0000
 30
0.0000
 40
0.0100
 41
0.0100
  0
VERTEX
  8
LPF39_DRD
 10
5.6850
 20
0.8100
 30
0.0000
  0
VERTEX
  8
LPF39_DRD
 10
5.7350
 20
0.8100
 30
0.0000
  0
SEQEND
  0
POLYLINE
  8
LPF39_DRD
 66
1
 10
0.0000
 20
0.0000
 30
0.0000
 40
0.0100
 41
0.0100
  0
VERTEX
  8
LPF39_DRD
 10
5.7350
 20
0.8600
 30
0.0000
  0
VERTEX
  8
LPF39_DRD
 10
5.6850
 20
0.8100
 30
0.0000
  0
SEQEND
  0
POLYLINE
  8
LPF39_DRD
 66
1
 10
0.0000
 20
0.0000
 30
0.0000
 40
0.0100
 41
0.0100
  0
VERTEX
  8
LPF39_DRD
 10
5.7350
 20
0.8100
 30
0.0000
  0
VERTEX
  8
LPF39_DRD
 10
5.6850
 20
0.8600
 30
0.0000
  0
SEQEND
  0
POLYLINE
  8
LPF39_DRD
 66
1
 10
0.0000
 20
0.0000
 30
0.0000
 40
0.0100
 41
0.0100
  0
VERTEX
  8
LPF39_DRD
 10
2.0150
 20
0.2000
 30
0.0000
  0
VERTEX
  8
LPF39_DRD
 10
1.9650
 20
0.1500
 30
0.0000
  0
SEQEND
  0
POLYLINE
  8
LPF39_DRD
 66
1
 10
0.0000
 20
0.0000
 30
0.0000
 40
0.0100
 41
0.0100
  0
VERTEX
  8
LPF39_DRD
 10
2.0150
 20
0.1500
 30
0.0000
  0
VERTEX
  8
LPF39_DRD
 10
1.9650
 20
0.2000
 30
0.0000
  0
SEQEND
  0
POLYLINE
  8
LPF39_DRD
 66
1
 10
0.0000
 20
0.0000
 30
0.0000
 40
0.0100
 41
0.0100
  0
VERTEX
  8
LPF39_DRD
 10
4.0400
 20
0.2250
 30
0.0000
  0
VERTEX
  8
LPF39_DRD
 10
4.0400
 20
0.1750
 30
0.0000
  0
SEQEND
  0
POLYLINE
  8
LPF39_DRD
 66
1
 10
0.0000
 20
0.0000
 30
0.0000
 40
0.0100
 41
0.0100
  0
VERTEX
  8
LPF39_DRD
 10
4.0900
 20
0.2250
 30
0.0000
  0
VERTEX
  8
LPF39_DRD
 10
4.0400
 20
0.2250
 30
0.0000
  0
SEQEND
  0
POLYLINE
  8
LPF39_DRD
 66
1
 10
0.0000
 20
0.0000
 30
0.0000
 40
0.0100
 41
0.0100
  0
VERTEX
  8
LPF39_DRD
 10
4.0900
 20
0.1750
 30
0.0000
  0
VERTEX
  8
LPF39_DRD
 10
4.0900
 20
0.2250
 30
0.0000
  0
SEQEND
  0
POLYLINE
  8
LPF39_DRD
 66
1
 10
0.0000
 20
0.0000
 30
0.0000
 40
0.0100
 41
0.0100
  0
VERTEX
  8
LPF39_DRD
 10
4.0400
 20
0.1750
 30
0.0000
  0
VERTEX
  8
LPF39_DRD
 10
4.0900
 20
0.1750
 30
0.0000
  0
SEQEND
  0
POLYLINE
  8
LPF39_DRD
 66
1
 10
0.0000
 20
0.0000
 30
0.0000
 40
0.0100
 41
0.0100
  0
VERTEX
  8
LPF39_DRD
 10
4.0900
 20
0.2250
 30
0.0000
  0
VERTEX
  8
LPF39_DRD
 10
4.0400
 20
0.1750
 30
0.0000
  0
SEQEND
  0
POLYLINE
  8
LPF39_DRD
 66
1
 10
0.0000
 20
0.0000
 30
0.0000
 40
0.0100
 41
0.0100
  0
VERTEX
  8
LPF39_DRD
 10
4.0900
 20
0.1750
 30
0.0000
  0
VERTEX
  8
LPF39_DRD
 10
4.0400
 20
0.2250
 30
0.0000
  0
SEQEND
  0
POLYLINE
  8
LPF39_DRD
 66
1
 10
0.0000
 20
0.0000
 30
0.0000
 40
0.0100
 41
0.0100
  0
VERTEX
  8
LPF39_DRD
 10
4.7100
 20
2.8250
 30
0.0000
  0
VERTEX
  8
LPF39_DRD
 10
4.7100
 20
2.7750
 30
0.0000
  0
SEQEND
  0
POLYLINE
  8
LPF39_DRD
 66
1
 10
0.0000
 20
0.0000
 30
0.0000
 40
0.0100
 41
0.0100
  0
VERTEX
  8
LPF39_DRD
 10
4.7600
 20
2.8250
 30
0.0000
  0
VERTEX
  8
LPF39_DRD
 10
4.7100
 20
2.8250
 30
0.0000
  0
SEQEND
  0
POLYLINE
  8
LPF39_DRD
 66
1
 10
0.0000
 20
0.0000
 30
0.0000
 40
0.0100
 41
0.0100
  0
VERTEX
  8
LPF39_DRD
 10
4.7600
 20
2.7750
 30
0.0000
  0
VERTEX
  8
LPF39_DRD
 10
4.7600
 20
2.8250
 30
0.0000
  0
SEQEND
  0
POLYLINE
  8
LPF39_DRD
 66
1
 10
0.0000
 20
0.0000
 30
0.0000
 40
0.0100
 41
0.0100
  0
VERTEX
  8
LPF39_DRD
 10
4.7100
 20
2.7750
 30
0.0000
  0
VERTEX
  8
LPF39_DRD
 10
4.7600
 20
2.7750
 30
0.0000
  0
SEQEND
  0
POLYLINE
  8
LPF39_DRD
 66
1
 10
0.0000
 20
0.0000
 30
0.0000
 40
0.0100
 41
0.0100
  0
VERTEX
  8
LPF39_DRD
 10
4.7600
 20
2.8250
 30
0.0000
  0
VERTEX
  8
LPF39_DRD
 10
4.7100
 20
2.7750
 30
0.0000
  0
SEQEND
  0
POLYLINE
  8
LPF39_DRD
 66
1
 10
0.0000
 20
0.0000
 30
0.0000
 40
0.0100
 41
0.0100
  0
VERTEX
  8
LPF39_DRD
 10
4.7600
 20
2.7750
 30
0.0000
  0
VERTEX
  8
LPF39_DRD
 10
4.7100
 20
2.8250
 30
0.0000
  0
SEQEND
  0
POLYLINE
  8
LPF39_DRD
 66
1
 10
0.0000
 20
0.0000
 30
0.0000
 40
0.0100
 41
0.0100
  0
VERTEX
  8
LPF39_DRD
 10
2.3050
 20
1.2100
 30
0.0000
  0
VERTEX
  8
LPF39_DRD
 10
2.3050
 20
1.1600
 30
0.0000
  0
SEQEND
  0
POLYLINE
  8
LPF39_DRD
 66
1
 10
0.0000
 20
0.0000
 30
0.0000
 40
0.0100
 41
0.0100
  0
VERTEX
  8
LPF39_DRD
 10
2.3550
 20
1.2100
 30
0.0000
  0
VERTEX
  8
LPF39_DRD
 10
2.3050
 20
1.2100
 30
0.0000
  0
SEQEND
  0
POLYLINE
  8
LPF39_DRD
 66
1
 10
0.0000
 20
0.0000
 30
0.0000
 40
0.0100
 41
0.0100
  0
VERTEX
  8
LPF39_DRD
 10
2.3550
 20
1.1600
 30
0.0000
  0
VERTEX
  8
LPF39_DRD
 10
2.3550
 20
1.2100
 30
0.0000
  0
SEQEND
  0
POLYLINE
  8
LPF39_DRD
 66
1
 10
0.0000
 20
0.0000
 30
0.0000
 40
0.0100
 41
0.0100
  0
VERTEX
  8
LPF39_DRD
 10
2.3050
 20
1.1600
 30
0.0000
  0
VERTEX
  8
LPF39_DRD
 10
2.3550
 20
1.1600
 30
0.0000
  0
SEQEND
  0
POLYLINE
  8
LPF39_DRD
 66
1
 10
0.0000
 20
0.0000
 30
0.0000
 40
0.0100
 41
0.0100
  0
VERTEX
  8
LPF39_DRD
 10
2.3550
 20
1.2100
 30
0.0000
  0
VERTEX
  8
LPF39_DRD
 10
2.3050
 20
1.1600
 30
0.0000
  0
SEQEND
  0
POLYLINE
  8
LPF39_DRD
 66
1
 10
0.0000
 20
0.0000
 30
0.0000
 40
0.0100
 41
0.0100
  0
VERTEX
  8
LPF39_DRD
 10
2.3550
 20
1.1600
 30
0.0000
  0
VERTEX
  8
LPF39_DRD
 10
2.3050
 20
1.2100
 30
0.0000
  0
SEQEND
  0
POLYLINE
  8
LPF39_DRD
 66
1
 10
0.0000
 20
0.0000
 30
0.0000
 40
0.0100
 41
0.0100
  0
VERTEX
  8
LPF39_DRD
 10
0.1800
 20
2.2850
 30
0.0000
  0
VERTEX
  8
LPF39_DRD
 10
0.1800
 20
2.2350
 30
0.0000
  0
SEQEND
  0
POLYLINE
  8
LPF39_DRD
 66
1
 10
0.0000
 20
0.0000
 30
0.0000
 40
0.0100
 41
0.0100
  0
VERTEX
  8
LPF39_DRD
 10
0.2300
 20
2.2850
 30
0.0000
  0
VERTEX
  8
LPF39_DRD
 10
0.1800
 20
2.2850
 30
0.0000
  0
SEQEND
  0
POLYLINE
  8
LPF39_DRD
 66
1
 10
0.0000
 20
0.0000
 30
0.0000
 40
0.0100
 41
0.0100
  0
VERTEX
  8
LPF39_DRD
 10
0.2300
 20
2.2350
 30
0.0000
  0
VERTEX
  8
LPF39_DRD
 10
0.2300
 20
2.2850
 30
0.0000
  0
SEQEND
  0
POLYLINE
  8
LPF39_DRD
 66
1
 10
0.0000
 20
0.0000
 30
0.0000
 40
0.0100
 41
0.0100
  0
VERTEX
  8
LPF39_DRD
 10
0.1800
 20
2.2350
 30
0.0000
  0
VERTEX
  8
LPF39_DRD
 10
0.2300
 20
2.2350
 30
0.0000
  0
SEQEND
  0
POLYLINE
  8
LPF39_DRD
 66
1
 10
0.0000
 20
0.0000
 30
0.0000
 40
0.0100
 41
0.0100
  0
VERTEX
  8
LPF39_DRD
 10
0.2300
 20
2.2850
 30
0.0000
  0
VERTEX
  8
LPF39_DRD
 10
0.1800
 20
2.2350
 30
0.0000
  0
SEQEND
  0
POLYLINE
  8
LPF39_DRD
 66
1
 10
0.0000
 20
0.0000
 30
0.0000
 40
0.0100
 41
0.0100
  0
VERTEX
  8
LPF39_DRD
 10
0.2300
 20
2.2350
 30
0.0000
  0
VERTEX
  8
LPF39_DRD
 10
0.1800
 20
2.2850
 30
0.0000
  0
SEQEND
  0
POLYLINE
  8
LPF39_DRD
 66
1
 10
0.0000
 20
0.0000
 30
0.0000
 40
0.0100
 41
0.0100
  0
VERTEX
  8
LPF39_DRD
 10
2.7600
 20
0.2450
 30
0.0000
  0
VERTEX
  8
LPF39_DRD
 10
2.7100
 20
0.2450
 30
0.0000
  0
SEQEND
  0
POLYLINE
  8
LPF39_DRD
 66
1
 10
0.0000
 20
0.0000
 30
0.0000
 40
0.0100
 41
0.0100
  0
VERTEX
  8
LPF39_DRD
 10
2.7350
 20
0.2700
 30
0.0000
  0
VERTEX
  8
LPF39_DRD
 10
2.7350
 20
0.2200
 30
0.0000
  0
SEQEND
  0
POLYLINE
  8
LPF39_DRD
 66
1
 10
0.0000
 20
0.0000
 30
0.0000
 40
0.0100
 41
0.0100
  0
VERTEX
  8
LPF39_DRD
 10
3.4850
 20
0.2450
 30
0.0000
  0
VERTEX
  8
LPF39_DRD
 10
3.4350
 20
0.2450
 30
0.0000
  0
SEQEND
  0
POLYLINE
  8
LPF39_DRD
 66
1
 10
0.0000
 20
0.0000
 30
0.0000
 40
0.0100
 41
0.0100
  0
VERTEX
  8
LPF39_DRD
 10
3.4600
 20
0.2700
 30
0.0000
  0
VERTEX
  8
LPF39_DRD
 10
3.4600
 20
0.2200
 30
0.0000
  0
SEQEND
  0
POLYLINE
  8
LPF39_DRD
 66
1
 10
0.0000
 20
0.0000
 30
0.0000
 40
0.0100
 41
0.0100
  0
VERTEX
  8
LPF39_DRD
 10
2.7800
 20
2.8000
 30
0.0000
  0
VERTEX
  8
LPF39_DRD
 10
2.7300
 20
2.7500
 30
0.0000
  0
SEQEND
  0
POLYLINE
  8
LPF39_DRD
 66
1
 10
0.0000
 20
0.0000
 30
0.0000
 40
0.0100
 41
0.0100
  0
VERTEX
  8
LPF39_DRD
 10
2.7800
 20
2.7500
 30
0.0000
  0
VERTEX
  8
LPF39_DRD
 10
2.7300
 20
2.8000
 30
0.0000
  0
SEQEND
  0
POLYLINE
  8
LPF39_DRD
 66
1
 10
0.0000
 20
0.0000
 30
0.0000
 40
0.0100
 41
0.0100
  0
VERTEX
  8
LPF39_DRD
 10
2.7800
 20
1.2750
 30
0.0000
  0
VERTEX
  8
LPF39_DRD
 10
2.7300
 20
1.2250
 30
0.0000
  0
SEQEND
  0
POLYLINE
  8
LPF39_DRD
 66
1
 10
0.0000
 20
0.0000
 30
0.0000
 40
0.0100
 41
0.0100
  0
VERTEX
  8
LPF39_DRD
 10
2.7800
 20
1.2250
 30
0.0000
  0
VERTEX
  8
LPF39_DRD
 10
2.7300
 20
1.2750
 30
0.0000
  0
SEQEND
  0
POLYLINE
  8
LPF39_DRD
 66
1
 10
0.0000
 20
0.0000
 30
0.0000
 40
0.0100
 41
0.0100
  0
VERTEX
  8
LPF39_DRD
 10
5.3850
 20
2.8000
 30
0.0000
  0
VERTEX
  8
LPF39_DRD
 10
5.3350
 20
2.7500
 30
0.0000
  0
SEQEND
  0
POLYLINE
  8
LPF39_DRD
 66
1
 10
0.0000
 20
0.0000
 30
0.0000
 40
0.0100
 41
0.0100
  0
VERTEX
  8
LPF39_DRD
 10
5.3850
 20
2.7500
 30
0.0000
  0
VERTEX
  8
LPF39_DRD
 10
5.3350
 20
2.8000
 30
0.0000
  0
SEQEND
  0
POLYLINE
  8
LPF39_DRD
 66
1
 10
0.0000
 20
0.0000
 30
0.0000
 40
0.0100
 41
0.0100
  0
VERTEX
  8
LPF39_DRD
 10
5.1850
 20
1.2150
 30
0.0000
  0
VERTEX
  8
LPF39_DRD
 10
5.1350
 20
1.1650
 30
0.0000
  0
SEQEND
  0
POLYLINE
  8
LPF39_DRD
 66
1
 10
0.0000
 20
0.0000
 30
0.0000
 40
0.0100
 41
0.0100
  0
VERTEX
  8
LPF39_DRD
 10
5.1850
 20
1.1650
 30
0.0000
  0
VERTEX
  8
LPF39_DRD
 10
5.1350
 20
1.2150
 30
0.0000
  0
SEQEND
  0
POLYLINE
  8
LPF39_DRD
 66
1
 10
0.0000
 20
0.0000
 30
0.0000
 40
0.0100
 41
0.0100
  0
VERTEX
  8
LPF39_DRD
 10
0.7800
 20
0.2000
 30
0.0000
  0
VERTEX
  8
LPF39_DRD
 10
0.7300
 20
0.1500
 30
0.0000
  0
SEQEND
  0
POLYLINE
  8
LPF39_DRD
 66
1
 10
0.0000
 20
0.0000
 30
0.0000
 40
0.0100
 41
0.0100
  0
VERTEX
  8
LPF39_DRD
 10
0.7800
 20
0.1500
 30
0.0000
  0
VERTEX
  8
LPF39_DRD
 10
0.7300
 20
0.2000
 30
0.0000
  0
SEQEND
  0
POLYLINE
  8
LPF39_DRD
 66
1
 10
0.0000
 20
0.0000
 30
0.0000
 40
0.0100
 41
0.0100
  0
VERTEX
  8
LPF39_DRD
 10
1.3350
 20
1.2700
 30
0.0000
  0
VERTEX
  8
LPF39_DRD
 10
1.2850
 20
1.2200
 30
0.0000
  0
SEQEND
  0
POLYLINE
  8
LPF39_DRD
 66
1
 10
0.0000
 20
0.0000
 30
0.0000
 40
0.0100
 41
0.0100
  0
VERTEX
  8
LPF39_DRD
 10
1.3350
 20
1.2200
 30
0.0000
  0
VERTEX
  8
LPF39_DRD
 10
1.2850
 20
1.2700
 30
0.0000
  0
SEQEND
  0
POLYLINE
  8
LPF39_DRD
 66
1
 10
0.0000
 20
0.0000
 30
0.0000
 40
0.0100
 41
0.0100
  0
VERTEX
  8
LPF39_DRD
 10
4.2550
 20
1.2550
 30
0.0000
  0
VERTEX
  8
LPF39_DRD
 10
4.2050
 20
1.2050
 30
0.0000
  0
SEQEND
  0
POLYLINE
  8
LPF39_DRD
 66
1
 10
0.0000
 20
0.0000
 30
0.0000
 40
0.0100
 41
0.0100
  0
VERTEX
  8
LPF39_DRD
 10
4.2550
 20
1.2050
 30
0.0000
  0
VERTEX
  8
LPF39_DRD
 10
4.2050
 20
1.2550
 30
0.0000
  0
SEQEND
  0
POLYLINE
  8
LPF39_DRD
 66
1
 10
0.0000
 20
0.0000
 30
0.0000
 40
0.0100
 41
0.0100
  0
VERTEX
  8
LPF39_DRD
 10
4.2600
 20
2.8000
 30
0.0000
  0
VERTEX
  8
LPF39_DRD
 10
4.2100
 20
2.7500
 30
0.0000
  0
SEQEND
  0
POLYLINE
  8
LPF39_DRD
 66
1
 10
0.0000
 20
0.0000
 30
0.0000
 40
0.0100
 41
0.0100
  0
VERTEX
  8
LPF39_DRD
 10
4.2600
 20
2.7500
 30
0.0000
  0
VERTEX
  8
LPF39_DRD
 10
4.2100
 20
2.8000
 30
0.0000
  0
SEQEND
  0
POLYLINE
  8
LPF39_DRD
 66
1
 10
0.0000
 20
0.0000
 30
0.0000
 40
0.0100
 41
0.0100
  0
VERTEX
  8
LPF39_DRD
 10
1.3350
 20
2.8000
 30
0.0000
  0
VERTEX
  8
LPF39_DRD
 10
1.2850
 20
2.7500
 30
0.0000
  0
SEQEND
  0
POLYLINE
  8
LPF39_DRD
 66
1
 10
0.0000
 20
0.0000
 30
0.0000
 40
0.0100
 41
0.0100
  0
VERTEX
  8
LPF39_DRD
 10
1.3350
 20
2.7500
 30
0.0000
  0
VERTEX
  8
LPF39_DRD
 10
1.2850
 20
2.8000
 30
0.0000
  0
SEQEND
  0
POLYLINE
  8
LPF39_DRD
 66
1
 10
0.0000
 20
0.0000
 30
0.0000
 40
0.0100
 41
0.0100
  0
VERTEX
  8
LPF39_DRD
 10
0.2600
 20
2.8100
 30
0.0000
  0
VERTEX
  8
LPF39_DRD
 10
0.2100
 20
2.7600
 30
0.0000
  0
SEQEND
  0
POLYLINE
  8
LPF39_DRD
 66
1
 10
0.0000
 20
0.0000
 30
0.0000
 40
0.0100
 41
0.0100
  0
VERTEX
  8
LPF39_DRD
 10
0.2600
 20
2.7600
 30
0.0000
  0
VERTEX
  8
LPF39_DRD
 10
0.2100
 20
2.8100
 30
0.0000
  0
SEQEND
  0
POLYLINE
  8
LPF39_DRD
 66
1
 10
0.0000
 20
0.0000
 30
0.0000
 40
0.0060
 41
0.0060
  0
VERTEX
  8
LPF39_DRD
 10
3.3935
 20
0.3244
 30
0.0000
  0
VERTEX
  8
LPF39_DRD
 10
3.4069
 20
0.3244
 30
0.0000
  0
VERTEX
  8
LPF39_DRD
 10
3.4091
 20
0.3199
 30
0.0000
  0
VERTEX
  8
LPF39_DRD
 10
3.4091
 20
0.3110
 30
0.0000
  0
VERTEX
  8
LPF39_DRD
 10
3.4069
 20
0.3066
 30
0.0000
  0
VERTEX
  8
LPF39_DRD
 10
3.3935
 20
0.3066
 30
0.0000
  0
VERTEX
  8
LPF39_DRD
 10
3.3935
 20
0.3333
 30
0.0000
  0
SEQEND
  0
POLYLINE
  8
LPF39_DRD
 66
1
 10
0.0000
 20
0.0000
 30
0.0000
 40
0.0060
 41
0.0060
  0
VERTEX
  8
LPF39_DRD
 10
3.3793
 20
0.3244
 30
0.0000
  0
VERTEX
  8
LPF39_DRD
 10
3.3660
 20
0.3244
 30
0.0000
  0
VERTEX
  8
LPF39_DRD
 10
3.3638
 20
0.3199
 30
0.0000
  0
VERTEX
  8
LPF39_DRD
 10
3.3638
 20
0.3110
 30
0.0000
  0
VERTEX
  8
LPF39_DRD
 10
3.3660
 20
0.3066
 30
0.0000
  0
VERTEX
  8
LPF39_DRD
 10
3.3793
 20
0.3066
 30
0.0000
  0
SEQEND
  0
POLYLINE
  8
LPF39_DRD
 66
1
 10
0.0000
 20
0.0000
 30
0.0000
 40
0.0060
 41
0.0060
  0
VERTEX
  8
LPF39_DRD
 10
3.3340
 20
0.2977
 30
0.0000
  0
VERTEX
  8
LPF39_DRD
 10
3.3340
 20
0.3244
 30
0.0000
  0
VERTEX
  8
LPF39_DRD
 10
3.3473
 20
0.3244
 30
0.0000
  0
VERTEX
  8
LPF39_DRD
 10
3.3495
 20
0.3199
 30
0.0000
  0
VERTEX
  8
LPF39_DRD
 10
3.3495
 20
0.3110
 30
0.0000
  0
VERTEX
  8
LPF39_DRD
 10
3.3473
 20
0.3066
 30
0.0000
  0
VERTEX
  8
LPF39_DRD
 10
3.3340
 20
0.3066
 30
0.0000
  0
SEQEND
  0
POLYLINE
  8
LPF39_DRD
 66
1
 10
0.0000
 20
0.0000
 30
0.0000
 40
0.0060
 41
0.0060
  0
VERTEX
  8
LPF39_DRD
 10
3.2778
 20
0.3199
 30
0.0000
  0
VERTEX
  8
LPF39_DRD
 10
3.2644
 20
0.3199
 30
0.0000
  0
SEQEND
  0
POLYLINE
  8
LPF39_DRD
 66
1
 10
0.0000
 20
0.0000
 30
0.0000
 40
0.0060
 41
0.0060
  0
VERTEX
  8
LPF39_DRD
 10
3.2711
 20
0.3066
 30
0.0000
  0
VERTEX
  8
LPF39_DRD
 10
3.2711
 20
0.3288
 30
0.0000
  0
VERTEX
  8
LPF39_DRD
 10
3.2733
 20
0.3333
 30
0.0000
  0
VERTEX
  8
LPF39_DRD
 10
3.2778
 20
0.3333
 30
0.0000
  0
SEQEND
  0
POLYLINE
  8
LPF39_DRD
 66
1
 10
0.0000
 20
0.0000
 30
0.0000
 40
0.0060
 41
0.0060
  0
VERTEX
  8
LPF39_DRD
 10
3.2502
 20
0.3199
 30
0.0000
  0
VERTEX
  8
LPF39_DRD
 10
3.2369
 20
0.3199
 30
0.0000
  0
SEQEND
  0
POLYLINE
  8
LPF39_DRD
 66
1
 10
0.0000
 20
0.0000
 30
0.0000
 40
0.0060
 41
0.0060
  0
VERTEX
  8
LPF39_DRD
 10
3.2436
 20
0.3066
 30
0.0000
  0
VERTEX
  8
LPF39_DRD
 10
3.2436
 20
0.3288
 30
0.0000
  0
VERTEX
  8
LPF39_DRD
 10
3.2458
 20
0.3333
 30
0.0000
  0
VERTEX
  8
LPF39_DRD
 10
3.2502
 20
0.3333
 30
0.0000
  0
SEQEND
  0
POLYLINE
  8
LPF39_DRD
 66
1
 10
0.0000
 20
0.0000
 30
0.0000
 40
0.0060
 41
0.0060
  0
VERTEX
  8
LPF39_DRD
 10
3.2071
 20
0.3066
 30
0.0000
  0
VERTEX
  8
LPF39_DRD
 10
3.2049
 20
0.3110
 30
0.0000
  0
VERTEX
  8
LPF39_DRD
 10
3.2049
 20
0.3199
 30
0.0000
  0
VERTEX
  8
LPF39_DRD
 10
3.2071
 20
0.3244
 30
0.0000
  0
VERTEX
  8
LPF39_DRD
 10
3.2204
 20
0.3244
 30
0.0000
  0
VERTEX
  8
LPF39_DRD
 10
3.2227
 20
0.3199
 30
0.0000
  0
VERTEX
  8
LPF39_DRD
 10
3.2227
 20
0.3110
 30
0.0000
  0
VERTEX
  8
LPF39_DRD
 10
3.2204
 20
0.3066
 30
0.0000
  0
VERTEX
  8
LPF39_DRD
 10
3.2071
 20
0.3066
 30
0.0000
  0
SEQEND
  0
POLYLINE
  8
LPF39_DRD
 66
1
 10
0.0000
 20
0.0000
 30
0.0000
 40
0.0060
 41
0.0060
  0
VERTEX
  8
LPF39_DRD
 10
3.1464
 20
0.3244
 30
0.0000
  0
VERTEX
  8
LPF39_DRD
 10
3.1331
 20
0.3244
 30
0.0000
  0
VERTEX
  8
LPF39_DRD
 10
3.1309
 20
0.3199
 30
0.0000
  0
VERTEX
  8
LPF39_DRD
 10
3.1331
 20
0.3155
 30
0.0000
  0
VERTEX
  8
LPF39_DRD
 10
3.1464
 20
0.3155
 30
0.0000
  0
VERTEX
  8
LPF39_DRD
 10
3.1487
 20
0.3110
 30
0.0000
  0
VERTEX
  8
LPF39_DRD
 10
3.1464
 20
0.3066
 30
0.0000
  0
VERTEX
  8
LPF39_DRD
 10
3.1331
 20
0.3066
 30
0.0000
  0
SEQEND
  0
POLYLINE
  8
LPF39_DRD
 66
1
 10
0.0000
 20
0.0000
 30
0.0000
 40
0.0060
 41
0.0060
  0
VERTEX
  8
LPF39_DRD
 10
3.1144
 20
0.3066
 30
0.0000
  0
VERTEX
  8
LPF39_DRD
 10
3.1011
 20
0.3066
 30
0.0000
  0
VERTEX
  8
LPF39_DRD
 10
3.0989
 20
0.3110
 30
0.0000
  0
VERTEX
  8
LPF39_DRD
 10
3.0989
 20
0.3199
 30
0.0000
  0
VERTEX
  8
LPF39_DRD
 10
3.1011
 20
0.3244
 30
0.0000
  0
VERTEX
  8
LPF39_DRD
 10
3.1144
 20
0.3244
 30
0.0000
  0
VERTEX
  8
LPF39_DRD
 10
3.1167
 20
0.3199
 30
0.0000
  0
VERTEX
  8
LPF39_DRD
 10
3.1167
 20
0.3155
 30
0.0000
  0
VERTEX
  8
LPF39_DRD
 10
3.0989
 20
0.3155
 30
0.0000
  0
SEQEND
  0
POLYLINE
  8
LPF39_DRD
 66
1
 10
0.0000
 20
0.0000
 30
0.0000
 40
0.0060
 41
0.0060
  0
VERTEX
  8
LPF39_DRD
 10
3.0847
 20
0.3066
 30
0.0000
  0
VERTEX
  8
LPF39_DRD
 10
3.0758
 20
0.3066
 30
0.0000
  0
SEQEND
  0
POLYLINE
  8
LPF39_DRD
 66
1
 10
0.0000
 20
0.0000
 30
0.0000
 40
0.0060
 41
0.0060
  0
VERTEX
  8
LPF39_DRD
 10
3.0802
 20
0.3066
 30
0.0000
  0
VERTEX
  8
LPF39_DRD
 10
3.0802
 20
0.3333
 30
0.0000
  0
VERTEX
  8
LPF39_DRD
 10
3.0758
 20
0.3333
 30
0.0000
  0
SEQEND
  0
POLYLINE
  8
LPF39_DRD
 66
1
 10
0.0000
 20
0.0000
 30
0.0000
 40
0.0060
 41
0.0060
  0
VERTEX
  8
LPF39_DRD
 10
3.0438
 20
0.3066
 30
0.0000
  0
VERTEX
  8
LPF39_DRD
 10
3.0416
 20
0.3110
 30
0.0000
  0
VERTEX
  8
LPF39_DRD
 10
3.0416
 20
0.3199
 30
0.0000
  0
VERTEX
  8
LPF39_DRD
 10
3.0438
 20
0.3244
 30
0.0000
  0
VERTEX
  8
LPF39_DRD
 10
3.0571
 20
0.3244
 30
0.0000
  0
VERTEX
  8
LPF39_DRD
 10
3.0593
 20
0.3199
 30
0.0000
  0
VERTEX
  8
LPF39_DRD
 10
3.0593
 20
0.3110
 30
0.0000
  0
VERTEX
  8
LPF39_DRD
 10
3.0571
 20
0.3066
 30
0.0000
  0
VERTEX
  8
LPF39_DRD
 10
3.0438
 20
0.3066
 30
0.0000
  0
SEQEND
  0
POLYLINE
  8
LPF39_DRD
 66
1
 10
0.0000
 20
0.0000
 30
0.0000
 40
0.0060
 41
0.0060
  0
VERTEX
  8
LPF39_DRD
 10
3.0273
 20
0.3199
 30
0.0000
  0
VERTEX
  8
LPF39_DRD
 10
3.0096
 20
0.3199
 30
0.0000
  0
SEQEND
  0
POLYLINE
  8
LPF39_DRD
 66
1
 10
0.0000
 20
0.0000
 30
0.0000
 40
0.0060
 41
0.0060
  0
VERTEX
  8
LPF39_DRD
 10
3.0273
 20
0.3066
 30
0.0000
  0
VERTEX
  8
LPF39_DRD
 10
3.0273
 20
0.3333
 30
0.0000
  0
SEQEND
  0
POLYLINE
  8
LPF39_DRD
 66
1
 10
0.0000
 20
0.0000
 30
0.0000
 40
0.0060
 41
0.0060
  0
VERTEX
  8
LPF39_DRD
 10
3.0096
 20
0.3066
 30
0.0000
  0
VERTEX
  8
LPF39_DRD
 10
3.0096
 20
0.3333
 30
0.0000
  0
SEQEND
  0
POLYLINE
  8
LPF39_DRD
 66
1
 10
0.0000
 20
0.0000
 30
0.0000
 40
0.0060
 41
0.0060
  0
VERTEX
  8
LPF39_DRD
 10
2.9511
 20
0.3066
 30
0.0000
  0
VERTEX
  8
LPF39_DRD
 10
2.9378
 20
0.3066
 30
0.0000
  0
VERTEX
  8
LPF39_DRD
 10
2.9356
 20
0.3110
 30
0.0000
  0
VERTEX
  8
LPF39_DRD
 10
2.9356
 20
0.3199
 30
0.0000
  0
VERTEX
  8
LPF39_DRD
 10
2.9378
 20
0.3244
 30
0.0000
  0
VERTEX
  8
LPF39_DRD
 10
2.9511
 20
0.3244
 30
0.0000
  0
VERTEX
  8
LPF39_DRD
 10
2.9533
 20
0.3199
 30
0.0000
  0
VERTEX
  8
LPF39_DRD
 10
2.9533
 20
0.3155
 30
0.0000
  0
VERTEX
  8
LPF39_DRD
 10
2.9356
 20
0.3155
 30
0.0000
  0
SEQEND
  0
POLYLINE
  8
LPF39_DRD
 66
1
 10
0.0000
 20
0.0000
 30
0.0000
 40
0.0060
 41
0.0060
  0
VERTEX
  8
LPF39_DRD
 10
2.9213
 20
0.3244
 30
0.0000
  0
VERTEX
  8
LPF39_DRD
 10
2.9125
 20
0.3244
 30
0.0000
  0
VERTEX
  8
LPF39_DRD
 10
2.9102
 20
0.3199
 30
0.0000
  0
VERTEX
  8
LPF39_DRD
 10
2.9058
 20
0.3199
 30
0.0000
  0
SEQEND
  0
POLYLINE
  8
LPF39_DRD
 66
1
 10
0.0000
 20
0.0000
 30
0.0000
 40
0.0060
 41
0.0060
  0
VERTEX
  8
LPF39_DRD
 10
2.9058
 20
0.3244
 30
0.0000
  0
VERTEX
  8
LPF39_DRD
 10
2.9058
 20
0.3066
 30
0.0000
  0
SEQEND
  0
POLYLINE
  8
LPF39_DRD
 66
1
 10
0.0000
 20
0.0000
 30
0.0000
 40
0.0060
 41
0.0060
  0
VERTEX
  8
LPF39_DRD
 10
2.8760
 20
0.3066
 30
0.0000
  0
VERTEX
  8
LPF39_DRD
 10
2.8738
 20
0.3110
 30
0.0000
  0
VERTEX
  8
LPF39_DRD
 10
2.8738
 20
0.3199
 30
0.0000
  0
VERTEX
  8
LPF39_DRD
 10
2.8760
 20
0.3244
 30
0.0000
  0
VERTEX
  8
LPF39_DRD
 10
2.8893
 20
0.3244
 30
0.0000
  0
VERTEX
  8
LPF39_DRD
 10
2.8916
 20
0.3199
 30
0.0000
  0
VERTEX
  8
LPF39_DRD
 10
2.8916
 20
0.3110
 30
0.0000
  0
VERTEX
  8
LPF39_DRD
 10
2.8893
 20
0.3066
 30
0.0000
  0
VERTEX
  8
LPF39_DRD
 10
2.8760
 20
0.3066
 30
0.0000
  0
SEQEND
  0
POLYLINE
  8
LPF39_DRD
 66
1
 10
0.0000
 20
0.0000
 30
0.0000
 40
0.0060
 41
0.0060
  0
VERTEX
  8
LPF39_DRD
 10
2.8596
 20
0.3066
 30
0.0000
  0
VERTEX
  8
LPF39_DRD
 10
2.8596
 20
0.3199
 30
0.0000
  0
VERTEX
  8
LPF39_DRD
 10
2.8574
 20
0.3244
 30
0.0000
  0
VERTEX
  8
LPF39_DRD
 10
2.8440
 20
0.3244
 30
0.0000
  0
VERTEX
  8
LPF39_DRD
 10
2.8440
 20
0.3066
 30
0.0000
  0
SEQEND
  0
POLYLINE
  8
LPF39_DRD
 66
1
 10
0.0000
 20
0.0000
 30
0.0000
 40
0.0060
 41
0.0060
  0
VERTEX
  8
LPF39_DRD
 10
2.8187
 20
0.2977
 30
0.0000
  0
VERTEX
  8
LPF39_DRD
 10
2.8276
 20
0.2977
 30
0.0000
  0
VERTEX
  8
LPF39_DRD
 10
2.8298
 20
0.3022
 30
0.0000
  0
VERTEX
  8
LPF39_DRD
 10
2.8298
 20
0.3244
 30
0.0000
  0
VERTEX
  8
LPF39_DRD
 10
2.8165
 20
0.3244
 30
0.0000
  0
VERTEX
  8
LPF39_DRD
 10
2.8143
 20
0.3199
 30
0.0000
  0
VERTEX
  8
LPF39_DRD
 10
2.8143
 20
0.3110
 30
0.0000
  0
VERTEX
  8
LPF39_DRD
 10
2.8165
 20
0.3066
 30
0.0000
  0
VERTEX
  8
LPF39_DRD
 10
2.8298
 20
0.3066
 30
0.0000
  0
SEQEND
  0
POLYLINE
  8
LPF39_DRD
 66
1
 10
0.0000
 20
0.0000
 30
0.0000
 40
0.0060
 41
0.0060
  0
VERTEX
  8
LPF39_DRD
 10
2.8000
 20
0.3066
 30
0.0000
  0
VERTEX
  8
LPF39_DRD
 10
2.7912
 20
0.3066
 30
0.0000
  0
SEQEND
  0
POLYLINE
  8
LPF39_DRD
 66
1
 10
0.0000
 20
0.0000
 30
0.0000
 40
0.0060
 41
0.0060
  0
VERTEX
  8
LPF39_DRD
 10
2.7956
 20
0.3066
 30
0.0000
  0
VERTEX
  8
LPF39_DRD
 10
2.7956
 20
0.3333
 30
0.0000
  0
SEQEND
  0
POLYLINE
  8
LPF39_DRD
 66
1
 10
0.0000
 20
0.0000
 30
0.0000
 40
0.0060
 41
0.0060
  0
VERTEX
  8
LPF39_DRD
 10
2.8000
 20
0.3333
 30
0.0000
  0
VERTEX
  8
LPF39_DRD
 10
2.7912
 20
0.3333
 30
0.0000
  0
SEQEND
  0
TEXT
  8
LPF39_DRD
 10
0.2904
 20
2.2285
 30
0.0000
 40
0.065625
 41
1.0000
 51
0.0000
 71
0
  1
A
 50
0.0000
  7
STYLE_0
  0
TEXT
  8
LPF39_DRD
 10
0.3500
 20
2.7750
 30
0.0000
 40
0.065625
 41
1.0000
 51
0.0000
 71
0
  1
B
 50
0.0000
  7
STYLE_0
  0
TEXT
  8
LPF39_DRD
 10
0.9750
 20
1.9000
 30
0.0000
 40
0.065625
 41
1.0000
 51
0.0000
 71
0
  1
A=0.156 Thru mounting hole
 50
0.0000
  7
STYLE_0
  0
TEXT
  8
LPF39_DRD
 10
0.9750
 20
1.7500
 30
0.0000
 40
0.065625
 41
1.0000
 51
0.0000
 71
0
  1
B=4-40 board screw
 50
0.0000
  7
STYLE_0
  0
TEXT
  8
LPF39_DRD
 10
1.2000
 20
2.7500
 30
0.0000
 40
0.065625
 41
1.0000
 51
0.0000
 71
0
  1
B
 50
0.0000
  7
STYLE_0
  0
TEXT
  8
LPF39_DRD
 10
2.8250
 20
2.7500
 30
0.0000
 40
0.065625
 41
1.0000
 51
0.0000
 71
0
  1
B
 50
0.0000
  7
STYLE_0
  0
TEXT
  8
LPF39_DRD
 10
4.3000
 20
2.7500
 30
0.0000
 40
0.065625
 41
1.0000
 51
0.0000
 71
0
  1
B
 50
0.0000
  7
STYLE_0
  0
TEXT
  8
LPF39_DRD
 10
5.2500
 20
1.1500
 30
0.0000
 40
0.065625
 41
1.0000
 51
0.0000
 71
0
  1
B
 50
0.0000
  7
STYLE_0
  0
TEXT
  8
LPF39_DRD
 10
4.3000
 20
1.2000
 30
0.0000
 40
0.065625
 41
1.0000
 51
0.0000
 71
0
  1
B
 50
0.0000
  7
STYLE_0
  0
TEXT
  8
LPF39_DRD
 10
3.9250
 20
0.7250
 30
0.0000
 40
0.065625
 41
1.0000
 51
0.0000
 71
0
  1
B
 50
0.0000
  7
STYLE_0
  0
TEXT
  8
LPF39_DRD
 10
2.8250
 20
1.2250
 30
0.0000
 40
0.065625
 41
1.0000
 51
0.0000
 71
0
  1
B
 50
0.0000
  7
STYLE_0
  0
TEXT
  8
LPF39_DRD
 10
1.3761
 20
1.2154
 30
0.0000
 40
0.065625
 41
1.0000
 51
0.0000
 71
0
  1
B
 50
0.0000
  7
STYLE_0
  0
TEXT
  8
LPF39_DRD
 10
2.0657
 20
0.1463
 30
0.0000
 40
0.065625
 41
1.0000
 51
0.0000
 71
0
  1
B
 50
0.0000
  7
STYLE_0
  0
TEXT
  8
LPF39_DRD
 10
0.8151
 20
0.1430
 30
0.0000
 40
0.065625
 41
1.0000
 51
0.0000
 71
0
  1
B
 50
0.0000
  7
STYLE_0
  0
TEXT
  8
LPF39_DRD
 10
5.7682
 20
0.1661
 30
0.0000
 40
0.065625
 41
1.0000
 51
0.0000
 71
0
  1
B
 50
0.0000
  7
STYLE_0
  0
TEXT
  8
LPF39_DRD
 10
5.3850
 20
2.7500
 30
0.0000
 40
0.065625
 41
1.0000
 51
0.0000
 71
0
  1
B
 50
0.0000
  7
STYLE_0
  0
TEXT
  8
LPF39_DRD
 10
1.7886
 20
2.7729
 30
0.0000
 40
0.065625
 41
1.0000
 51
0.0000
 71
0
  1
A
 50
0.0000
  7
STYLE_0
  0
TEXT
  8
LPF39_DRD
 10
4.8046
 20
2.7762
 30
0.0000
 40
0.065625
 41
1.0000
 51
0.0000
 71
0
  1
A
 50
0.0000
  7
STYLE_0
  0
TEXT
  8
LPF39_DRD
 10
5.7781
 20
0.8062
 30
0.0000
 40
0.065625
 41
1.0000
 51
0.0000
 71
0
  1
A
 50
0.0000
  7
STYLE_0
  0
TEXT
  8
LPF39_DRD
 10
4.1347
 20
0.1793
 30
0.0000
 40
0.065625
 41
1.0000
 51
0.0000
 71
0
  1
A
 50
0.0000
  7
STYLE_0
  0
TEXT
  8
LPF39_DRD
 10
2.4089
 20
1.1560
 30
0.0000
 40
0.065625
 41
1.0000
 51
0.0000
 71
0
  1
A
 50
0.0000
  7
STYLE_0
  0
TEXT
  8
LPF39_DRD
 10
1.6071
 20
0.1463
 30
0.0000
 40
0.065625
 41
1.0000
 51
0.0000
 71
0
  1
A
 50
0.0000
  7
STYLE_0
  0
INSERT
  2
ROUND_6
  8
LPF39_SMT
 10
0.2700
 20
0.4450
 30
0.0000
 41
1.0000
 42
1.0000
 50
0.0000
  0
INSERT
  2
ROUND_6
  8
LPF39_SMT
 10
0.2700
 20
0.2950
 30
0.0000
 41
1.0000
 42
1.0000
 50
0.0000
  0
INSERT
  2
ROUND_6
  8
LPF39_SMT
 10
5.8200
 20
2.6450
 30
0.0000
 41
1.0000
 42
1.0000
 50
0.0000
  0
INSERT
  2
ROUND_6
  8
LPF39_SMT
 10
5.8200
 20
2.7700
 30
0.0000
 41
1.0000
 42
1.0000
 50
0.0000
  0
INSERT
  2
ROUND_6
  8
LPF39_SMT
 10
5.6700
 20
2.7700
 30
0.0000
 41
1.0000
 42
1.0000
 50
0.0000
  0
INSERT
  2
ROUND_6
  8
LPF39_SMT
 10
5.6700
 20
2.9200
 30
0.0000
 41
1.0000
 42
1.0000
 50
0.0000
  0
INSERT
  2
ROUND_6
  8
LPF39_SMT
 10
0.4700
 20
0.1200
 30
0.0000
 41
1.0000
 42
1.0000
 50
0.0000
  0
INSERT
  2
ROUND_6
  8
LPF39_SMT
 10
5.6450
 20
2.6200
 30
0.0000
 41
1.0000
 42
1.0000
 50
0.0000
  0
INSERT
  2
ROUND_6
  8
LPF39_SMT
 10
5.7200
 20
2.4950
 30
0.0000
 41
1.0000
 42
1.0000
 50
0.0000
  0
INSERT
  2
ROUND_6
  8
LPF39_SMT
 10
5.8450
 20
2.4950
 30
0.0000
 41
1.0000
 42
1.0000
 50
0.0000
  0
INSERT
  2
ROUND_6
  8
LPF39_SMT
 10
5.8450
 20
2.9200
 30
0.0000
 41
1.0000
 42
1.0000
 50
0.0000
  0
INSERT
  2
ROUND_6
  8
LPF39_SMT
 10
0.2700
 20
0.1200
 30
0.0000
 41
1.0000
 42
1.0000
 50
0.0000
  0
INSERT
  2
ROUND_6
  8
LPF39_SMT
 10
0.4700
 20
0.4450
 30
0.0000
 41
1.0000
 42
1.0000
 50
0.0000
  0
INSERT
  2
ROUND_6
  8
LPF39_SMT
 10
0.3700
 20
0.3700
 30
0.0000
 41
1.0000
 42
1.0000
 50
0.0000
  0
INSERT
  2
ROUND_6
  8
LPF39_SMT
 10
0.4700
 20
0.2950
 30
0.0000
 41
1.0000
 42
1.0000
 50
0.0000
  0
INSERT
  2
ROUND_6
  8
LPF39_SMT
 10
0.3700
 20
0.1950
 30
0.0000
 41
1.0000
 42
1.0000
 50
0.0000
  0
POLYLINE
  8
LPF39_SMT
 66
1
 10
0.0000
 20
0.0000
 30
0.0000
 40
0.0100
 41
0.0100
  0
VERTEX
  8
LPF39_SMT
 10
5.7300
 20
2.3400
 30
0.0000
  0
VERTEX
  8
LPF39_SMT
 10
5.7300
 20
1.9300
 30
0.0000
  0
SEQEND
  0
POLYLINE
  8
LPF39_SMT
 66
1
 10
0.0000
 20
0.0000
 30
0.0000
 40
0.0100
 41
0.0100
  0
VERTEX
  8
LPF39_SMT
 10
5.7210
 20
2.3400
 30
0.0000
  0
VERTEX
  8
LPF39_SMT
 10
5.7210
 20
1.9300
 30
0.0000
  0
SEQEND
  0
POLYLINE
  8
LPF39_SMT
 66
1
 10
0.0000
 20
0.0000
 30
0.0000
 40
0.0100
 41
0.0100
  0
VERTEX
  8
LPF39_SMT
 10
5.7120
 20
2.3400
 30
0.0000
  0
VERTEX
  8
LPF39_SMT
 10
5.7120
 20
1.9300
 30
0.0000
  0
SEQEND
  0
POLYLINE
  8
LPF39_SMT
 66
1
 10
0.0000
 20
0.0000
 30
0.0000
 40
0.0100
 41
0.0100
  0
VERTEX
  8
LPF39_SMT
 10
5.7030
 20
2.3400
 30
0.0000
  0
VERTEX
  8
LPF39_SMT
 10
5.7030
 20
1.9300
 30
0.0000
  0
SEQEND
  0
POLYLINE
  8
LPF39_SMT
 66
1
 10
0.0000
 20
0.0000
 30
0.0000
 40
0.0100
 41
0.0100
  0
VERTEX
  8
LPF39_SMT
 10
5.6940
 20
2.3400
 30
0.0000
  0
VERTEX
  8
LPF39_SMT
 10
5.6940
 20
1.9300
 30
0.0000
  0
SEQEND
  0
POLYLINE
  8
LPF39_SMT
 66
1
 10
0.0000
 20
0.0000
 30
0.0000
 40
0.0100
 41
0.0100
  0
VERTEX
  8
LPF39_SMT
 10
5.6850
 20
2.3400
 30
0.0000
  0
VERTEX
  8
LPF39_SMT
 10
5.6850
 20
1.9300
 30
0.0000
  0
SEQEND
  0
POLYLINE
  8
LPF39_SMT
 66
1
 10
0.0000
 20
0.0000
 30
0.0000
 40
0.0100
 41
0.0100
  0
VERTEX
  8
LPF39_SMT
 10
5.6760
 20
2.3400
 30
0.0000
  0
VERTEX
  8
LPF39_SMT
 10
5.6760
 20
1.9300
 30
0.0000
  0
SEQEND
  0
POLYLINE
  8
LPF39_SMT
 66
1
 10
0.0000
 20
0.0000
 30
0.0000
 40
0.0100
 41
0.0100
  0
VERTEX
  8
LPF39_SMT
 10
5.8250
 20
2.3390
 30
0.0000
  0
VERTEX
  8
LPF39_SMT
 10
5.6720
 20
2.3390
 30
0.0000
  0
SEQEND
  0
POLYLINE
  8
LPF39_SMT
 66
1
 10
0.0000
 20
0.0000
 30
0.0000
 40
0.0100
 41
0.0100
  0
VERTEX
  8
LPF39_SMT
 10
5.8250
 20
2.3300
 30
0.0000
  0
VERTEX
  8
LPF39_SMT
 10
5.6720
 20
2.3300
 30
0.0000
  0
SEQEND
  0
POLYLINE
  8
LPF39_SMT
 66
1
 10
0.0000
 20
0.0000
 30
0.0000
 40
0.0100
 41
0.0100
  0
VERTEX
  8
LPF39_SMT
 10
5.8250
 20
2.3210
 30
0.0000
  0
VERTEX
  8
LPF39_SMT
 10
5.6720
 20
2.3210
 30
0.0000
  0
SEQEND
  0
POLYLINE
  8
LPF39_SMT
 66
1
 10
0.0000
 20
0.0000
 30
0.0000
 40
0.0100
 41
0.0100
  0
VERTEX
  8
LPF39_SMT
 10
5.8250
 20
2.3120
 30
0.0000
  0
VERTEX
  8
LPF39_SMT
 10
5.6720
 20
2.3120
 30
0.0000
  0
SEQEND
  0
POLYLINE
  8
LPF39_SMT
 66
1
 10
0.0000
 20
0.0000
 30
0.0000
 40
0.0100
 41
0.0100
  0
VERTEX
  8
LPF39_SMT
 10
5.8250
 20
2.3030
 30
0.0000
  0
VERTEX
  8
LPF39_SMT
 10
5.6720
 20
2.3030
 30
0.0000
  0
SEQEND
  0
POLYLINE
  8
LPF39_SMT
 66
1
 10
0.0000
 20
0.0000
 30
0.0000
 40
0.0100
 41
0.0100
  0
VERTEX
  8
LPF39_SMT
 10
5.8250
 20
2.2940
 30
0.0000
  0
VERTEX
  8
LPF39_SMT
 10
5.6720
 20
2.2940
 30
0.0000
  0
SEQEND
  0
POLYLINE
  8
LPF39_SMT
 66
1
 10
0.0000
 20
0.0000
 30
0.0000
 40
0.0100
 41
0.0100
  0
VERTEX
  8
LPF39_SMT
 10
5.8250
 20
2.2850
 30
0.0000
  0
VERTEX
  8
LPF39_SMT
 10
5.6720
 20
2.2850
 30
0.0000
  0
SEQEND
  0
POLYLINE
  8
LPF39_SMT
 66
1
 10
0.0000
 20
0.0000
 30
0.0000
 40
0.0100
 41
0.0100
  0
VERTEX
  8
LPF39_SMT
 10
5.8250
 20
2.2760
 30
0.0000
  0
VERTEX
  8
LPF39_SMT
 10
5.6720
 20
2.2760
 30
0.0000
  0
SEQEND
  0
POLYLINE
  8
LPF39_SMT
 66
1
 10
0.0000
 20
0.0000
 30
0.0000
 40
0.0100
 41
0.0100
  0
VERTEX
  8
LPF39_SMT
 10
5.8250
 20
2.2670
 30
0.0000
  0
VERTEX
  8
LPF39_SMT
 10
5.6720
 20
2.2670
 30
0.0000
  0
SEQEND
  0
POLYLINE
  8
LPF39_SMT
 66
1
 10
0.0000
 20
0.0000
 30
0.0000
 40
0.0100
 41
0.0100
  0
VERTEX
  8
LPF39_SMT
 10
5.8250
 20
2.2580
 30
0.0000
  0
VERTEX
  8
LPF39_SMT
 10
5.6720
 20
2.2580
 30
0.0000
  0
SEQEND
  0
POLYLINE
  8
LPF39_SMT
 66
1
 10
0.0000
 20
0.0000
 30
0.0000
 40
0.0100
 41
0.0100
  0
VERTEX
  8
LPF39_SMT
 10
5.8250
 20
2.2490
 30
0.0000
  0
VERTEX
  8
LPF39_SMT
 10
5.6720
 20
2.2490
 30
0.0000
  0
SEQEND
  0
POLYLINE
  8
LPF39_SMT
 66
1
 10
0.0000
 20
0.0000
 30
0.0000
 40
0.0100
 41
0.0100
  0
VERTEX
  8
LPF39_SMT
 10
5.8250
 20
2.2400
 30
0.0000
  0
VERTEX
  8
LPF39_SMT
 10
5.6720
 20
2.2400
 30
0.0000
  0
SEQEND
  0
POLYLINE
  8
LPF39_SMT
 66
1
 10
0.0000
 20
0.0000
 30
0.0000
 40
0.0100
 41
0.0100
  0
VERTEX
  8
LPF39_SMT
 10
5.8250
 20
2.2310
 30
0.0000
  0
VERTEX
  8
LPF39_SMT
 10
5.6720
 20
2.2310
 30
0.0000
  0
SEQEND
  0
POLYLINE
  8
LPF39_SMT
 66
1
 10
0.0000
 20
0.0000
 30
0.0000
 40
0.0100
 41
0.0100
  0
VERTEX
  8
LPF39_SMT
 10
5.8250
 20
2.2220
 30
0.0000
  0
VERTEX
  8
LPF39_SMT
 10
5.6720
 20
2.2220
 30
0.0000
  0
SEQEND
  0
POLYLINE
  8
LPF39_SMT
 66
1
 10
0.0000
 20
0.0000
 30
0.0000
 40
0.0100
 41
0.0100
  0
VERTEX
  8
LPF39_SMT
 10
5.8250
 20
2.2130
 30
0.0000
  0
VERTEX
  8
LPF39_SMT
 10
5.6720
 20
2.2130
 30
0.0000
  0
SEQEND
  0
POLYLINE
  8
LPF39_SMT
 66
1
 10
0.0000
 20
0.0000
 30
0.0000
 40
0.0100
 41
0.0100
  0
VERTEX
  8
LPF39_SMT
 10
5.8250
 20
2.2040
 30
0.0000
  0
VERTEX
  8
LPF39_SMT
 10
5.6720
 20
2.2040
 30
0.0000
  0
SEQEND
  0
POLYLINE
  8
LPF39_SMT
 66
1
 10
0.0000
 20
0.0000
 30
0.0000
 40
0.0100
 41
0.0100
  0
VERTEX
  8
LPF39_SMT
 10
5.8950
 20
2.1950
 30
0.0000
  0
VERTEX
  8
LPF39_SMT
 10
5.6720
 20
2.1950
 30
0.0000
  0
SEQEND
  0
POLYLINE
  8
LPF39_SMT
 66
1
 10
0.0000
 20
0.0000
 30
0.0000
 40
0.0100
 41
0.0100
  0
VERTEX
  8
LPF39_SMT
 10
5.8950
 20
2.1860
 30
0.0000
  0
VERTEX
  8
LPF39_SMT
 10
5.6720
 20
2.1860
 30
0.0000
  0
SEQEND
  0
POLYLINE
  8
LPF39_SMT
 66
1
 10
0.0000
 20
0.0000
 30
0.0000
 40
0.0100
 41
0.0100
  0
VERTEX
  8
LPF39_SMT
 10
5.8950
 20
2.1770
 30
0.0000
  0
VERTEX
  8
LPF39_SMT
 10
5.6720
 20
2.1770
 30
0.0000
  0
SEQEND
  0
POLYLINE
  8
LPF39_SMT
 66
1
 10
0.0000
 20
0.0000
 30
0.0000
 40
0.0100
 41
0.0100
  0
VERTEX
  8
LPF39_SMT
 10
5.8950
 20
2.1680
 30
0.0000
  0
VERTEX
  8
LPF39_SMT
 10
5.6720
 20
2.1680
 30
0.0000
  0
SEQEND
  0
POLYLINE
  8
LPF39_SMT
 66
1
 10
0.0000
 20
0.0000
 30
0.0000
 40
0.0100
 41
0.0100
  0
VERTEX
  8
LPF39_SMT
 10
5.8950
 20
2.1590
 30
0.0000
  0
VERTEX
  8
LPF39_SMT
 10
5.6720
 20
2.1590
 30
0.0000
  0
SEQEND
  0
POLYLINE
  8
LPF39_SMT
 66
1
 10
0.0000
 20
0.0000
 30
0.0000
 40
0.0100
 41
0.0100
  0
VERTEX
  8
LPF39_SMT
 10
5.8950
 20
2.1500
 30
0.0000
  0
VERTEX
  8
LPF39_SMT
 10
5.6720
 20
2.1500
 30
0.0000
  0
SEQEND
  0
POLYLINE
  8
LPF39_SMT
 66
1
 10
0.0000
 20
0.0000
 30
0.0000
 40
0.0100
 41
0.0100
  0
VERTEX
  8
LPF39_SMT
 10
5.8950
 20
2.1410
 30
0.0000
  0
VERTEX
  8
LPF39_SMT
 10
5.6720
 20
2.1410
 30
0.0000
  0
SEQEND
  0
POLYLINE
  8
LPF39_SMT
 66
1
 10
0.0000
 20
0.0000
 30
0.0000
 40
0.0100
 41
0.0100
  0
VERTEX
  8
LPF39_SMT
 10
5.8950
 20
2.1320
 30
0.0000
  0
VERTEX
  8
LPF39_SMT
 10
5.6720
 20
2.1320
 30
0.0000
  0
SEQEND
  0
POLYLINE
  8
LPF39_SMT
 66
1
 10
0.0000
 20
0.0000
 30
0.0000
 40
0.0100
 41
0.0100
  0
VERTEX
  8
LPF39_SMT
 10
5.8220
 20
2.1230
 30
0.0000
  0
VERTEX
  8
LPF39_SMT
 10
5.6720
 20
2.1230
 30
0.0000
  0
SEQEND
  0
POLYLINE
  8
LPF39_SMT
 66
1
 10
0.0000
 20
0.0000
 30
0.0000
 40
0.0100
 41
0.0100
  0
VERTEX
  8
LPF39_SMT
 10
5.8220
 20
2.1140
 30
0.0000
  0
VERTEX
  8
LPF39_SMT
 10
5.6720
 20
2.1140
 30
0.0000
  0
SEQEND
  0
POLYLINE
  8
LPF39_SMT
 66
1
 10
0.0000
 20
0.0000
 30
0.0000
 40
0.0100
 41
0.0100
  0
VERTEX
  8
LPF39_SMT
 10
5.8220
 20
2.1050
 30
0.0000
  0
VERTEX
  8
LPF39_SMT
 10
5.6720
 20
2.1050
 30
0.0000
  0
SEQEND
  0
POLYLINE
  8
LPF39_SMT
 66
1
 10
0.0000
 20
0.0000
 30
0.0000
 40
0.0100
 41
0.0100
  0
VERTEX
  8
LPF39_SMT
 10
5.8220
 20
2.0960
 30
0.0000
  0
VERTEX
  8
LPF39_SMT
 10
5.6720
 20
2.0960
 30
0.0000
  0
SEQEND
  0
POLYLINE
  8
LPF39_SMT
 66
1
 10
0.0000
 20
0.0000
 30
0.0000
 40
0.0100
 41
0.0100
  0
VERTEX
  8
LPF39_SMT
 10
5.8220
 20
2.0870
 30
0.0000
  0
VERTEX
  8
LPF39_SMT
 10
5.6720
 20
2.0870
 30
0.0000
  0
SEQEND
  0
POLYLINE
  8
LPF39_SMT
 66
1
 10
0.0000
 20
0.0000
 30
0.0000
 40
0.0100
 41
0.0100
  0
VERTEX
  8
LPF39_SMT
 10
5.8220
 20
2.0780
 30
0.0000
  0
VERTEX
  8
LPF39_SMT
 10
5.6720
 20
2.0780
 30
0.0000
  0
SEQEND
  0
POLYLINE
  8
LPF39_SMT
 66
1
 10
0.0000
 20
0.0000
 30
0.0000
 40
0.0100
 41
0.0100
  0
VERTEX
  8
LPF39_SMT
 10
5.8220
 20
2.0690
 30
0.0000
  0
VERTEX
  8
LPF39_SMT
 10
5.6720
 20
2.0690
 30
0.0000
  0
SEQEND
  0
POLYLINE
  8
LPF39_SMT
 66
1
 10
0.0000
 20
0.0000
 30
0.0000
 40
0.0100
 41
0.0100
  0
VERTEX
  8
LPF39_SMT
 10
5.8220
 20
2.0600
 30
0.0000
  0
VERTEX
  8
LPF39_SMT
 10
5.6720
 20
2.0600
 30
0.0000
  0
SEQEND
  0
POLYLINE
  8
LPF39_SMT
 66
1
 10
0.0000
 20
0.0000
 30
0.0000
 40
0.0100
 41
0.0100
  0
VERTEX
  8
LPF39_SMT
 10
5.8220
 20
2.0510
 30
0.0000
  0
VERTEX
  8
LPF39_SMT
 10
5.6720
 20
2.0510
 30
0.0000
  0
SEQEND
  0
POLYLINE
  8
LPF39_SMT
 66
1
 10
0.0000
 20
0.0000
 30
0.0000
 40
0.0100
 41
0.0100
  0
VERTEX
  8
LPF39_SMT
 10
5.8220
 20
2.0420
 30
0.0000
  0
VERTEX
  8
LPF39_SMT
 10
5.6720
 20
2.0420
 30
0.0000
  0
SEQEND
  0
POLYLINE
  8
LPF39_SMT
 66
1
 10
0.0000
 20
0.0000
 30
0.0000
 40
0.0100
 41
0.0100
  0
VERTEX
  8
LPF39_SMT
 10
5.8220
 20
2.0330
 30
0.0000
  0
VERTEX
  8
LPF39_SMT
 10
5.6720
 20
2.0330
 30
0.0000
  0
SEQEND
  0
POLYLINE
  8
LPF39_SMT
 66
1
 10
0.0000
 20
0.0000
 30
0.0000
 40
0.0100
 41
0.0100
  0
VERTEX
  8
LPF39_SMT
 10
5.8220
 20
2.0240
 30
0.0000
  0
VERTEX
  8
LPF39_SMT
 10
5.6720
 20
2.0240
 30
0.0000
  0
SEQEND
  0
POLYLINE
  8
LPF39_SMT
 66
1
 10
0.0000
 20
0.0000
 30
0.0000
 40
0.0100
 41
0.0100
  0
VERTEX
  8
LPF39_SMT
 10
5.8220
 20
2.0150
 30
0.0000
  0
VERTEX
  8
LPF39_SMT
 10
5.6720
 20
2.0150
 30
0.0000
  0
SEQEND
  0
POLYLINE
  8
LPF39_SMT
 66
1
 10
0.0000
 20
0.0000
 30
0.0000
 40
0.0100
 41
0.0100
  0
VERTEX
  8
LPF39_SMT
 10
5.8220
 20
2.0060
 30
0.0000
  0
VERTEX
  8
LPF39_SMT
 10
5.6720
 20
2.0060
 30
0.0000
  0
SEQEND
  0
POLYLINE
  8
LPF39_SMT
 66
1
 10
0.0000
 20
0.0000
 30
0.0000
 40
0.0100
 41
0.0100
  0
VERTEX
  8
LPF39_SMT
 10
5.8220
 20
1.9970
 30
0.0000
  0
VERTEX
  8
LPF39_SMT
 10
5.6720
 20
1.9970
 30
0.0000
  0
SEQEND
  0
POLYLINE
  8
LPF39_SMT
 66
1
 10
0.0000
 20
0.0000
 30
0.0000
 40
0.0100
 41
0.0100
  0
VERTEX
  8
LPF39_SMT
 10
5.8220
 20
1.9880
 30
0.0000
  0
VERTEX
  8
LPF39_SMT
 10
5.6720
 20
1.9880
 30
0.0000
  0
SEQEND
  0
POLYLINE
  8
LPF39_SMT
 66
1
 10
0.0000
 20
0.0000
 30
0.0000
 40
0.0100
 41
0.0100
  0
VERTEX
  8
LPF39_SMT
 10
5.8220
 20
1.9790
 30
0.0000
  0
VERTEX
  8
LPF39_SMT
 10
5.6720
 20
1.9790
 30
0.0000
  0
SEQEND
  0
POLYLINE
  8
LPF39_SMT
 66
1
 10
0.0000
 20
0.0000
 30
0.0000
 40
0.0100
 41
0.0100
  0
VERTEX
  8
LPF39_SMT
 10
5.8220
 20
1.9700
 30
0.0000
  0
VERTEX
  8
LPF39_SMT
 10
5.6720
 20
1.9700
 30
0.0000
  0
SEQEND
  0
POLYLINE
  8
LPF39_SMT
 66
1
 10
0.0000
 20
0.0000
 30
0.0000
 40
0.0100
 41
0.0100
  0
VERTEX
  8
LPF39_SMT
 10
5.8220
 20
1.9610
 30
0.0000
  0
VERTEX
  8
LPF39_SMT
 10
5.6720
 20
1.9610
 30
0.0000
  0
SEQEND
  0
POLYLINE
  8
LPF39_SMT
 66
1
 10
0.0000
 20
0.0000
 30
0.0000
 40
0.0100
 41
0.0100
  0
VERTEX
  8
LPF39_SMT
 10
5.8220
 20
1.9520
 30
0.0000
  0
VERTEX
  8
LPF39_SMT
 10
5.6720
 20
1.9520
 30
0.0000
  0
SEQEND
  0
POLYLINE
  8
LPF39_SMT
 66
1
 10
0.0000
 20
0.0000
 30
0.0000
 40
0.0100
 41
0.0100
  0
VERTEX
  8
LPF39_SMT
 10
5.8220
 20
1.9430
 30
0.0000
  0
VERTEX
  8
LPF39_SMT
 10
5.6720
 20
1.9430
 30
0.0000
  0
SEQEND
  0
POLYLINE
  8
LPF39_SMT
 66
1
 10
0.0000
 20
0.0000
 30
0.0000
 40
0.0100
 41
0.0100
  0
VERTEX
  8
LPF39_SMT
 10
5.8220
 20
1.9340
 30
0.0000
  0
VERTEX
  8
LPF39_SMT
 10
5.6720
 20
1.9340
 30
0.0000
  0
SEQEND
  0
POLYLINE
  8
LPF39_SMT
 66
1
 10
0.0000
 20
0.0000
 30
0.0000
 40
0.0100
 41
0.0100
  0
VERTEX
  8
LPF39_SMT
 10
5.8220
 20
1.9300
 30
0.0000
  0
VERTEX
  8
LPF39_SMT
 10
5.6720
 20
1.9300
 30
0.0000
  0
SEQEND
  0
POLYLINE
  8
LPF39_SMT
 66
1
 10
0.0000
 20
0.0000
 30
0.0000
 40
0.0100
 41
0.0100
  0
VERTEX
  8
LPF39_SMT
 10
5.6720
 20
2.3400
 30
0.0000
  0
VERTEX
  8
LPF39_SMT
 10
5.6720
 20
1.9300
 30
0.0000
  0
SEQEND
  0
POLYLINE
  8
LPF39_SMT
 66
1
 10
0.0000
 20
0.0000
 30
0.0000
 40
0.0100
 41
0.0100
  0
VERTEX
  8
LPF39_SMT
 10
5.8250
 20
2.3400
 30
0.0000
  0
VERTEX
  8
LPF39_SMT
 10
5.6720
 20
2.3400
 30
0.0000
  0
SEQEND
  0
POLYLINE
  8
LPF39_SMT
 66
1
 10
0.0000
 20
0.0000
 30
0.0000
 40
0.0100
 41
0.0100
  0
VERTEX
  8
LPF39_SMT
 10
5.8250
 20
2.3400
 30
0.0000
  0
VERTEX
  8
LPF39_SMT
 10
5.8250
 20
2.2000
 30
0.0000
  0
SEQEND
  0
POLYLINE
  8
LPF39_SMT
 66
1
 10
0.0000
 20
0.0000
 30
0.0000
 40
0.0100
 41
0.0100
  0
VERTEX
  8
LPF39_SMT
 10
5.8950
 20
2.2000
 30
0.0000
  0
VERTEX
  8
LPF39_SMT
 10
5.8250
 20
2.2000
 30
0.0000
  0
SEQEND
  0
POLYLINE
  8
LPF39_SMT
 66
1
 10
0.0000
 20
0.0000
 30
0.0000
 40
0.0100
 41
0.0100
  0
VERTEX
  8
LPF39_SMT
 10
5.8950
 20
2.2000
 30
0.0000
  0
VERTEX
  8
LPF39_SMT
 10
5.8950
 20
2.1300
 30
0.0000
  0
VERTEX
  8
LPF39_SMT
 10
5.8220
 20
2.1300
 30
0.0000
  0
VERTEX
  8
LPF39_SMT
 10
5.8220
 20
1.9300
 30
0.0000
  0
SEQEND
  0
POLYLINE
  8
LPF39_SMT
 66
1
 10
0.0000
 20
0.0000
 30
0.0000
 40
0.0100
 41
0.0100
  0
VERTEX
  8
LPF39_SMT
 10
5.8920
 20
2.2000
 30
0.0000
  0
VERTEX
  8
LPF39_SMT
 10
5.8920
 20
2.1300
 30
0.0000
  0
SEQEND
  0
POLYLINE
  8
LPF39_SMT
 66
1
 10
0.0000
 20
0.0000
 30
0.0000
 40
0.0100
 41
0.0100
  0
VERTEX
  8
LPF39_SMT
 10
5.8830
 20
2.2000
 30
0.0000
  0
VERTEX
  8
LPF39_SMT
 10
5.8830
 20
2.1300
 30
0.0000
  0
SEQEND
  0
POLYLINE
  8
LPF39_SMT
 66
1
 10
0.0000
 20
0.0000
 30
0.0000
 40
0.0100
 41
0.0100
  0
VERTEX
  8
LPF39_SMT
 10
5.8740
 20
2.2000
 30
0.0000
  0
VERTEX
  8
LPF39_SMT
 10
5.8740
 20
2.1300
 30
0.0000
  0
SEQEND
  0
POLYLINE
  8
LPF39_SMT
 66
1
 10
0.0000
 20
0.0000
 30
0.0000
 40
0.0100
 41
0.0100
  0
VERTEX
  8
LPF39_SMT
 10
5.8650
 20
2.2000
 30
0.0000
  0
VERTEX
  8
LPF39_SMT
 10
5.8650
 20
2.1300
 30
0.0000
  0
SEQEND
  0
POLYLINE
  8
LPF39_SMT
 66
1
 10
0.0000
 20
0.0000
 30
0.0000
 40
0.0100
 41
0.0100
  0
VERTEX
  8
LPF39_SMT
 10
5.8560
 20
2.2000
 30
0.0000
  0
VERTEX
  8
LPF39_SMT
 10
5.8560
 20
2.1300
 30
0.0000
  0
SEQEND
  0
POLYLINE
  8
LPF39_SMT
 66
1
 10
0.0000
 20
0.0000
 30
0.0000
 40
0.0100
 41
0.0100
  0
VERTEX
  8
LPF39_SMT
 10
5.8470
 20
2.2000
 30
0.0000
  0
VERTEX
  8
LPF39_SMT
 10
5.8470
 20
2.1300
 30
0.0000
  0
SEQEND
  0
POLYLINE
  8
LPF39_SMT
 66
1
 10
0.0000
 20
0.0000
 30
0.0000
 40
0.0100
 41
0.0100
  0
VERTEX
  8
LPF39_SMT
 10
5.8380
 20
2.2000
 30
0.0000
  0
VERTEX
  8
LPF39_SMT
 10
5.8380
 20
2.1300
 30
0.0000
  0
SEQEND
  0
POLYLINE
  8
LPF39_SMT
 66
1
 10
0.0000
 20
0.0000
 30
0.0000
 40
0.0100
 41
0.0100
  0
VERTEX
  8
LPF39_SMT
 10
5.8290
 20
2.2000
 30
0.0000
  0
VERTEX
  8
LPF39_SMT
 10
5.8290
 20
2.1300
 30
0.0000
  0
SEQEND
  0
POLYLINE
  8
LPF39_SMT
 66
1
 10
0.0000
 20
0.0000
 30
0.0000
 40
0.0100
 41
0.0100
  0
VERTEX
  8
LPF39_SMT
 10
5.8200
 20
2.3400
 30
0.0000
  0
VERTEX
  8
LPF39_SMT
 10
5.8200
 20
1.9300
 30
0.0000
  0
SEQEND
  0
POLYLINE
  8
LPF39_SMT
 66
1
 10
0.0000
 20
0.0000
 30
0.0000
 40
0.0100
 41
0.0100
  0
VERTEX
  8
LPF39_SMT
 10
5.8110
 20
2.3400
 30
0.0000
  0
VERTEX
  8
LPF39_SMT
 10
5.8110
 20
1.9300
 30
0.0000
  0
SEQEND
  0
POLYLINE
  8
LPF39_SMT
 66
1
 10
0.0000
 20
0.0000
 30
0.0000
 40
0.0100
 41
0.0100
  0
VERTEX
  8
LPF39_SMT
 10
5.8020
 20
2.3400
 30
0.0000
  0
VERTEX
  8
LPF39_SMT
 10
5.8020
 20
1.9300
 30
0.0000
  0
SEQEND
  0
POLYLINE
  8
LPF39_SMT
 66
1
 10
0.0000
 20
0.0000
 30
0.0000
 40
0.0100
 41
0.0100
  0
VERTEX
  8
LPF39_SMT
 10
5.7930
 20
2.3400
 30
0.0000
  0
VERTEX
  8
LPF39_SMT
 10
5.7930
 20
1.9300
 30
0.0000
  0
SEQEND
  0
POLYLINE
  8
LPF39_SMT
 66
1
 10
0.0000
 20
0.0000
 30
0.0000
 40
0.0100
 41
0.0100
  0
VERTEX
  8
LPF39_SMT
 10
5.7840
 20
2.3400
 30
0.0000
  0
VERTEX
  8
LPF39_SMT
 10
5.7840
 20
1.9300
 30
0.0000
  0
SEQEND
  0
POLYLINE
  8
LPF39_SMT
 66
1
 10
0.0000
 20
0.0000
 30
0.0000
 40
0.0100
 41
0.0100
  0
VERTEX
  8
LPF39_SMT
 10
5.7750
 20
2.3400
 30
0.0000
  0
VERTEX
  8
LPF39_SMT
 10
5.7750
 20
1.9300
 30
0.0000
  0
SEQEND
  0
POLYLINE
  8
LPF39_SMT
 66
1
 10
0.0000
 20
0.0000
 30
0.0000
 40
0.0100
 41
0.0100
  0
VERTEX
  8
LPF39_SMT
 10
5.7660
 20
2.3400
 30
0.0000
  0
VERTEX
  8
LPF39_SMT
 10
5.7660
 20
1.9300
 30
0.0000
  0
SEQEND
  0
POLYLINE
  8
LPF39_SMT
 66
1
 10
0.0000
 20
0.0000
 30
0.0000
 40
0.0100
 41
0.0100
  0
VERTEX
  8
LPF39_SMT
 10
5.7570
 20
2.3400
 30
0.0000
  0
VERTEX
  8
LPF39_SMT
 10
5.7570
 20
1.9300
 30
0.0000
  0
SEQEND
  0
POLYLINE
  8
LPF39_SMT
 66
1
 10
0.0000
 20
0.0000
 30
0.0000
 40
0.0100
 41
0.0100
  0
VERTEX
  8
LPF39_SMT
 10
5.7480
 20
2.3400
 30
0.0000
  0
VERTEX
  8
LPF39_SMT
 10
5.7480
 20
1.9300
 30
0.0000
  0
SEQEND
  0
POLYLINE
  8
LPF39_SMT
 66
1
 10
0.0000
 20
0.0000
 30
0.0000
 40
0.0100
 41
0.0100
  0
VERTEX
  8
LPF39_SMT
 10
5.7390
 20
2.3400
 30
0.0000
  0
VERTEX
  8
LPF39_SMT
 10
5.7390
 20
1.9300
 30
0.0000
  0
SEQEND
  0
POLYLINE
  8
LPF39_SMT
 66
1
 10
0.0000
 20
0.0000
 30
0.0000
 40
0.0100
 41
0.0100
  0
VERTEX
  8
LPF39_SMT
 10
0.2360
 20
0.9810
 30
0.0000
  0
VERTEX
  8
LPF39_SMT
 10
0.2360
 20
0.6415
 30
0.0000
  0
SEQEND
  0
POLYLINE
  8
LPF39_SMT
 66
1
 10
0.0000
 20
0.0000
 30
0.0000
 40
0.0100
 41
0.0100
  0
VERTEX
  8
LPF39_SMT
 10
0.2270
 20
0.9810
 30
0.0000
  0
VERTEX
  8
LPF39_SMT
 10
0.2270
 20
0.6415
 30
0.0000
  0
SEQEND
  0
POLYLINE
  8
LPF39_SMT
 66
1
 10
0.0000
 20
0.0000
 30
0.0000
 40
0.0100
 41
0.0100
  0
VERTEX
  8
LPF39_SMT
 10
0.2180
 20
0.9810
 30
0.0000
  0
VERTEX
  8
LPF39_SMT
 10
0.2180
 20
0.6415
 30
0.0000
  0
SEQEND
  0
POLYLINE
  8
LPF39_SMT
 66
1
 10
0.0000
 20
0.0000
 30
0.0000
 40
0.0100
 41
0.0100
  0
VERTEX
  8
LPF39_SMT
 10
0.2090
 20
0.9810
 30
0.0000
  0
VERTEX
  8
LPF39_SMT
 10
0.2090
 20
0.6415
 30
0.0000
  0
SEQEND
  0
POLYLINE
  8
LPF39_SMT
 66
1
 10
0.0000
 20
0.0000
 30
0.0000
 40
0.0100
 41
0.0100
  0
VERTEX
  8
LPF39_SMT
 10
0.2000
 20
0.9810
 30
0.0000
  0
VERTEX
  8
LPF39_SMT
 10
0.2000
 20
0.6415
 30
0.0000
  0
SEQEND
  0
POLYLINE
  8
LPF39_SMT
 66
1
 10
0.0000
 20
0.0000
 30
0.0000
 40
0.0100
 41
0.0100
  0
VERTEX
  8
LPF39_SMT
 10
0.1910
 20
0.9810
 30
0.0000
  0
VERTEX
  8
LPF39_SMT
 10
0.1910
 20
0.6415
 30
0.0000
  0
SEQEND
  0
POLYLINE
  8
LPF39_SMT
 66
1
 10
0.0000
 20
0.0000
 30
0.0000
 40
0.0100
 41
0.0100
  0
VERTEX
  8
LPF39_SMT
 10
0.1820
 20
0.8400
 30
0.0000
  0
VERTEX
  8
LPF39_SMT
 10
0.1820
 20
0.7650
 30
0.0000
  0
SEQEND
  0
POLYLINE
  8
LPF39_SMT
 66
1
 10
0.0000
 20
0.0000
 30
0.0000
 40
0.0100
 41
0.0100
  0
VERTEX
  8
LPF39_SMT
 10
0.1730
 20
0.8400
 30
0.0000
  0
VERTEX
  8
LPF39_SMT
 10
0.1730
 20
0.7650
 30
0.0000
  0
SEQEND
  0
POLYLINE
  8
LPF39_SMT
 66
1
 10
0.0000
 20
0.0000
 30
0.0000
 40
0.0100
 41
0.0100
  0
VERTEX
  8
LPF39_SMT
 10
0.1640
 20
0.8400
 30
0.0000
  0
VERTEX
  8
LPF39_SMT
 10
0.1640
 20
0.7650
 30
0.0000
  0
SEQEND
  0
POLYLINE
  8
LPF39_SMT
 66
1
 10
0.0000
 20
0.0000
 30
0.0000
 40
0.0100
 41
0.0100
  0
VERTEX
  8
LPF39_SMT
 10
0.1550
 20
0.8400
 30
0.0000
  0
VERTEX
  8
LPF39_SMT
 10
0.1550
 20
0.7650
 30
0.0000
  0
SEQEND
  0
POLYLINE
  8
LPF39_SMT
 66
1
 10
0.0000
 20
0.0000
 30
0.0000
 40
0.0100
 41
0.0100
  0
VERTEX
  8
LPF39_SMT
 10
0.1460
 20
0.8400
 30
0.0000
  0
VERTEX
  8
LPF39_SMT
 10
0.1460
 20
0.7650
 30
0.0000
  0
SEQEND
  0
POLYLINE
  8
LPF39_SMT
 66
1
 10
0.0000
 20
0.0000
 30
0.0000
 40
0.0100
 41
0.0100
  0
VERTEX
  8
LPF39_SMT
 10
0.1370
 20
0.8400
 30
0.0000
  0
VERTEX
  8
LPF39_SMT
 10
0.1370
 20
0.7650
 30
0.0000
  0
SEQEND
  0
POLYLINE
  8
LPF39_SMT
 66
1
 10
0.0000
 20
0.0000
 30
0.0000
 40
0.0100
 41
0.0100
  0
VERTEX
  8
LPF39_SMT
 10
0.1280
 20
0.8400
 30
0.0000
  0
VERTEX
  8
LPF39_SMT
 10
0.1280
 20
0.7650
 30
0.0000
  0
SEQEND
  0
POLYLINE
  8
LPF39_SMT
 66
1
 10
0.0000
 20
0.0000
 30
0.0000
 40
0.0100
 41
0.0100
  0
VERTEX
  8
LPF39_SMT
 10
0.1190
 20
0.8400
 30
0.0000
  0
VERTEX
  8
LPF39_SMT
 10
0.1190
 20
0.7650
 30
0.0000
  0
SEQEND
  0
POLYLINE
  8
LPF39_SMT
 66
1
 10
0.0000
 20
0.0000
 30
0.0000
 40
0.0100
 41
0.0100
  0
VERTEX
  8
LPF39_SMT
 10
0.1100
 20
0.8400
 30
0.0000
  0
VERTEX
  8
LPF39_SMT
 10
0.1100
 20
0.7650
 30
0.0000
  0
SEQEND
  0
POLYLINE
  8
LPF39_SMT
 66
1
 10
0.0000
 20
0.0000
 30
0.0000
 40
0.0100
 41
0.0100
  0
VERTEX
  8
LPF39_SMT
 10
0.1010
 20
0.8400
 30
0.0000
  0
VERTEX
  8
LPF39_SMT
 10
0.1010
 20
0.7650
 30
0.0000
  0
SEQEND
  0
POLYLINE
  8
LPF39_SMT
 66
1
 10
0.0000
 20
0.0000
 30
0.0000
 40
0.0100
 41
0.0100
  0
VERTEX
  8
LPF39_SMT
 10
0.0920
 20
0.8400
 30
0.0000
  0
VERTEX
  8
LPF39_SMT
 10
0.0920
 20
0.7650
 30
0.0000
  0
SEQEND
  0
POLYLINE
  8
LPF39_SMT
 66
1
 10
0.0000
 20
0.0000
 30
0.0000
 40
0.0100
 41
0.0100
  0
VERTEX
  8
LPF39_SMT
 10
0.0830
 20
0.8400
 30
0.0000
  0
VERTEX
  8
LPF39_SMT
 10
0.0830
 20
0.7650
 30
0.0000
  0
SEQEND
  0
POLYLINE
  8
LPF39_SMT
 66
1
 10
0.0000
 20
0.0000
 30
0.0000
 40
0.0100
 41
0.0100
  0
VERTEX
  8
LPF39_SMT
 10
0.0740
 20
0.8400
 30
0.0000
  0
VERTEX
  8
LPF39_SMT
 10
0.0740
 20
0.7650
 30
0.0000
  0
SEQEND
  0
POLYLINE
  8
LPF39_SMT
 66
1
 10
0.0000
 20
0.0000
 30
0.0000
 40
0.0100
 41
0.0100
  0
VERTEX
  8
LPF39_SMT
 10
0.0650
 20
0.8400
 30
0.0000
  0
VERTEX
  8
LPF39_SMT
 10
0.0650
 20
0.7650
 30
0.0000
  0
SEQEND
  0
POLYLINE
  8
LPF39_SMT
 66
1
 10
0.0000
 20
0.0000
 30
0.0000
 40
0.0100
 41
0.0100
  0
VERTEX
  8
LPF39_SMT
 10
0.0560
 20
0.8400
 30
0.0000
  0
VERTEX
  8
LPF39_SMT
 10
0.0560
 20
0.7650
 30
0.0000
  0
SEQEND
  0
POLYLINE
  8
LPF39_SMT
 66
1
 10
0.0000
 20
0.0000
 30
0.0000
 40
0.0100
 41
0.0100
  0
VERTEX
  8
LPF39_SMT
 10
0.0470
 20
0.8400
 30
0.0000
  0
VERTEX
  8
LPF39_SMT
 10
0.0470
 20
0.7650
 30
0.0000
  0
SEQEND
  0
POLYLINE
  8
LPF39_SMT
 66
1
 10
0.0000
 20
0.0000
 30
0.0000
 40
0.0100
 41
0.0100
  0
VERTEX
  8
LPF39_SMT
 10
0.0380
 20
0.8400
 30
0.0000
  0
VERTEX
  8
LPF39_SMT
 10
0.0380
 20
0.7650
 30
0.0000
  0
SEQEND
  0
POLYLINE
  8
LPF39_SMT
 66
1
 10
0.0000
 20
0.0000
 30
0.0000
 40
0.0100
 41
0.0100
  0
VERTEX
  8
LPF39_SMT
 10
0.0290
 20
0.8400
 30
0.0000
  0
VERTEX
  8
LPF39_SMT
 10
0.0290
 20
0.7650
 30
0.0000
  0
SEQEND
  0
POLYLINE
  8
LPF39_SMT
 66
1
 10
0.0000
 20
0.0000
 30
0.0000
 40
0.0100
 41
0.0100
  0
VERTEX
  8
LPF39_SMT
 10
0.3360
 20
0.9785
 30
0.0000
  0
VERTEX
  8
LPF39_SMT
 10
0.1860
 20
0.9785
 30
0.0000
  0
SEQEND
  0
POLYLINE
  8
LPF39_SMT
 66
1
 10
0.0000
 20
0.0000
 30
0.0000
 40
0.0100
 41
0.0100
  0
VERTEX
  8
LPF39_SMT
 10
0.3360
 20
0.9695
 30
0.0000
  0
VERTEX
  8
LPF39_SMT
 10
0.1859
 20
0.9695
 30
0.0000
  0
SEQEND
  0
POLYLINE
  8
LPF39_SMT
 66
1
 10
0.0000
 20
0.0000
 30
0.0000
 40
0.0100
 41
0.0100
  0
VERTEX
  8
LPF39_SMT
 10
0.3360
 20
0.9605
 30
0.0000
  0
VERTEX
  8
LPF39_SMT
 10
0.1858
 20
0.9605
 30
0.0000
  0
SEQEND
  0
POLYLINE
  8
LPF39_SMT
 66
1
 10
0.0000
 20
0.0000
 30
0.0000
 40
0.0100
 41
0.0100
  0
VERTEX
  8
LPF39_SMT
 10
0.3360
 20
0.9515
 30
0.0000
  0
VERTEX
  8
LPF39_SMT
 10
0.1858
 20
0.9515
 30
0.0000
  0
SEQEND
  0
POLYLINE
  8
LPF39_SMT
 66
1
 10
0.0000
 20
0.0000
 30
0.0000
 40
0.0100
 41
0.0100
  0
VERTEX
  8
LPF39_SMT
 10
0.3360
 20
0.9425
 30
0.0000
  0
VERTEX
  8
LPF39_SMT
 10
0.1857
 20
0.9425
 30
0.0000
  0
SEQEND
  0
POLYLINE
  8
LPF39_SMT
 66
1
 10
0.0000
 20
0.0000
 30
0.0000
 40
0.0100
 41
0.0100
  0
VERTEX
  8
LPF39_SMT
 10
0.3360
 20
0.9335
 30
0.0000
  0
VERTEX
  8
LPF39_SMT
 10
0.1856
 20
0.9335
 30
0.0000
  0
SEQEND
  0
POLYLINE
  8
LPF39_SMT
 66
1
 10
0.0000
 20
0.0000
 30
0.0000
 40
0.0100
 41
0.0100
  0
VERTEX
  8
LPF39_SMT
 10
0.3360
 20
0.9245
 30
0.0000
  0
VERTEX
  8
LPF39_SMT
 10
0.1856
 20
0.9245
 30
0.0000
  0
SEQEND
  0
POLYLINE
  8
LPF39_SMT
 66
1
 10
0.0000
 20
0.0000
 30
0.0000
 40
0.0100
 41
0.0100
  0
VERTEX
  8
LPF39_SMT
 10
0.3360
 20
0.9155
 30
0.0000
  0
VERTEX
  8
LPF39_SMT
 10
0.1855
 20
0.9155
 30
0.0000
  0
SEQEND
  0
POLYLINE
  8
LPF39_SMT
 66
1
 10
0.0000
 20
0.0000
 30
0.0000
 40
0.0100
 41
0.0100
  0
VERTEX
  8
LPF39_SMT
 10
0.3360
 20
0.9065
 30
0.0000
  0
VERTEX
  8
LPF39_SMT
 10
0.1855
 20
0.9065
 30
0.0000
  0
SEQEND
  0
POLYLINE
  8
LPF39_SMT
 66
1
 10
0.0000
 20
0.0000
 30
0.0000
 40
0.0100
 41
0.0100
  0
VERTEX
  8
LPF39_SMT
 10
0.3360
 20
0.8975
 30
0.0000
  0
VERTEX
  8
LPF39_SMT
 10
0.1854
 20
0.8975
 30
0.0000
  0
SEQEND
  0
POLYLINE
  8
LPF39_SMT
 66
1
 10
0.0000
 20
0.0000
 30
0.0000
 40
0.0100
 41
0.0100
  0
VERTEX
  8
LPF39_SMT
 10
0.3360
 20
0.8885
 30
0.0000
  0
VERTEX
  8
LPF39_SMT
 10
0.1853
 20
0.8885
 30
0.0000
  0
SEQEND
  0
POLYLINE
  8
LPF39_SMT
 66
1
 10
0.0000
 20
0.0000
 30
0.0000
 40
0.0100
 41
0.0100
  0
VERTEX
  8
LPF39_SMT
 10
0.3360
 20
0.8795
 30
0.0000
  0
VERTEX
  8
LPF39_SMT
 10
0.1853
 20
0.8795
 30
0.0000
  0
SEQEND
  0
POLYLINE
  8
LPF39_SMT
 66
1
 10
0.0000
 20
0.0000
 30
0.0000
 40
0.0100
 41
0.0100
  0
VERTEX
  8
LPF39_SMT
 10
0.3360
 20
0.8705
 30
0.0000
  0
VERTEX
  8
LPF39_SMT
 10
0.1852
 20
0.8705
 30
0.0000
  0
SEQEND
  0
POLYLINE
  8
LPF39_SMT
 66
1
 10
0.0000
 20
0.0000
 30
0.0000
 40
0.0100
 41
0.0100
  0
VERTEX
  8
LPF39_SMT
 10
0.3360
 20
0.8615
 30
0.0000
  0
VERTEX
  8
LPF39_SMT
 10
0.1851
 20
0.8615
 30
0.0000
  0
SEQEND
  0
POLYLINE
  8
LPF39_SMT
 66
1
 10
0.0000
 20
0.0000
 30
0.0000
 40
0.0100
 41
0.0100
  0
VERTEX
  8
LPF39_SMT
 10
0.3360
 20
0.8525
 30
0.0000
  0
VERTEX
  8
LPF39_SMT
 10
0.1851
 20
0.8525
 30
0.0000
  0
SEQEND
  0
POLYLINE
  8
LPF39_SMT
 66
1
 10
0.0000
 20
0.0000
 30
0.0000
 40
0.0100
 41
0.0100
  0
VERTEX
  8
LPF39_SMT
 10
0.3360
 20
0.8435
 30
0.0000
  0
VERTEX
  8
LPF39_SMT
 10
0.1850
 20
0.8435
 30
0.0000
  0
SEQEND
  0
POLYLINE
  8
LPF39_SMT
 66
1
 10
0.0000
 20
0.0000
 30
0.0000
 40
0.0100
 41
0.0100
  0
VERTEX
  8
LPF39_SMT
 10
0.3360
 20
0.8345
 30
0.0000
  0
VERTEX
  8
LPF39_SMT
 10
0.0250
 20
0.8345
 30
0.0000
  0
SEQEND
  0
POLYLINE
  8
LPF39_SMT
 66
1
 10
0.0000
 20
0.0000
 30
0.0000
 40
0.0100
 41
0.0100
  0
VERTEX
  8
LPF39_SMT
 10
0.3360
 20
0.8255
 30
0.0000
  0
VERTEX
  8
LPF39_SMT
 10
0.0250
 20
0.8255
 30
0.0000
  0
SEQEND
  0
POLYLINE
  8
LPF39_SMT
 66
1
 10
0.0000
 20
0.0000
 30
0.0000
 40
0.0100
 41
0.0100
  0
VERTEX
  8
LPF39_SMT
 10
0.3360
 20
0.8165
 30
0.0000
  0
VERTEX
  8
LPF39_SMT
 10
0.0250
 20
0.8165
 30
0.0000
  0
SEQEND
  0
POLYLINE
  8
LPF39_SMT
 66
1
 10
0.0000
 20
0.0000
 30
0.0000
 40
0.0100
 41
0.0100
  0
VERTEX
  8
LPF39_SMT
 10
0.3360
 20
0.8075
 30
0.0000
  0
VERTEX
  8
LPF39_SMT
 10
0.0250
 20
0.8075
 30
0.0000
  0
SEQEND
  0
POLYLINE
  8
LPF39_SMT
 66
1
 10
0.0000
 20
0.0000
 30
0.0000
 40
0.0100
 41
0.0100
  0
VERTEX
  8
LPF39_SMT
 10
0.3360
 20
0.7985
 30
0.0000
  0
VERTEX
  8
LPF39_SMT
 10
0.0250
 20
0.7985
 30
0.0000
  0
SEQEND
  0
POLYLINE
  8
LPF39_SMT
 66
1
 10
0.0000
 20
0.0000
 30
0.0000
 40
0.0100
 41
0.0100
  0
VERTEX
  8
LPF39_SMT
 10
0.3360
 20
0.7895
 30
0.0000
  0
VERTEX
  8
LPF39_SMT
 10
0.0250
 20
0.7895
 30
0.0000
  0
SEQEND
  0
POLYLINE
  8
LPF39_SMT
 66
1
 10
0.0000
 20
0.0000
 30
0.0000
 40
0.0100
 41
0.0100
  0
VERTEX
  8
LPF39_SMT
 10
0.3360
 20
0.7805
 30
0.0000
  0
VERTEX
  8
LPF39_SMT
 10
0.0250
 20
0.7805
 30
0.0000
  0
SEQEND
  0
POLYLINE
  8
LPF39_SMT
 66
1
 10
0.0000
 20
0.0000
 30
0.0000
 40
0.0100
 41
0.0100
  0
VERTEX
  8
LPF39_SMT
 10
0.3360
 20
0.7715
 30
0.0000
  0
VERTEX
  8
LPF39_SMT
 10
0.0250
 20
0.7715
 30
0.0000
  0
SEQEND
  0
POLYLINE
  8
LPF39_SMT
 66
1
 10
0.0000
 20
0.0000
 30
0.0000
 40
0.0100
 41
0.0100
  0
VERTEX
  8
LPF39_SMT
 10
0.3360
 20
0.7625
 30
0.0000
  0
VERTEX
  8
LPF39_SMT
 10
0.1860
 20
0.7625
 30
0.0000
  0
SEQEND
  0
POLYLINE
  8
LPF39_SMT
 66
1
 10
0.0000
 20
0.0000
 30
0.0000
 40
0.0100
 41
0.0100
  0
VERTEX
  8
LPF39_SMT
 10
0.3360
 20
0.7535
 30
0.0000
  0
VERTEX
  8
LPF39_SMT
 10
0.1860
 20
0.7535
 30
0.0000
  0
SEQEND
  0
POLYLINE
  8
LPF39_SMT
 66
1
 10
0.0000
 20
0.0000
 30
0.0000
 40
0.0100
 41
0.0100
  0
VERTEX
  8
LPF39_SMT
 10
0.3360
 20
0.7445
 30
0.0000
  0
VERTEX
  8
LPF39_SMT
 10
0.1860
 20
0.7445
 30
0.0000
  0
SEQEND
  0
POLYLINE
  8
LPF39_SMT
 66
1
 10
0.0000
 20
0.0000
 30
0.0000
 40
0.0100
 41
0.0100
  0
VERTEX
  8
LPF39_SMT
 10
0.3360
 20
0.7355
 30
0.0000
  0
VERTEX
  8
LPF39_SMT
 10
0.1860
 20
0.7355
 30
0.0000
  0
SEQEND
  0
POLYLINE
  8
LPF39_SMT
 66
1
 10
0.0000
 20
0.0000
 30
0.0000
 40
0.0100
 41
0.0100
  0
VERTEX
  8
LPF39_SMT
 10
0.3360
 20
0.7265
 30
0.0000
  0
VERTEX
  8
LPF39_SMT
 10
0.1860
 20
0.7265
 30
0.0000
  0
SEQEND
  0
POLYLINE
  8
LPF39_SMT
 66
1
 10
0.0000
 20
0.0000
 30
0.0000
 40
0.0100
 41
0.0100
  0
VERTEX
  8
LPF39_SMT
 10
0.3360
 20
0.7175
 30
0.0000
  0
VERTEX
  8
LPF39_SMT
 10
0.1860
 20
0.7175
 30
0.0000
  0
SEQEND
  0
POLYLINE
  8
LPF39_SMT
 66
1
 10
0.0000
 20
0.0000
 30
0.0000
 40
0.0100
 41
0.0100
  0
VERTEX
  8
LPF39_SMT
 10
0.3360
 20
0.7085
 30
0.0000
  0
VERTEX
  8
LPF39_SMT
 10
0.1860
 20
0.7085
 30
0.0000
  0
SEQEND
  0
POLYLINE
  8
LPF39_SMT
 66
1
 10
0.0000
 20
0.0000
 30
0.0000
 40
0.0100
 41
0.0100
  0
VERTEX
  8
LPF39_SMT
 10
0.3360
 20
0.6995
 30
0.0000
  0
VERTEX
  8
LPF39_SMT
 10
0.1860
 20
0.6995
 30
0.0000
  0
SEQEND
  0
POLYLINE
  8
LPF39_SMT
 66
1
 10
0.0000
 20
0.0000
 30
0.0000
 40
0.0100
 41
0.0100
  0
VERTEX
  8
LPF39_SMT
 10
0.3360
 20
0.6905
 30
0.0000
  0
VERTEX
  8
LPF39_SMT
 10
0.1860
 20
0.6905
 30
0.0000
  0
SEQEND
  0
POLYLINE
  8
LPF39_SMT
 66
1
 10
0.0000
 20
0.0000
 30
0.0000
 40
0.0100
 41
0.0100
  0
VERTEX
  8
LPF39_SMT
 10
0.3360
 20
0.6815
 30
0.0000
  0
VERTEX
  8
LPF39_SMT
 10
0.1860
 20
0.6815
 30
0.0000
  0
SEQEND
  0
POLYLINE
  8
LPF39_SMT
 66
1
 10
0.0000
 20
0.0000
 30
0.0000
 40
0.0100
 41
0.0100
  0
VERTEX
  8
LPF39_SMT
 10
0.3360
 20
0.6725
 30
0.0000
  0
VERTEX
  8
LPF39_SMT
 10
0.1860
 20
0.6725
 30
0.0000
  0
SEQEND
  0
POLYLINE
  8
LPF39_SMT
 66
1
 10
0.0000
 20
0.0000
 30
0.0000
 40
0.0100
 41
0.0100
  0
VERTEX
  8
LPF39_SMT
 10
0.3360
 20
0.6635
 30
0.0000
  0
VERTEX
  8
LPF39_SMT
 10
0.1860
 20
0.6635
 30
0.0000
  0
SEQEND
  0
POLYLINE
  8
LPF39_SMT
 66
1
 10
0.0000
 20
0.0000
 30
0.0000
 40
0.0100
 41
0.0100
  0
VERTEX
  8
LPF39_SMT
 10
0.3360
 20
0.6545
 30
0.0000
  0
VERTEX
  8
LPF39_SMT
 10
0.1860
 20
0.6545
 30
0.0000
  0
SEQEND
  0
POLYLINE
  8
LPF39_SMT
 66
1
 10
0.0000
 20
0.0000
 30
0.0000
 40
0.0100
 41
0.0100
  0
VERTEX
  8
LPF39_SMT
 10
0.3360
 20
0.6455
 30
0.0000
  0
VERTEX
  8
LPF39_SMT
 10
0.1860
 20
0.6455
 30
0.0000
  0
SEQEND
  0
POLYLINE
  8
LPF39_SMT
 66
1
 10
0.0000
 20
0.0000
 30
0.0000
 40
0.0100
 41
0.0100
  0
VERTEX
  8
LPF39_SMT
 10
0.1860
 20
0.9810
 30
0.0000
  0
VERTEX
  8
LPF39_SMT
 10
0.1850
 20
0.8400
 30
0.0000
  0
VERTEX
  8
LPF39_SMT
 10
0.0250
 20
0.8400
 30
0.0000
  0
VERTEX
  8
LPF39_SMT
 10
0.0250
 20
0.7650
 30
0.0000
  0
SEQEND
  0
POLYLINE
  8
LPF39_SMT
 66
1
 10
0.0000
 20
0.0000
 30
0.0000
 40
0.0100
 41
0.0100
  0
VERTEX
  8
LPF39_SMT
 10
0.1860
 20
0.7650
 30
0.0000
  0
VERTEX
  8
LPF39_SMT
 10
0.0250
 20
0.7650
 30
0.0000
  0
SEQEND
  0
POLYLINE
  8
LPF39_SMT
 66
1
 10
0.0000
 20
0.0000
 30
0.0000
 40
0.0100
 41
0.0100
  0
VERTEX
  8
LPF39_SMT
 10
0.1860
 20
0.7650
 30
0.0000
  0
VERTEX
  8
LPF39_SMT
 10
0.1860
 20
0.6415
 30
0.0000
  0
SEQEND
  0
POLYLINE
  8
LPF39_SMT
 66
1
 10
0.0000
 20
0.0000
 30
0.0000
 40
0.0100
 41
0.0100
  0
VERTEX
  8
LPF39_SMT
 10
0.3360
 20
0.6415
 30
0.0000
  0
VERTEX
  8
LPF39_SMT
 10
0.1860
 20
0.6415
 30
0.0000
  0
SEQEND
  0
POLYLINE
  8
LPF39_SMT
 66
1
 10
0.0000
 20
0.0000
 30
0.0000
 40
0.0100
 41
0.0100
  0
VERTEX
  8
LPF39_SMT
 10
0.3360
 20
0.9810
 30
0.0000
  0
VERTEX
  8
LPF39_SMT
 10
0.3360
 20
0.6415
 30
0.0000
  0
SEQEND
  0
POLYLINE
  8
LPF39_SMT
 66
1
 10
0.0000
 20
0.0000
 30
0.0000
 40
0.0100
 41
0.0100
  0
VERTEX
  8
LPF39_SMT
 10
0.3360
 20
0.9810
 30
0.0000
  0
VERTEX
  8
LPF39_SMT
 10
0.1860
 20
0.9810
 30
0.0000
  0
SEQEND
  0
POLYLINE
  8
LPF39_SMT
 66
1
 10
0.0000
 20
0.0000
 30
0.0000
 40
0.0100
 41
0.0100
  0
VERTEX
  8
LPF39_SMT
 10
0.3350
 20
0.9810
 30
0.0000
  0
VERTEX
  8
LPF39_SMT
 10
0.3350
 20
0.6415
 30
0.0000
  0
SEQEND
  0
POLYLINE
  8
LPF39_SMT
 66
1
 10
0.0000
 20
0.0000
 30
0.0000
 40
0.0100
 41
0.0100
  0
VERTEX
  8
LPF39_SMT
 10
0.3260
 20
0.9810
 30
0.0000
  0
VERTEX
  8
LPF39_SMT
 10
0.3260
 20
0.6415
 30
0.0000
  0
SEQEND
  0
POLYLINE
  8
LPF39_SMT
 66
1
 10
0.0000
 20
0.0000
 30
0.0000
 40
0.0100
 41
0.0100
  0
VERTEX
  8
LPF39_SMT
 10
0.3170
 20
0.9810
 30
0.0000
  0
VERTEX
  8
LPF39_SMT
 10
0.3170
 20
0.6415
 30
0.0000
  0
SEQEND
  0
POLYLINE
  8
LPF39_SMT
 66
1
 10
0.0000
 20
0.0000
 30
0.0000
 40
0.0100
 41
0.0100
  0
VERTEX
  8
LPF39_SMT
 10
0.3080
 20
0.9810
 30
0.0000
  0
VERTEX
  8
LPF39_SMT
 10
0.3080
 20
0.6415
 30
0.0000
  0
SEQEND
  0
POLYLINE
  8
LPF39_SMT
 66
1
 10
0.0000
 20
0.0000
 30
0.0000
 40
0.0100
 41
0.0100
  0
VERTEX
  8
LPF39_SMT
 10
0.2990
 20
0.9810
 30
0.0000
  0
VERTEX
  8
LPF39_SMT
 10
0.2990
 20
0.6415
 30
0.0000
  0
SEQEND
  0
POLYLINE
  8
LPF39_SMT
 66
1
 10
0.0000
 20
0.0000
 30
0.0000
 40
0.0100
 41
0.0100
  0
VERTEX
  8
LPF39_SMT
 10
0.2900
 20
0.9810
 30
0.0000
  0
VERTEX
  8
LPF39_SMT
 10
0.2900
 20
0.6415
 30
0.0000
  0
SEQEND
  0
POLYLINE
  8
LPF39_SMT
 66
1
 10
0.0000
 20
0.0000
 30
0.0000
 40
0.0100
 41
0.0100
  0
VERTEX
  8
LPF39_SMT
 10
0.2810
 20
0.9810
 30
0.0000
  0
VERTEX
  8
LPF39_SMT
 10
0.2810
 20
0.6415
 30
0.0000
  0
SEQEND
  0
POLYLINE
  8
LPF39_SMT
 66
1
 10
0.0000
 20
0.0000
 30
0.0000
 40
0.0100
 41
0.0100
  0
VERTEX
  8
LPF39_SMT
 10
0.2720
 20
0.9810
 30
0.0000
  0
VERTEX
  8
LPF39_SMT
 10
0.2720
 20
0.6415
 30
0.0000
  0
SEQEND
  0
POLYLINE
  8
LPF39_SMT
 66
1
 10
0.0000
 20
0.0000
 30
0.0000
 40
0.0100
 41
0.0100
  0
VERTEX
  8
LPF39_SMT
 10
0.2630
 20
0.9810
 30
0.0000
  0
VERTEX
  8
LPF39_SMT
 10
0.2630
 20
0.6415
 30
0.0000
  0
SEQEND
  0
POLYLINE
  8
LPF39_SMT
 66
1
 10
0.0000
 20
0.0000
 30
0.0000
 40
0.0100
 41
0.0100
  0
VERTEX
  8
LPF39_SMT
 10
0.2540
 20
0.9810
 30
0.0000
  0
VERTEX
  8
LPF39_SMT
 10
0.2540
 20
0.6415
 30
0.0000
  0
SEQEND
  0
POLYLINE
  8
LPF39_SMT
 66
1
 10
0.0000
 20
0.0000
 30
0.0000
 40
0.0100
 41
0.0100
  0
VERTEX
  8
LPF39_SMT
 10
0.2450
 20
0.9810
 30
0.0000
  0
VERTEX
  8
LPF39_SMT
 10
0.2450
 20
0.6415
 30
0.0000
  0
SEQEND
  0
POLYLINE
  8
LPF39_SMT
 66
1
 10
0.0000
 20
0.0000
 30
0.0000
 40
0.0100
 41
0.0100
  0
VERTEX
  8
LPF39_SMT
 10
0.1850
 20
0.5000
 30
0.0000
  0
VERTEX
  8
LPF39_SMT
 10
0.1850
 20
0.4065
 30
0.0000
  0
SEQEND
  0
POLYLINE
  8
LPF39_SMT
 66
1
 10
0.0000
 20
0.0000
 30
0.0000
 40
0.0100
 41
0.0100
  0
VERTEX
  8
LPF39_SMT
 10
0.5220
 20
0.5000
 30
0.0000
  0
VERTEX
  8
LPF39_SMT
 10
0.5220
 20
0.0250
 30
0.0000
  0
SEQEND
  0
POLYLINE
  8
LPF39_SMT
 66
1
 10
0.0000
 20
0.0000
 30
0.0000
 40
0.0100
 41
0.0100
  0
VERTEX
  8
LPF39_SMT
 10
0.5130
 20
0.5000
 30
0.0000
  0
VERTEX
  8
LPF39_SMT
 10
0.5130
 20
0.0250
 30
0.0000
  0
SEQEND
  0
POLYLINE
  8
LPF39_SMT
 66
1
 10
0.0000
 20
0.0000
 30
0.0000
 40
0.0100
 41
0.0100
  0
VERTEX
  8
LPF39_SMT
 10
0.5040
 20
0.5000
 30
0.0000
  0
VERTEX
  8
LPF39_SMT
 10
0.5040
 20
0.0250
 30
0.0000
  0
SEQEND
  0
POLYLINE
  8
LPF39_SMT
 66
1
 10
0.0000
 20
0.0000
 30
0.0000
 40
0.0100
 41
0.0100
  0
VERTEX
  8
LPF39_SMT
 10
0.4950
 20
0.5000
 30
0.0000
  0
VERTEX
  8
LPF39_SMT
 10
0.4950
 20
0.0250
 30
0.0000
  0
SEQEND
  0
POLYLINE
  8
LPF39_SMT
 66
1
 10
0.0000
 20
0.0000
 30
0.0000
 40
0.0100
 41
0.0100
  0
VERTEX
  8
LPF39_SMT
 10
0.4860
 20
0.5000
 30
0.0000
  0
VERTEX
  8
LPF39_SMT
 10
0.4860
 20
0.0250
 30
0.0000
  0
SEQEND
  0
POLYLINE
  8
LPF39_SMT
 66
1
 10
0.0000
 20
0.0000
 30
0.0000
 40
0.0100
 41
0.0100
  0
VERTEX
  8
LPF39_SMT
 10
0.4770
 20
0.5000
 30
0.0000
  0
VERTEX
  8
LPF39_SMT
 10
0.4770
 20
0.0250
 30
0.0000
  0
SEQEND
  0
POLYLINE
  8
LPF39_SMT
 66
1
 10
0.0000
 20
0.0000
 30
0.0000
 40
0.0100
 41
0.0100
  0
VERTEX
  8
LPF39_SMT
 10
0.4680
 20
0.5000
 30
0.0000
  0
VERTEX
  8
LPF39_SMT
 10
0.4680
 20
0.0250
 30
0.0000
  0
SEQEND
  0
POLYLINE
  8
LPF39_SMT
 66
1
 10
0.0000
 20
0.0000
 30
0.0000
 40
0.0100
 41
0.0100
  0
VERTEX
  8
LPF39_SMT
 10
0.4590
 20
0.5000
 30
0.0000
  0
VERTEX
  8
LPF39_SMT
 10
0.4590
 20
0.0250
 30
0.0000
  0
SEQEND
  0
POLYLINE
  8
LPF39_SMT
 66
1
 10
0.0000
 20
0.0000
 30
0.0000
 40
0.0100
 41
0.0100
  0
VERTEX
  8
LPF39_SMT
 10
0.4500
 20
0.5000
 30
0.0000
  0
VERTEX
  8
LPF39_SMT
 10
0.4500
 20
0.0250
 30
0.0000
  0
SEQEND
  0
POLYLINE
  8
LPF39_SMT
 66
1
 10
0.0000
 20
0.0000
 30
0.0000
 40
0.0100
 41
0.0100
  0
VERTEX
  8
LPF39_SMT
 10
0.4410
 20
0.5000
 30
0.0000
  0
VERTEX
  8
LPF39_SMT
 10
0.4410
 20
0.0250
 30
0.0000
  0
SEQEND
  0
POLYLINE
  8
LPF39_SMT
 66
1
 10
0.0000
 20
0.0000
 30
0.0000
 40
0.0100
 41
0.0100
  0
VERTEX
  8
LPF39_SMT
 10
0.4320
 20
0.5000
 30
0.0000
  0
VERTEX
  8
LPF39_SMT
 10
0.4320
 20
0.0250
 30
0.0000
  0
SEQEND
  0
POLYLINE
  8
LPF39_SMT
 66
1
 10
0.0000
 20
0.0000
 30
0.0000
 40
0.0100
 41
0.0100
  0
VERTEX
  8
LPF39_SMT
 10
0.4230
 20
0.5000
 30
0.0000
  0
VERTEX
  8
LPF39_SMT
 10
0.4230
 20
0.0250
 30
0.0000
  0
SEQEND
  0
POLYLINE
  8
LPF39_SMT
 66
1
 10
0.0000
 20
0.0000
 30
0.0000
 40
0.0100
 41
0.0100
  0
VERTEX
  8
LPF39_SMT
 10
0.4140
 20
0.5000
 30
0.0000
  0
VERTEX
  8
LPF39_SMT
 10
0.4140
 20
0.0250
 30
0.0000
  0
SEQEND
  0
POLYLINE
  8
LPF39_SMT
 66
1
 10
0.0000
 20
0.0000
 30
0.0000
 40
0.0100
 41
0.0100
  0
VERTEX
  8
LPF39_SMT
 10
0.4050
 20
0.5000
 30
0.0000
  0
VERTEX
  8
LPF39_SMT
 10
0.4050
 20
0.0250
 30
0.0000
  0
SEQEND
  0
POLYLINE
  8
LPF39_SMT
 66
1
 10
0.0000
 20
0.0000
 30
0.0000
 40
0.0100
 41
0.0100
  0
VERTEX
  8
LPF39_SMT
 10
0.3960
 20
0.5000
 30
0.0000
  0
VERTEX
  8
LPF39_SMT
 10
0.3960
 20
0.0250
 30
0.0000
  0
SEQEND
  0
POLYLINE
  8
LPF39_SMT
 66
1
 10
0.0000
 20
0.0000
 30
0.0000
 40
0.0100
 41
0.0100
  0
VERTEX
  8
LPF39_SMT
 10
0.3870
 20
0.5000
 30
0.0000
  0
VERTEX
  8
LPF39_SMT
 10
0.3870
 20
0.0250
 30
0.0000
  0
SEQEND
  0
POLYLINE
  8
LPF39_SMT
 66
1
 10
0.0000
 20
0.0000
 30
0.0000
 40
0.0100
 41
0.0100
  0
VERTEX
  8
LPF39_SMT
 10
0.3780
 20
0.5000
 30
0.0000
  0
VERTEX
  8
LPF39_SMT
 10
0.3780
 20
0.0250
 30
0.0000
  0
SEQEND
  0
POLYLINE
  8
LPF39_SMT
 66
1
 10
0.0000
 20
0.0000
 30
0.0000
 40
0.0100
 41
0.0100
  0
VERTEX
  8
LPF39_SMT
 10
0.3690
 20
0.5000
 30
0.0000
  0
VERTEX
  8
LPF39_SMT
 10
0.3690
 20
0.0250
 30
0.0000
  0
SEQEND
  0
POLYLINE
  8
LPF39_SMT
 66
1
 10
0.0000
 20
0.0000
 30
0.0000
 40
0.0100
 41
0.0100
  0
VERTEX
  8
LPF39_SMT
 10
0.3600
 20
0.5000
 30
0.0000
  0
VERTEX
  8
LPF39_SMT
 10
0.3600
 20
0.0250
 30
0.0000
  0
SEQEND
  0
POLYLINE
  8
LPF39_SMT
 66
1
 10
0.0000
 20
0.0000
 30
0.0000
 40
0.0100
 41
0.0100
  0
VERTEX
  8
LPF39_SMT
 10
0.3510
 20
0.5000
 30
0.0000
  0
VERTEX
  8
LPF39_SMT
 10
0.3510
 20
0.0250
 30
0.0000
  0
SEQEND
  0
POLYLINE
  8
LPF39_SMT
 66
1
 10
0.0000
 20
0.0000
 30
0.0000
 40
0.0100
 41
0.0100
  0
VERTEX
  8
LPF39_SMT
 10
0.3420
 20
0.5000
 30
0.0000
  0
VERTEX
  8
LPF39_SMT
 10
0.3420
 20
0.0250
 30
0.0000
  0
SEQEND
  0
POLYLINE
  8
LPF39_SMT
 66
1
 10
0.0000
 20
0.0000
 30
0.0000
 40
0.0100
 41
0.0100
  0
VERTEX
  8
LPF39_SMT
 10
0.3330
 20
0.5000
 30
0.0000
  0
VERTEX
  8
LPF39_SMT
 10
0.3330
 20
0.0250
 30
0.0000
  0
SEQEND
  0
POLYLINE
  8
LPF39_SMT
 66
1
 10
0.0000
 20
0.0000
 30
0.0000
 40
0.0100
 41
0.0100
  0
VERTEX
  8
LPF39_SMT
 10
0.3240
 20
0.5000
 30
0.0000
  0
VERTEX
  8
LPF39_SMT
 10
0.3240
 20
0.0250
 30
0.0000
  0
SEQEND
  0
POLYLINE
  8
LPF39_SMT
 66
1
 10
0.0000
 20
0.0000
 30
0.0000
 40
0.0100
 41
0.0100
  0
VERTEX
  8
LPF39_SMT
 10
0.3150
 20
0.5000
 30
0.0000
  0
VERTEX
  8
LPF39_SMT
 10
0.3150
 20
0.0250
 30
0.0000
  0
SEQEND
  0
POLYLINE
  8
LPF39_SMT
 66
1
 10
0.0000
 20
0.0000
 30
0.0000
 40
0.0100
 41
0.0100
  0
VERTEX
  8
LPF39_SMT
 10
0.3060
 20
0.5000
 30
0.0000
  0
VERTEX
  8
LPF39_SMT
 10
0.3060
 20
0.0250
 30
0.0000
  0
SEQEND
  0
POLYLINE
  8
LPF39_SMT
 66
1
 10
0.0000
 20
0.0000
 30
0.0000
 40
0.0100
 41
0.0100
  0
VERTEX
  8
LPF39_SMT
 10
0.2970
 20
0.5000
 30
0.0000
  0
VERTEX
  8
LPF39_SMT
 10
0.2970
 20
0.0250
 30
0.0000
  0
SEQEND
  0
POLYLINE
  8
LPF39_SMT
 66
1
 10
0.0000
 20
0.0000
 30
0.0000
 40
0.0100
 41
0.0100
  0
VERTEX
  8
LPF39_SMT
 10
0.2880
 20
0.5000
 30
0.0000
  0
VERTEX
  8
LPF39_SMT
 10
0.2880
 20
0.0250
 30
0.0000
  0
SEQEND
  0
POLYLINE
  8
LPF39_SMT
 66
1
 10
0.0000
 20
0.0000
 30
0.0000
 40
0.0100
 41
0.0100
  0
VERTEX
  8
LPF39_SMT
 10
0.2790
 20
0.5000
 30
0.0000
  0
VERTEX
  8
LPF39_SMT
 10
0.2790
 20
0.0250
 30
0.0000
  0
SEQEND
  0
POLYLINE
  8
LPF39_SMT
 66
1
 10
0.0000
 20
0.0000
 30
0.0000
 40
0.0100
 41
0.0100
  0
VERTEX
  8
LPF39_SMT
 10
0.2700
 20
0.5000
 30
0.0000
  0
VERTEX
  8
LPF39_SMT
 10
0.2700
 20
0.0250
 30
0.0000
  0
SEQEND
  0
POLYLINE
  8
LPF39_SMT
 66
1
 10
0.0000
 20
0.0000
 30
0.0000
 40
0.0100
 41
0.0100
  0
VERTEX
  8
LPF39_SMT
 10
0.2610
 20
0.5000
 30
0.0000
  0
VERTEX
  8
LPF39_SMT
 10
0.2610
 20
0.0250
 30
0.0000
  0
SEQEND
  0
POLYLINE
  8
LPF39_SMT
 66
1
 10
0.0000
 20
0.0000
 30
0.0000
 40
0.0100
 41
0.0100
  0
VERTEX
  8
LPF39_SMT
 10
0.2520
 20
0.5000
 30
0.0000
  0
VERTEX
  8
LPF39_SMT
 10
0.2520
 20
0.0250
 30
0.0000
  0
SEQEND
  0
POLYLINE
  8
LPF39_SMT
 66
1
 10
0.0000
 20
0.0000
 30
0.0000
 40
0.0100
 41
0.0100
  0
VERTEX
  8
LPF39_SMT
 10
0.2430
 20
0.5000
 30
0.0000
  0
VERTEX
  8
LPF39_SMT
 10
0.2430
 20
0.0250
 30
0.0000
  0
SEQEND
  0
POLYLINE
  8
LPF39_SMT
 66
1
 10
0.0000
 20
0.0000
 30
0.0000
 40
0.0100
 41
0.0100
  0
VERTEX
  8
LPF39_SMT
 10
0.2340
 20
0.5000
 30
0.0000
  0
VERTEX
  8
LPF39_SMT
 10
0.2340
 20
0.0250
 30
0.0000
  0
SEQEND
  0
POLYLINE
  8
LPF39_SMT
 66
1
 10
0.0000
 20
0.0000
 30
0.0000
 40
0.0100
 41
0.0100
  0
VERTEX
  8
LPF39_SMT
 10
0.2250
 20
0.5000
 30
0.0000
  0
VERTEX
  8
LPF39_SMT
 10
0.2250
 20
0.0250
 30
0.0000
  0
SEQEND
  0
POLYLINE
  8
LPF39_SMT
 66
1
 10
0.0000
 20
0.0000
 30
0.0000
 40
0.0100
 41
0.0100
  0
VERTEX
  8
LPF39_SMT
 10
0.2160
 20
0.5000
 30
0.0000
  0
VERTEX
  8
LPF39_SMT
 10
0.2160
 20
0.0250
 30
0.0000
  0
SEQEND
  0
POLYLINE
  8
LPF39_SMT
 66
1
 10
0.0000
 20
0.0000
 30
0.0000
 40
0.0100
 41
0.0100
  0
VERTEX
  8
LPF39_SMT
 10
0.2070
 20
0.5000
 30
0.0000
  0
VERTEX
  8
LPF39_SMT
 10
0.2070
 20
0.0250
 30
0.0000
  0
SEQEND
  0
POLYLINE
  8
LPF39_SMT
 66
1
 10
0.0000
 20
0.0000
 30
0.0000
 40
0.0100
 41
0.0100
  0
VERTEX
  8
LPF39_SMT
 10
0.1980
 20
0.5000
 30
0.0000
  0
VERTEX
  8
LPF39_SMT
 10
0.1980
 20
0.0250
 30
0.0000
  0
SEQEND
  0
POLYLINE
  8
LPF39_SMT
 66
1
 10
0.0000
 20
0.0000
 30
0.0000
 40
0.0100
 41
0.0100
  0
VERTEX
  8
LPF39_SMT
 10
0.1890
 20
0.5000
 30
0.0000
  0
VERTEX
  8
LPF39_SMT
 10
0.1890
 20
0.0250
 30
0.0000
  0
SEQEND
  0
POLYLINE
  8
LPF39_SMT
 66
1
 10
0.0000
 20
0.0000
 30
0.0000
 40
0.0100
 41
0.0100
  0
VERTEX
  8
LPF39_SMT
 10
0.5245
 20
0.4970
 30
0.0000
  0
VERTEX
  8
LPF39_SMT
 10
0.1850
 20
0.4970
 30
0.0000
  0
SEQEND
  0
POLYLINE
  8
LPF39_SMT
 66
1
 10
0.0000
 20
0.0000
 30
0.0000
 40
0.0100
 41
0.0100
  0
VERTEX
  8
LPF39_SMT
 10
0.5245
 20
0.4880
 30
0.0000
  0
VERTEX
  8
LPF39_SMT
 10
0.1850
 20
0.4880
 30
0.0000
  0
SEQEND
  0
POLYLINE
  8
LPF39_SMT
 66
1
 10
0.0000
 20
0.0000
 30
0.0000
 40
0.0100
 41
0.0100
  0
VERTEX
  8
LPF39_SMT
 10
0.5245
 20
0.4790
 30
0.0000
  0
VERTEX
  8
LPF39_SMT
 10
0.1850
 20
0.4790
 30
0.0000
  0
SEQEND
  0
POLYLINE
  8
LPF39_SMT
 66
1
 10
0.0000
 20
0.0000
 30
0.0000
 40
0.0100
 41
0.0100
  0
VERTEX
  8
LPF39_SMT
 10
0.5245
 20
0.4700
 30
0.0000
  0
VERTEX
  8
LPF39_SMT
 10
0.1850
 20
0.4700
 30
0.0000
  0
SEQEND
  0
POLYLINE
  8
LPF39_SMT
 66
1
 10
0.0000
 20
0.0000
 30
0.0000
 40
0.0100
 41
0.0100
  0
VERTEX
  8
LPF39_SMT
 10
0.5245
 20
0.4610
 30
0.0000
  0
VERTEX
  8
LPF39_SMT
 10
0.1850
 20
0.4610
 30
0.0000
  0
SEQEND
  0
POLYLINE
  8
LPF39_SMT
 66
1
 10
0.0000
 20
0.0000
 30
0.0000
 40
0.0100
 41
0.0100
  0
VERTEX
  8
LPF39_SMT
 10
0.5245
 20
0.4520
 30
0.0000
  0
VERTEX
  8
LPF39_SMT
 10
0.1850
 20
0.4520
 30
0.0000
  0
SEQEND
  0
POLYLINE
  8
LPF39_SMT
 66
1
 10
0.0000
 20
0.0000
 30
0.0000
 40
0.0100
 41
0.0100
  0
VERTEX
  8
LPF39_SMT
 10
0.5245
 20
0.4430
 30
0.0000
  0
VERTEX
  8
LPF39_SMT
 10
0.1850
 20
0.4430
 30
0.0000
  0
SEQEND
  0
POLYLINE
  8
LPF39_SMT
 66
1
 10
0.0000
 20
0.0000
 30
0.0000
 40
0.0100
 41
0.0100
  0
VERTEX
  8
LPF39_SMT
 10
0.5245
 20
0.4340
 30
0.0000
  0
VERTEX
  8
LPF39_SMT
 10
0.1850
 20
0.4340
 30
0.0000
  0
SEQEND
  0
POLYLINE
  8
LPF39_SMT
 66
1
 10
0.0000
 20
0.0000
 30
0.0000
 40
0.0100
 41
0.0100
  0
VERTEX
  8
LPF39_SMT
 10
0.5245
 20
0.4250
 30
0.0000
  0
VERTEX
  8
LPF39_SMT
 10
0.1850
 20
0.4250
 30
0.0000
  0
SEQEND
  0
POLYLINE
  8
LPF39_SMT
 66
1
 10
0.0000
 20
0.0000
 30
0.0000
 40
0.0100
 41
0.0100
  0
VERTEX
  8
LPF39_SMT
 10
0.5245
 20
0.4160
 30
0.0000
  0
VERTEX
  8
LPF39_SMT
 10
0.1850
 20
0.4160
 30
0.0000
  0
SEQEND
  0
POLYLINE
  8
LPF39_SMT
 66
1
 10
0.0000
 20
0.0000
 30
0.0000
 40
0.0100
 41
0.0100
  0
VERTEX
  8
LPF39_SMT
 10
0.5245
 20
0.4070
 30
0.0000
  0
VERTEX
  8
LPF39_SMT
 10
0.1850
 20
0.4070
 30
0.0000
  0
SEQEND
  0
POLYLINE
  8
LPF39_SMT
 66
1
 10
0.0000
 20
0.0000
 30
0.0000
 40
0.0100
 41
0.0100
  0
VERTEX
  8
LPF39_SMT
 10
0.5245
 20
0.3980
 30
0.0000
  0
VERTEX
  8
LPF39_SMT
 10
0.1850
 20
0.3980
 30
0.0000
  0
SEQEND
  0
POLYLINE
  8
LPF39_SMT
 66
1
 10
0.0000
 20
0.0000
 30
0.0000
 40
0.0100
 41
0.0100
  0
VERTEX
  8
LPF39_SMT
 10
0.5245
 20
0.3890
 30
0.0000
  0
VERTEX
  8
LPF39_SMT
 10
0.1850
 20
0.3890
 30
0.0000
  0
SEQEND
  0
POLYLINE
  8
LPF39_SMT
 66
1
 10
0.0000
 20
0.0000
 30
0.0000
 40
0.0100
 41
0.0100
  0
VERTEX
  8
LPF39_SMT
 10
0.5245
 20
0.3800
 30
0.0000
  0
VERTEX
  8
LPF39_SMT
 10
0.1850
 20
0.3800
 30
0.0000
  0
SEQEND
  0
POLYLINE
  8
LPF39_SMT
 66
1
 10
0.0000
 20
0.0000
 30
0.0000
 40
0.0100
 41
0.0100
  0
VERTEX
  8
LPF39_SMT
 10
0.5245
 20
0.3710
 30
0.0000
  0
VERTEX
  8
LPF39_SMT
 10
0.1850
 20
0.3710
 30
0.0000
  0
SEQEND
  0
POLYLINE
  8
LPF39_SMT
 66
1
 10
0.0000
 20
0.0000
 30
0.0000
 40
0.0100
 41
0.0100
  0
VERTEX
  8
LPF39_SMT
 10
0.5245
 20
0.3620
 30
0.0000
  0
VERTEX
  8
LPF39_SMT
 10
0.1850
 20
0.3620
 30
0.0000
  0
SEQEND
  0
POLYLINE
  8
LPF39_SMT
 66
1
 10
0.0000
 20
0.0000
 30
0.0000
 40
0.0100
 41
0.0100
  0
VERTEX
  8
LPF39_SMT
 10
0.5245
 20
0.3530
 30
0.0000
  0
VERTEX
  8
LPF39_SMT
 10
0.1850
 20
0.3530
 30
0.0000
  0
SEQEND
  0
POLYLINE
  8
LPF39_SMT
 66
1
 10
0.0000
 20
0.0000
 30
0.0000
 40
0.0100
 41
0.0100
  0
VERTEX
  8
LPF39_SMT
 10
0.5245
 20
0.3440
 30
0.0000
  0
VERTEX
  8
LPF39_SMT
 10
0.1850
 20
0.3440
 30
0.0000
  0
SEQEND
  0
POLYLINE
  8
LPF39_SMT
 66
1
 10
0.0000
 20
0.0000
 30
0.0000
 40
0.0100
 41
0.0100
  0
VERTEX
  8
LPF39_SMT
 10
0.5245
 20
0.3350
 30
0.0000
  0
VERTEX
  8
LPF39_SMT
 10
0.1850
 20
0.3350
 30
0.0000
  0
SEQEND
  0
POLYLINE
  8
LPF39_SMT
 66
1
 10
0.0000
 20
0.0000
 30
0.0000
 40
0.0100
 41
0.0100
  0
VERTEX
  8
LPF39_SMT
 10
0.5245
 20
0.3260
 30
0.0000
  0
VERTEX
  8
LPF39_SMT
 10
0.1850
 20
0.3260
 30
0.0000
  0
SEQEND
  0
POLYLINE
  8
LPF39_SMT
 66
1
 10
0.0000
 20
0.0000
 30
0.0000
 40
0.0100
 41
0.0100
  0
VERTEX
  8
LPF39_SMT
 10
0.5245
 20
0.3170
 30
0.0000
  0
VERTEX
  8
LPF39_SMT
 10
0.1850
 20
0.3170
 30
0.0000
  0
SEQEND
  0
POLYLINE
  8
LPF39_SMT
 66
1
 10
0.0000
 20
0.0000
 30
0.0000
 40
0.0100
 41
0.0100
  0
VERTEX
  8
LPF39_SMT
 10
0.5245
 20
0.3080
 30
0.0000
  0
VERTEX
  8
LPF39_SMT
 10
0.1850
 20
0.3080
 30
0.0000
  0
SEQEND
  0
POLYLINE
  8
LPF39_SMT
 66
1
 10
0.0000
 20
0.0000
 30
0.0000
 40
0.0100
 41
0.0100
  0
VERTEX
  8
LPF39_SMT
 10
0.5245
 20
0.2990
 30
0.0000
  0
VERTEX
  8
LPF39_SMT
 10
0.1850
 20
0.2990
 30
0.0000
  0
SEQEND
  0
POLYLINE
  8
LPF39_SMT
 66
1
 10
0.0000
 20
0.0000
 30
0.0000
 40
0.0100
 41
0.0100
  0
VERTEX
  8
LPF39_SMT
 10
0.5245
 20
0.2900
 30
0.0000
  0
VERTEX
  8
LPF39_SMT
 10
0.1850
 20
0.2900
 30
0.0000
  0
SEQEND
  0
POLYLINE
  8
LPF39_SMT
 66
1
 10
0.0000
 20
0.0000
 30
0.0000
 40
0.0100
 41
0.0100
  0
VERTEX
  8
LPF39_SMT
 10
0.5245
 20
0.2810
 30
0.0000
  0
VERTEX
  8
LPF39_SMT
 10
0.1850
 20
0.2810
 30
0.0000
  0
SEQEND
  0
POLYLINE
  8
LPF39_SMT
 66
1
 10
0.0000
 20
0.0000
 30
0.0000
 40
0.0100
 41
0.0100
  0
VERTEX
  8
LPF39_SMT
 10
0.5245
 20
0.2720
 30
0.0000
  0
VERTEX
  8
LPF39_SMT
 10
0.1850
 20
0.2720
 30
0.0000
  0
SEQEND
  0
POLYLINE
  8
LPF39_SMT
 66
1
 10
0.0000
 20
0.0000
 30
0.0000
 40
0.0100
 41
0.0100
  0
VERTEX
  8
LPF39_SMT
 10
0.5245
 20
0.2630
 30
0.0000
  0
VERTEX
  8
LPF39_SMT
 10
0.1850
 20
0.2630
 30
0.0000
  0
SEQEND
  0
POLYLINE
  8
LPF39_SMT
 66
1
 10
0.0000
 20
0.0000
 30
0.0000
 40
0.0100
 41
0.0100
  0
VERTEX
  8
LPF39_SMT
 10
0.5245
 20
0.2540
 30
0.0000
  0
VERTEX
  8
LPF39_SMT
 10
0.1850
 20
0.2540
 30
0.0000
  0
SEQEND
  0
POLYLINE
  8
LPF39_SMT
 66
1
 10
0.0000
 20
0.0000
 30
0.0000
 40
0.0100
 41
0.0100
  0
VERTEX
  8
LPF39_SMT
 10
0.5245
 20
0.2450
 30
0.0000
  0
VERTEX
  8
LPF39_SMT
 10
0.1850
 20
0.2450
 30
0.0000
  0
SEQEND
  0
POLYLINE
  8
LPF39_SMT
 66
1
 10
0.0000
 20
0.0000
 30
0.0000
 40
0.0100
 41
0.0100
  0
VERTEX
  8
LPF39_SMT
 10
0.5245
 20
0.2360
 30
0.0000
  0
VERTEX
  8
LPF39_SMT
 10
0.1850
 20
0.2360
 30
0.0000
  0
SEQEND
  0
POLYLINE
  8
LPF39_SMT
 66
1
 10
0.0000
 20
0.0000
 30
0.0000
 40
0.0100
 41
0.0100
  0
VERTEX
  8
LPF39_SMT
 10
0.5245
 20
0.2270
 30
0.0000
  0
VERTEX
  8
LPF39_SMT
 10
0.1850
 20
0.2270
 30
0.0000
  0
SEQEND
  0
POLYLINE
  8
LPF39_SMT
 66
1
 10
0.0000
 20
0.0000
 30
0.0000
 40
0.0100
 41
0.0100
  0
VERTEX
  8
LPF39_SMT
 10
0.5245
 20
0.2180
 30
0.0000
  0
VERTEX
  8
LPF39_SMT
 10
0.1850
 20
0.2180
 30
0.0000
  0
SEQEND
  0
POLYLINE
  8
LPF39_SMT
 66
1
 10
0.0000
 20
0.0000
 30
0.0000
 40
0.0100
 41
0.0100
  0
VERTEX
  8
LPF39_SMT
 10
0.5245
 20
0.2090
 30
0.0000
  0
VERTEX
  8
LPF39_SMT
 10
0.1850
 20
0.2090
 30
0.0000
  0
SEQEND
  0
POLYLINE
  8
LPF39_SMT
 66
1
 10
0.0000
 20
0.0000
 30
0.0000
 40
0.0100
 41
0.0100
  0
VERTEX
  8
LPF39_SMT
 10
0.5245
 20
0.2000
 30
0.0000
  0
VERTEX
  8
LPF39_SMT
 10
0.1850
 20
0.2000
 30
0.0000
  0
SEQEND
  0
POLYLINE
  8
LPF39_SMT
 66
1
 10
0.0000
 20
0.0000
 30
0.0000
 40
0.0100
 41
0.0100
  0
VERTEX
  8
LPF39_SMT
 10
0.5245
 20
0.1910
 30
0.0000
  0
VERTEX
  8
LPF39_SMT
 10
0.1850
 20
0.1910
 30
0.0000
  0
SEQEND
  0
POLYLINE
  8
LPF39_SMT
 66
1
 10
0.0000
 20
0.0000
 30
0.0000
 40
0.0100
 41
0.0100
  0
VERTEX
  8
LPF39_SMT
 10
0.5245
 20
0.1820
 30
0.0000
  0
VERTEX
  8
LPF39_SMT
 10
0.1850
 20
0.1820
 30
0.0000
  0
SEQEND
  0
POLYLINE
  8
LPF39_SMT
 66
1
 10
0.0000
 20
0.0000
 30
0.0000
 40
0.0100
 41
0.0100
  0
VERTEX
  8
LPF39_SMT
 10
0.5245
 20
0.1730
 30
0.0000
  0
VERTEX
  8
LPF39_SMT
 10
0.1850
 20
0.1730
 30
0.0000
  0
SEQEND
  0
POLYLINE
  8
LPF39_SMT
 66
1
 10
0.0000
 20
0.0000
 30
0.0000
 40
0.0100
 41
0.0100
  0
VERTEX
  8
LPF39_SMT
 10
0.5245
 20
0.1640
 30
0.0000
  0
VERTEX
  8
LPF39_SMT
 10
0.1850
 20
0.1640
 30
0.0000
  0
SEQEND
  0
POLYLINE
  8
LPF39_SMT
 66
1
 10
0.0000
 20
0.0000
 30
0.0000
 40
0.0100
 41
0.0100
  0
VERTEX
  8
LPF39_SMT
 10
0.5245
 20
0.1550
 30
0.0000
  0
VERTEX
  8
LPF39_SMT
 10
0.1850
 20
0.1550
 30
0.0000
  0
SEQEND
  0
POLYLINE
  8
LPF39_SMT
 66
1
 10
0.0000
 20
0.0000
 30
0.0000
 40
0.0100
 41
0.0100
  0
VERTEX
  8
LPF39_SMT
 10
0.5245
 20
0.1460
 30
0.0000
  0
VERTEX
  8
LPF39_SMT
 10
0.1850
 20
0.1460
 30
0.0000
  0
SEQEND
  0
POLYLINE
  8
LPF39_SMT
 66
1
 10
0.0000
 20
0.0000
 30
0.0000
 40
0.0100
 41
0.0100
  0
VERTEX
  8
LPF39_SMT
 10
0.5245
 20
0.1370
 30
0.0000
  0
VERTEX
  8
LPF39_SMT
 10
0.1850
 20
0.1370
 30
0.0000
  0
SEQEND
  0
POLYLINE
  8
LPF39_SMT
 66
1
 10
0.0000
 20
0.0000
 30
0.0000
 40
0.0100
 41
0.0100
  0
VERTEX
  8
LPF39_SMT
 10
0.5245
 20
0.1280
 30
0.0000
  0
VERTEX
  8
LPF39_SMT
 10
0.1850
 20
0.1280
 30
0.0000
  0
SEQEND
  0
POLYLINE
  8
LPF39_SMT
 66
1
 10
0.0000
 20
0.0000
 30
0.0000
 40
0.0100
 41
0.0100
  0
VERTEX
  8
LPF39_SMT
 10
0.5245
 20
0.1190
 30
0.0000
  0
VERTEX
  8
LPF39_SMT
 10
0.1850
 20
0.1190
 30
0.0000
  0
SEQEND
  0
POLYLINE
  8
LPF39_SMT
 66
1
 10
0.0000
 20
0.0000
 30
0.0000
 40
0.0100
 41
0.0100
  0
VERTEX
  8
LPF39_SMT
 10
0.5245
 20
0.1100
 30
0.0000
  0
VERTEX
  8
LPF39_SMT
 10
0.1850
 20
0.1100
 30
0.0000
  0
SEQEND
  0
POLYLINE
  8
LPF39_SMT
 66
1
 10
0.0000
 20
0.0000
 30
0.0000
 40
0.0100
 41
0.0100
  0
VERTEX
  8
LPF39_SMT
 10
0.5245
 20
0.1010
 30
0.0000
  0
VERTEX
  8
LPF39_SMT
 10
0.1850
 20
0.1010
 30
0.0000
  0
SEQEND
  0
POLYLINE
  8
LPF39_SMT
 66
1
 10
0.0000
 20
0.0000
 30
0.0000
 40
0.0100
 41
0.0100
  0
VERTEX
  8
LPF39_SMT
 10
0.5245
 20
0.0920
 30
0.0000
  0
VERTEX
  8
LPF39_SMT
 10
0.1850
 20
0.0920
 30
0.0000
  0
SEQEND
  0
POLYLINE
  8
LPF39_SMT
 66
1
 10
0.0000
 20
0.0000
 30
0.0000
 40
0.0100
 41
0.0100
  0
VERTEX
  8
LPF39_SMT
 10
0.5245
 20
0.0830
 30
0.0000
  0
VERTEX
  8
LPF39_SMT
 10
0.1850
 20
0.0830
 30
0.0000
  0
SEQEND
  0
POLYLINE
  8
LPF39_SMT
 66
1
 10
0.0000
 20
0.0000
 30
0.0000
 40
0.0100
 41
0.0100
  0
VERTEX
  8
LPF39_SMT
 10
0.5245
 20
0.0740
 30
0.0000
  0
VERTEX
  8
LPF39_SMT
 10
0.1850
 20
0.0740
 30
0.0000
  0
SEQEND
  0
POLYLINE
  8
LPF39_SMT
 66
1
 10
0.0000
 20
0.0000
 30
0.0000
 40
0.0100
 41
0.0100
  0
VERTEX
  8
LPF39_SMT
 10
0.5245
 20
0.0650
 30
0.0000
  0
VERTEX
  8
LPF39_SMT
 10
0.1850
 20
0.0650
 30
0.0000
  0
SEQEND
  0
POLYLINE
  8
LPF39_SMT
 66
1
 10
0.0000
 20
0.0000
 30
0.0000
 40
0.0100
 41
0.0100
  0
VERTEX
  8
LPF39_SMT
 10
0.5245
 20
0.0560
 30
0.0000
  0
VERTEX
  8
LPF39_SMT
 10
0.1850
 20
0.0560
 30
0.0000
  0
SEQEND
  0
POLYLINE
  8
LPF39_SMT
 66
1
 10
0.0000
 20
0.0000
 30
0.0000
 40
0.0100
 41
0.0100
  0
VERTEX
  8
LPF39_SMT
 10
0.5245
 20
0.0470
 30
0.0000
  0
VERTEX
  8
LPF39_SMT
 10
0.1850
 20
0.0470
 30
0.0000
  0
SEQEND
  0
POLYLINE
  8
LPF39_SMT
 66
1
 10
0.0000
 20
0.0000
 30
0.0000
 40
0.0100
 41
0.0100
  0
VERTEX
  8
LPF39_SMT
 10
0.5245
 20
0.0380
 30
0.0000
  0
VERTEX
  8
LPF39_SMT
 10
0.1850
 20
0.0380
 30
0.0000
  0
SEQEND
  0
POLYLINE
  8
LPF39_SMT
 66
1
 10
0.0000
 20
0.0000
 30
0.0000
 40
0.0100
 41
0.0100
  0
VERTEX
  8
LPF39_SMT
 10
0.5245
 20
0.0290
 30
0.0000
  0
VERTEX
  8
LPF39_SMT
 10
0.1850
 20
0.0290
 30
0.0000
  0
SEQEND
  0
POLYLINE
  8
LPF39_SMT
 66
1
 10
0.0000
 20
0.0000
 30
0.0000
 40
0.0100
 41
0.0100
  0
VERTEX
  8
LPF39_SMT
 10
0.1850
 20
0.4065
 30
0.0000
  0
VERTEX
  8
LPF39_SMT
 10
0.1850
 20
0.0250
 30
0.0000
  0
SEQEND
  0
POLYLINE
  8
LPF39_SMT
 66
1
 10
0.0000
 20
0.0000
 30
0.0000
 40
0.0100
 41
0.0100
  0
VERTEX
  8
LPF39_SMT
 10
0.5245
 20
0.0250
 30
0.0000
  0
VERTEX
  8
LPF39_SMT
 10
0.1850
 20
0.0250
 30
0.0000
  0
SEQEND
  0
POLYLINE
  8
LPF39_SMT
 66
1
 10
0.0000
 20
0.0000
 30
0.0000
 40
0.0100
 41
0.0100
  0
VERTEX
  8
LPF39_SMT
 10
0.5245
 20
0.5000
 30
0.0000
  0
VERTEX
  8
LPF39_SMT
 10
0.5245
 20
0.0250
 30
0.0000
  0
SEQEND
  0
POLYLINE
  8
LPF39_SMT
 66
1
 10
0.0000
 20
0.0000
 30
0.0000
 40
0.0100
 41
0.0100
  0
VERTEX
  8
LPF39_SMT
 10
0.5245
 20
0.5000
 30
0.0000
  0
VERTEX
  8
LPF39_SMT
 10
0.1850
 20
0.5000
 30
0.0000
  0
SEQEND
  0
POLYLINE
  8
LPF39_SMT
 66
1
 10
0.0000
 20
0.0000
 30
0.0000
 40
0.0100
 41
0.0100
  0
VERTEX
  8
LPF39_SMT
 10
5.8200
 20
2.0510
 30
0.0000
  0
VERTEX
  8
LPF39_SMT
 10
5.6750
 20
2.0510
 30
0.0000
  0
SEQEND
  0
POLYLINE
  8
LPF39_SMT
 66
1
 10
0.0000
 20
0.0000
 30
0.0000
 40
0.0100
 41
0.0100
  0
VERTEX
  8
LPF39_SMT
 10
5.8200
 20
2.0420
 30
0.0000
  0
VERTEX
  8
LPF39_SMT
 10
5.6750
 20
2.0420
 30
0.0000
  0
SEQEND
  0
POLYLINE
  8
LPF39_SMT
 66
1
 10
0.0000
 20
0.0000
 30
0.0000
 40
0.0100
 41
0.0100
  0
VERTEX
  8
LPF39_SMT
 10
5.8200
 20
2.0330
 30
0.0000
  0
VERTEX
  8
LPF39_SMT
 10
5.6750
 20
2.0330
 30
0.0000
  0
SEQEND
  0
POLYLINE
  8
LPF39_SMT
 66
1
 10
0.0000
 20
0.0000
 30
0.0000
 40
0.0100
 41
0.0100
  0
VERTEX
  8
LPF39_SMT
 10
5.8200
 20
2.0240
 30
0.0000
  0
VERTEX
  8
LPF39_SMT
 10
5.6750
 20
2.0240
 30
0.0000
  0
SEQEND
  0
POLYLINE
  8
LPF39_SMT
 66
1
 10
0.0000
 20
0.0000
 30
0.0000
 40
0.0100
 41
0.0100
  0
VERTEX
  8
LPF39_SMT
 10
5.8200
 20
2.0150
 30
0.0000
  0
VERTEX
  8
LPF39_SMT
 10
5.6750
 20
2.0150
 30
0.0000
  0
SEQEND
  0
POLYLINE
  8
LPF39_SMT
 66
1
 10
0.0000
 20
0.0000
 30
0.0000
 40
0.0100
 41
0.0100
  0
VERTEX
  8
LPF39_SMT
 10
5.8200
 20
2.0060
 30
0.0000
  0
VERTEX
  8
LPF39_SMT
 10
5.6750
 20
2.0060
 30
0.0000
  0
SEQEND
  0
POLYLINE
  8
LPF39_SMT
 66
1
 10
0.0000
 20
0.0000
 30
0.0000
 40
0.0100
 41
0.0100
  0
VERTEX
  8
LPF39_SMT
 10
5.8200
 20
1.9970
 30
0.0000
  0
VERTEX
  8
LPF39_SMT
 10
5.6750
 20
1.9970
 30
0.0000
  0
SEQEND
  0
POLYLINE
  8
LPF39_SMT
 66
1
 10
0.0000
 20
0.0000
 30
0.0000
 40
0.0100
 41
0.0100
  0
VERTEX
  8
LPF39_SMT
 10
5.8200
 20
1.9880
 30
0.0000
  0
VERTEX
  8
LPF39_SMT
 10
5.6750
 20
1.9880
 30
0.0000
  0
SEQEND
  0
POLYLINE
  8
LPF39_SMT
 66
1
 10
0.0000
 20
0.0000
 30
0.0000
 40
0.0100
 41
0.0100
  0
VERTEX
  8
LPF39_SMT
 10
5.8200
 20
1.9790
 30
0.0000
  0
VERTEX
  8
LPF39_SMT
 10
5.6750
 20
1.9790
 30
0.0000
  0
SEQEND
  0
POLYLINE
  8
LPF39_SMT
 66
1
 10
0.0000
 20
0.0000
 30
0.0000
 40
0.0100
 41
0.0100
  0
VERTEX
  8
LPF39_SMT
 10
5.8200
 20
1.9700
 30
0.0000
  0
VERTEX
  8
LPF39_SMT
 10
5.6750
 20
1.9700
 30
0.0000
  0
SEQEND
  0
POLYLINE
  8
LPF39_SMT
 66
1
 10
0.0000
 20
0.0000
 30
0.0000
 40
0.0100
 41
0.0100
  0
VERTEX
  8
LPF39_SMT
 10
5.8200
 20
1.9610
 30
0.0000
  0
VERTEX
  8
LPF39_SMT
 10
5.6750
 20
1.9610
 30
0.0000
  0
SEQEND
  0
POLYLINE
  8
LPF39_SMT
 66
1
 10
0.0000
 20
0.0000
 30
0.0000
 40
0.0100
 41
0.0100
  0
VERTEX
  8
LPF39_SMT
 10
5.8200
 20
1.9520
 30
0.0000
  0
VERTEX
  8
LPF39_SMT
 10
5.6750
 20
1.9520
 30
0.0000
  0
SEQEND
  0
POLYLINE
  8
LPF39_SMT
 66
1
 10
0.0000
 20
0.0000
 30
0.0000
 40
0.0100
 41
0.0100
  0
VERTEX
  8
LPF39_SMT
 10
5.8200
 20
1.9430
 30
0.0000
  0
VERTEX
  8
LPF39_SMT
 10
5.6750
 20
1.9430
 30
0.0000
  0
SEQEND
  0
POLYLINE
  8
LPF39_SMT
 66
1
 10
0.0000
 20
0.0000
 30
0.0000
 40
0.0100
 41
0.0100
  0
VERTEX
  8
LPF39_SMT
 10
5.7600
 20
2.0815
 30
0.0000
  0
VERTEX
  8
LPF39_SMT
 10
5.7600
 20
1.9300
 30
0.0000
  0
SEQEND
  0
POLYLINE
  8
LPF39_SMT
 66
1
 10
0.0000
 20
0.0000
 30
0.0000
 40
0.0100
 41
0.0100
  0
VERTEX
  8
LPF39_SMT
 10
5.7510
 20
2.0815
 30
0.0000
  0
VERTEX
  8
LPF39_SMT
 10
5.7510
 20
1.9300
 30
0.0000
  0
SEQEND
  0
POLYLINE
  8
LPF39_SMT
 66
1
 10
0.0000
 20
0.0000
 30
0.0000
 40
0.0100
 41
0.0100
  0
VERTEX
  8
LPF39_SMT
 10
5.7420
 20
2.0815
 30
0.0000
  0
VERTEX
  8
LPF39_SMT
 10
5.7420
 20
1.9300
 30
0.0000
  0
SEQEND
  0
POLYLINE
  8
LPF39_SMT
 66
1
 10
0.0000
 20
0.0000
 30
0.0000
 40
0.0100
 41
0.0100
  0
VERTEX
  8
LPF39_SMT
 10
5.7330
 20
2.0815
 30
0.0000
  0
VERTEX
  8
LPF39_SMT
 10
5.7330
 20
1.9300
 30
0.0000
  0
SEQEND
  0
POLYLINE
  8
LPF39_SMT
 66
1
 10
0.0000
 20
0.0000
 30
0.0000
 40
0.0100
 41
0.0100
  0
VERTEX
  8
LPF39_SMT
 10
5.7240
 20
2.0815
 30
0.0000
  0
VERTEX
  8
LPF39_SMT
 10
5.7240
 20
1.9300
 30
0.0000
  0
SEQEND
  0
POLYLINE
  8
LPF39_SMT
 66
1
 10
0.0000
 20
0.0000
 30
0.0000
 40
0.0100
 41
0.0100
  0
VERTEX
  8
LPF39_SMT
 10
5.7150
 20
2.0815
 30
0.0000
  0
VERTEX
  8
LPF39_SMT
 10
5.7150
 20
1.9300
 30
0.0000
  0
SEQEND
  0
POLYLINE
  8
LPF39_SMT
 66
1
 10
0.0000
 20
0.0000
 30
0.0000
 40
0.0100
 41
0.0100
  0
VERTEX
  8
LPF39_SMT
 10
5.7060
 20
2.0815
 30
0.0000
  0
VERTEX
  8
LPF39_SMT
 10
5.7060
 20
1.9300
 30
0.0000
  0
SEQEND
  0
POLYLINE
  8
LPF39_SMT
 66
1
 10
0.0000
 20
0.0000
 30
0.0000
 40
0.0100
 41
0.0100
  0
VERTEX
  8
LPF39_SMT
 10
5.6970
 20
2.0815
 30
0.0000
  0
VERTEX
  8
LPF39_SMT
 10
5.6970
 20
1.9300
 30
0.0000
  0
SEQEND
  0
POLYLINE
  8
LPF39_SMT
 66
1
 10
0.0000
 20
0.0000
 30
0.0000
 40
0.0100
 41
0.0100
  0
VERTEX
  8
LPF39_SMT
 10
5.6880
 20
2.0815
 30
0.0000
  0
VERTEX
  8
LPF39_SMT
 10
5.6880
 20
1.9300
 30
0.0000
  0
SEQEND
  0
POLYLINE
  8
LPF39_SMT
 66
1
 10
0.0000
 20
0.0000
 30
0.0000
 40
0.0100
 41
0.0100
  0
VERTEX
  8
LPF39_SMT
 10
5.6790
 20
2.0815
 30
0.0000
  0
VERTEX
  8
LPF39_SMT
 10
5.6790
 20
1.9300
 30
0.0000
  0
SEQEND
  0
POLYLINE
  8
LPF39_SMT
 66
1
 10
0.0000
 20
0.0000
 30
0.0000
 40
0.0100
 41
0.0100
  0
VERTEX
  8
LPF39_SMT
 10
5.8200
 20
2.0780
 30
0.0000
  0
VERTEX
  8
LPF39_SMT
 10
5.6750
 20
2.0780
 30
0.0000
  0
SEQEND
  0
POLYLINE
  8
LPF39_SMT
 66
1
 10
0.0000
 20
0.0000
 30
0.0000
 40
0.0100
 41
0.0100
  0
VERTEX
  8
LPF39_SMT
 10
5.8200
 20
2.0690
 30
0.0000
  0
VERTEX
  8
LPF39_SMT
 10
5.6750
 20
2.0690
 30
0.0000
  0
SEQEND
  0
POLYLINE
  8
LPF39_SMT
 66
1
 10
0.0000
 20
0.0000
 30
0.0000
 40
0.0100
 41
0.0100
  0
VERTEX
  8
LPF39_SMT
 10
5.8200
 20
2.0600
 30
0.0000
  0
VERTEX
  8
LPF39_SMT
 10
5.6750
 20
2.0600
 30
0.0000
  0
SEQEND
  0
POLYLINE
  8
LPF39_SMT
 66
1
 10
0.0000
 20
0.0000
 30
0.0000
 40
0.0100
 41
0.0100
  0
VERTEX
  8
LPF39_SMT
 10
5.8200
 20
1.9340
 30
0.0000
  0
VERTEX
  8
LPF39_SMT
 10
5.6750
 20
1.9340
 30
0.0000
  0
SEQEND
  0
POLYLINE
  8
LPF39_SMT
 66
1
 10
0.0000
 20
0.0000
 30
0.0000
 40
0.0100
 41
0.0100
  0
VERTEX
  8
LPF39_SMT
 10
5.8200
 20
1.9300
 30
0.0000
  0
VERTEX
  8
LPF39_SMT
 10
5.6750
 20
1.9300
 30
0.0000
  0
SEQEND
  0
POLYLINE
  8
LPF39_SMT
 66
1
 10
0.0000
 20
0.0000
 30
0.0000
 40
0.0100
 41
0.0100
  0
VERTEX
  8
LPF39_SMT
 10
5.8200
 20
2.0815
 30
0.0000
  0
VERTEX
  8
LPF39_SMT
 10
5.8200
 20
1.9300
 30
0.0000
  0
SEQEND
  0
POLYLINE
  8
LPF39_SMT
 66
1
 10
0.0000
 20
0.0000
 30
0.0000
 40
0.0100
 41
0.0100
  0
VERTEX
  8
LPF39_SMT
 10
5.8200
 20
2.0815
 30
0.0000
  0
VERTEX
  8
LPF39_SMT
 10
5.6750
 20
2.0815
 30
0.0000
  0
VERTEX
  8
LPF39_SMT
 10
5.6750
 20
1.9300
 30
0.0000
  0
SEQEND
  0
POLYLINE
  8
LPF39_SMT
 66
1
 10
0.0000
 20
0.0000
 30
0.0000
 40
0.0100
 41
0.0100
  0
VERTEX
  8
LPF39_SMT
 10
5.8140
 20
2.0815
 30
0.0000
  0
VERTEX
  8
LPF39_SMT
 10
5.8140
 20
1.9300
 30
0.0000
  0
SEQEND
  0
POLYLINE
  8
LPF39_SMT
 66
1
 10
0.0000
 20
0.0000
 30
0.0000
 40
0.0100
 41
0.0100
  0
VERTEX
  8
LPF39_SMT
 10
5.8050
 20
2.0815
 30
0.0000
  0
VERTEX
  8
LPF39_SMT
 10
5.8050
 20
1.9300
 30
0.0000
  0
SEQEND
  0
POLYLINE
  8
LPF39_SMT
 66
1
 10
0.0000
 20
0.0000
 30
0.0000
 40
0.0100
 41
0.0100
  0
VERTEX
  8
LPF39_SMT
 10
5.7960
 20
2.0815
 30
0.0000
  0
VERTEX
  8
LPF39_SMT
 10
5.7960
 20
1.9300
 30
0.0000
  0
SEQEND
  0
POLYLINE
  8
LPF39_SMT
 66
1
 10
0.0000
 20
0.0000
 30
0.0000
 40
0.0100
 41
0.0100
  0
VERTEX
  8
LPF39_SMT
 10
5.7870
 20
2.0815
 30
0.0000
  0
VERTEX
  8
LPF39_SMT
 10
5.7870
 20
1.9300
 30
0.0000
  0
SEQEND
  0
POLYLINE
  8
LPF39_SMT
 66
1
 10
0.0000
 20
0.0000
 30
0.0000
 40
0.0100
 41
0.0100
  0
VERTEX
  8
LPF39_SMT
 10
5.7780
 20
2.0815
 30
0.0000
  0
VERTEX
  8
LPF39_SMT
 10
5.7780
 20
1.9300
 30
0.0000
  0
SEQEND
  0
POLYLINE
  8
LPF39_SMT
 66
1
 10
0.0000
 20
0.0000
 30
0.0000
 40
0.0100
 41
0.0100
  0
VERTEX
  8
LPF39_SMT
 10
5.7690
 20
2.0815
 30
0.0000
  0
VERTEX
  8
LPF39_SMT
 10
5.7690
 20
1.9300
 30
0.0000
  0
SEQEND
  0
POLYLINE
  8
LPF39_SMT
 66
1
 10
0.0000
 20
0.0000
 30
0.0000
 40
0.0100
 41
0.0100
  0
VERTEX
  8
LPF39_SMT
 10
5.6840
 20
2.9800
 30
0.0000
  0
VERTEX
  8
LPF39_SMT
 10
5.6840
 20
2.4550
 30
0.0000
  0
SEQEND
  0
POLYLINE
  8
LPF39_SMT
 66
1
 10
0.0000
 20
0.0000
 30
0.0000
 40
0.0100
 41
0.0100
  0
VERTEX
  8
LPF39_SMT
 10
5.8950
 20
2.9800
 30
0.0000
  0
VERTEX
  8
LPF39_SMT
 10
5.5450
 20
2.9800
 30
0.0000
  0
SEQEND
  0
POLYLINE
  8
LPF39_SMT
 66
1
 10
0.0000
 20
0.0000
 30
0.0000
 40
0.0100
 41
0.0100
  0
VERTEX
  8
LPF39_SMT
 10
5.8950
 20
2.9800
 30
0.0000
  0
VERTEX
  8
LPF39_SMT
 10
5.8950
 20
2.4550
 30
0.0000
  0
VERTEX
  8
LPF39_SMT
 10
5.6750
 20
2.4550
 30
0.0000
  0
SEQEND
  0
POLYLINE
  8
LPF39_SMT
 66
1
 10
0.0000
 20
0.0000
 30
0.0000
 40
0.0100
 41
0.0100
  0
VERTEX
  8
LPF39_SMT
 10
5.6750
 20
2.5500
 30
0.0000
  0
VERTEX
  8
LPF39_SMT
 10
5.6750
 20
2.4550
 30
0.0000
  0
SEQEND
  0
POLYLINE
  8
LPF39_SMT
 66
1
 10
0.0000
 20
0.0000
 30
0.0000
 40
0.0100
 41
0.0100
  0
VERTEX
  8
LPF39_SMT
 10
5.6750
 20
2.5500
 30
0.0000
  0
VERTEX
  8
LPF39_SMT
 10
5.5450
 20
2.5500
 30
0.0000
  0
SEQEND
  0
POLYLINE
  8
LPF39_SMT
 66
1
 10
0.0000
 20
0.0000
 30
0.0000
 40
0.0100
 41
0.0100
  0
VERTEX
  8
LPF39_SMT
 10
5.5450
 20
2.9800
 30
0.0000
  0
VERTEX
  8
LPF39_SMT
 10
5.5450
 20
2.5500
 30
0.0000
  0
SEQEND
  0
POLYLINE
  8
LPF39_SMT
 66
1
 10
0.0000
 20
0.0000
 30
0.0000
 40
0.0100
 41
0.0100
  0
VERTEX
  8
LPF39_SMT
 10
5.8910
 20
2.9800
 30
0.0000
  0
VERTEX
  8
LPF39_SMT
 10
5.8910
 20
2.4550
 30
0.0000
  0
SEQEND
  0
POLYLINE
  8
LPF39_SMT
 66
1
 10
0.0000
 20
0.0000
 30
0.0000
 40
0.0100
 41
0.0100
  0
VERTEX
  8
LPF39_SMT
 10
5.8820
 20
2.9800
 30
0.0000
  0
VERTEX
  8
LPF39_SMT
 10
5.8820
 20
2.4550
 30
0.0000
  0
SEQEND
  0
POLYLINE
  8
LPF39_SMT
 66
1
 10
0.0000
 20
0.0000
 30
0.0000
 40
0.0100
 41
0.0100
  0
VERTEX
  8
LPF39_SMT
 10
5.8730
 20
2.9800
 30
0.0000
  0
VERTEX
  8
LPF39_SMT
 10
5.8730
 20
2.4550
 30
0.0000
  0
SEQEND
  0
POLYLINE
  8
LPF39_SMT
 66
1
 10
0.0000
 20
0.0000
 30
0.0000
 40
0.0100
 41
0.0100
  0
VERTEX
  8
LPF39_SMT
 10
5.8640
 20
2.9800
 30
0.0000
  0
VERTEX
  8
LPF39_SMT
 10
5.8640
 20
2.4550
 30
0.0000
  0
SEQEND
  0
POLYLINE
  8
LPF39_SMT
 66
1
 10
0.0000
 20
0.0000
 30
0.0000
 40
0.0100
 41
0.0100
  0
VERTEX
  8
LPF39_SMT
 10
5.8550
 20
2.9800
 30
0.0000
  0
VERTEX
  8
LPF39_SMT
 10
5.8550
 20
2.4550
 30
0.0000
  0
SEQEND
  0
POLYLINE
  8
LPF39_SMT
 66
1
 10
0.0000
 20
0.0000
 30
0.0000
 40
0.0100
 41
0.0100
  0
VERTEX
  8
LPF39_SMT
 10
5.8460
 20
2.9800
 30
0.0000
  0
VERTEX
  8
LPF39_SMT
 10
5.8460
 20
2.4550
 30
0.0000
  0
SEQEND
  0
POLYLINE
  8
LPF39_SMT
 66
1
 10
0.0000
 20
0.0000
 30
0.0000
 40
0.0100
 41
0.0100
  0
VERTEX
  8
LPF39_SMT
 10
5.8370
 20
2.9800
 30
0.0000
  0
VERTEX
  8
LPF39_SMT
 10
5.8370
 20
2.4550
 30
0.0000
  0
SEQEND
  0
POLYLINE
  8
LPF39_SMT
 66
1
 10
0.0000
 20
0.0000
 30
0.0000
 40
0.0100
 41
0.0100
  0
VERTEX
  8
LPF39_SMT
 10
5.8280
 20
2.9800
 30
0.0000
  0
VERTEX
  8
LPF39_SMT
 10
5.8280
 20
2.4550
 30
0.0000
  0
SEQEND
  0
POLYLINE
  8
LPF39_SMT
 66
1
 10
0.0000
 20
0.0000
 30
0.0000
 40
0.0100
 41
0.0100
  0
VERTEX
  8
LPF39_SMT
 10
5.8190
 20
2.9800
 30
0.0000
  0
VERTEX
  8
LPF39_SMT
 10
5.8190
 20
2.4550
 30
0.0000
  0
SEQEND
  0
POLYLINE
  8
LPF39_SMT
 66
1
 10
0.0000
 20
0.0000
 30
0.0000
 40
0.0100
 41
0.0100
  0
VERTEX
  8
LPF39_SMT
 10
5.8100
 20
2.9800
 30
0.0000
  0
VERTEX
  8
LPF39_SMT
 10
5.8100
 20
2.4550
 30
0.0000
  0
SEQEND
  0
POLYLINE
  8
LPF39_SMT
 66
1
 10
0.0000
 20
0.0000
 30
0.0000
 40
0.0100
 41
0.0100
  0
VERTEX
  8
LPF39_SMT
 10
5.8010
 20
2.9800
 30
0.0000
  0
VERTEX
  8
LPF39_SMT
 10
5.8010
 20
2.4550
 30
0.0000
  0
SEQEND
  0
POLYLINE
  8
LPF39_SMT
 66
1
 10
0.0000
 20
0.0000
 30
0.0000
 40
0.0100
 41
0.0100
  0
VERTEX
  8
LPF39_SMT
 10
5.7920
 20
2.9800
 30
0.0000
  0
VERTEX
  8
LPF39_SMT
 10
5.7920
 20
2.4550
 30
0.0000
  0
SEQEND
  0
POLYLINE
  8
LPF39_SMT
 66
1
 10
0.0000
 20
0.0000
 30
0.0000
 40
0.0100
 41
0.0100
  0
VERTEX
  8
LPF39_SMT
 10
5.7830
 20
2.9800
 30
0.0000
  0
VERTEX
  8
LPF39_SMT
 10
5.7830
 20
2.4550
 30
0.0000
  0
SEQEND
  0
POLYLINE
  8
LPF39_SMT
 66
1
 10
0.0000
 20
0.0000
 30
0.0000
 40
0.0100
 41
0.0100
  0
VERTEX
  8
LPF39_SMT
 10
5.7740
 20
2.9800
 30
0.0000
  0
VERTEX
  8
LPF39_SMT
 10
5.7740
 20
2.4550
 30
0.0000
  0
SEQEND
  0
POLYLINE
  8
LPF39_SMT
 66
1
 10
0.0000
 20
0.0000
 30
0.0000
 40
0.0100
 41
0.0100
  0
VERTEX
  8
LPF39_SMT
 10
5.7650
 20
2.9800
 30
0.0000
  0
VERTEX
  8
LPF39_SMT
 10
5.7650
 20
2.4550
 30
0.0000
  0
SEQEND
  0
POLYLINE
  8
LPF39_SMT
 66
1
 10
0.0000
 20
0.0000
 30
0.0000
 40
0.0100
 41
0.0100
  0
VERTEX
  8
LPF39_SMT
 10
5.7560
 20
2.9800
 30
0.0000
  0
VERTEX
  8
LPF39_SMT
 10
5.7560
 20
2.4550
 30
0.0000
  0
SEQEND
  0
POLYLINE
  8
LPF39_SMT
 66
1
 10
0.0000
 20
0.0000
 30
0.0000
 40
0.0100
 41
0.0100
  0
VERTEX
  8
LPF39_SMT
 10
5.7470
 20
2.9800
 30
0.0000
  0
VERTEX
  8
LPF39_SMT
 10
5.7470
 20
2.4550
 30
0.0000
  0
SEQEND
  0
POLYLINE
  8
LPF39_SMT
 66
1
 10
0.0000
 20
0.0000
 30
0.0000
 40
0.0100
 41
0.0100
  0
VERTEX
  8
LPF39_SMT
 10
5.7380
 20
2.9800
 30
0.0000
  0
VERTEX
  8
LPF39_SMT
 10
5.7380
 20
2.4550
 30
0.0000
  0
SEQEND
  0
POLYLINE
  8
LPF39_SMT
 66
1
 10
0.0000
 20
0.0000
 30
0.0000
 40
0.0100
 41
0.0100
  0
VERTEX
  8
LPF39_SMT
 10
5.7290
 20
2.9800
 30
0.0000
  0
VERTEX
  8
LPF39_SMT
 10
5.7290
 20
2.4550
 30
0.0000
  0
SEQEND
  0
POLYLINE
  8
LPF39_SMT
 66
1
 10
0.0000
 20
0.0000
 30
0.0000
 40
0.0100
 41
0.0100
  0
VERTEX
  8
LPF39_SMT
 10
5.7200
 20
2.9800
 30
0.0000
  0
VERTEX
  8
LPF39_SMT
 10
5.7200
 20
2.4550
 30
0.0000
  0
SEQEND
  0
POLYLINE
  8
LPF39_SMT
 66
1
 10
0.0000
 20
0.0000
 30
0.0000
 40
0.0100
 41
0.0100
  0
VERTEX
  8
LPF39_SMT
 10
5.7110
 20
2.9800
 30
0.0000
  0
VERTEX
  8
LPF39_SMT
 10
5.7110
 20
2.4550
 30
0.0000
  0
SEQEND
  0
POLYLINE
  8
LPF39_SMT
 66
1
 10
0.0000
 20
0.0000
 30
0.0000
 40
0.0100
 41
0.0100
  0
VERTEX
  8
LPF39_SMT
 10
5.7020
 20
2.9800
 30
0.0000
  0
VERTEX
  8
LPF39_SMT
 10
5.7020
 20
2.4550
 30
0.0000
  0
SEQEND
  0
POLYLINE
  8
LPF39_SMT
 66
1
 10
0.0000
 20
0.0000
 30
0.0000
 40
0.0100
 41
0.0100
  0
VERTEX
  8
LPF39_SMT
 10
5.6930
 20
2.9800
 30
0.0000
  0
VERTEX
  8
LPF39_SMT
 10
5.6930
 20
2.4550
 30
0.0000
  0
SEQEND
  0
POLYLINE
  8
LPF39_SMT
 66
1
 10
0.0000
 20
0.0000
 30
0.0000
 40
0.0100
 41
0.0100
  0
VERTEX
  8
LPF39_SMT
 10
5.8950
 20
2.4590
 30
0.0000
  0
VERTEX
  8
LPF39_SMT
 10
5.6750
 20
2.4590
 30
0.0000
  0
SEQEND
  0
POLYLINE
  8
LPF39_SMT
 66
1
 10
0.0000
 20
0.0000
 30
0.0000
 40
0.0100
 41
0.0100
  0
VERTEX
  8
LPF39_SMT
 10
5.6750
 20
2.9800
 30
0.0000
  0
VERTEX
  8
LPF39_SMT
 10
5.6750
 20
2.5500
 30
0.0000
  0
SEQEND
  0
POLYLINE
  8
LPF39_SMT
 66
1
 10
0.0000
 20
0.0000
 30
0.0000
 40
0.0100
 41
0.0100
  0
VERTEX
  8
LPF39_SMT
 10
5.6660
 20
2.9800
 30
0.0000
  0
VERTEX
  8
LPF39_SMT
 10
5.6660
 20
2.5500
 30
0.0000
  0
SEQEND
  0
POLYLINE
  8
LPF39_SMT
 66
1
 10
0.0000
 20
0.0000
 30
0.0000
 40
0.0100
 41
0.0100
  0
VERTEX
  8
LPF39_SMT
 10
5.6570
 20
2.9800
 30
0.0000
  0
VERTEX
  8
LPF39_SMT
 10
5.6570
 20
2.5500
 30
0.0000
  0
SEQEND
  0
POLYLINE
  8
LPF39_SMT
 66
1
 10
0.0000
 20
0.0000
 30
0.0000
 40
0.0100
 41
0.0100
  0
VERTEX
  8
LPF39_SMT
 10
5.6480
 20
2.9800
 30
0.0000
  0
VERTEX
  8
LPF39_SMT
 10
5.6480
 20
2.5500
 30
0.0000
  0
SEQEND
  0
POLYLINE
  8
LPF39_SMT
 66
1
 10
0.0000
 20
0.0000
 30
0.0000
 40
0.0100
 41
0.0100
  0
VERTEX
  8
LPF39_SMT
 10
5.6390
 20
2.9800
 30
0.0000
  0
VERTEX
  8
LPF39_SMT
 10
5.6390
 20
2.5500
 30
0.0000
  0
SEQEND
  0
POLYLINE
  8
LPF39_SMT
 66
1
 10
0.0000
 20
0.0000
 30
0.0000
 40
0.0100
 41
0.0100
  0
VERTEX
  8
LPF39_SMT
 10
5.6300
 20
2.9800
 30
0.0000
  0
VERTEX
  8
LPF39_SMT
 10
5.6300
 20
2.5500
 30
0.0000
  0
SEQEND
  0
POLYLINE
  8
LPF39_SMT
 66
1
 10
0.0000
 20
0.0000
 30
0.0000
 40
0.0100
 41
0.0100
  0
VERTEX
  8
LPF39_SMT
 10
5.6210
 20
2.9800
 30
0.0000
  0
VERTEX
  8
LPF39_SMT
 10
5.6210
 20
2.5500
 30
0.0000
  0
SEQEND
  0
POLYLINE
  8
LPF39_SMT
 66
1
 10
0.0000
 20
0.0000
 30
0.0000
 40
0.0100
 41
0.0100
  0
VERTEX
  8
LPF39_SMT
 10
5.6120
 20
2.9800
 30
0.0000
  0
VERTEX
  8
LPF39_SMT
 10
5.6120
 20
2.5500
 30
0.0000
  0
SEQEND
  0
POLYLINE
  8
LPF39_SMT
 66
1
 10
0.0000
 20
0.0000
 30
0.0000
 40
0.0100
 41
0.0100
  0
VERTEX
  8
LPF39_SMT
 10
5.6030
 20
2.9800
 30
0.0000
  0
VERTEX
  8
LPF39_SMT
 10
5.6030
 20
2.5500
 30
0.0000
  0
SEQEND
  0
POLYLINE
  8
LPF39_SMT
 66
1
 10
0.0000
 20
0.0000
 30
0.0000
 40
0.0100
 41
0.0100
  0
VERTEX
  8
LPF39_SMT
 10
5.5940
 20
2.9800
 30
0.0000
  0
VERTEX
  8
LPF39_SMT
 10
5.5940
 20
2.5500
 30
0.0000
  0
SEQEND
  0
POLYLINE
  8
LPF39_SMT
 66
1
 10
0.0000
 20
0.0000
 30
0.0000
 40
0.0100
 41
0.0100
  0
VERTEX
  8
LPF39_SMT
 10
5.5850
 20
2.9800
 30
0.0000
  0
VERTEX
  8
LPF39_SMT
 10
5.5850
 20
2.5500
 30
0.0000
  0
SEQEND
  0
POLYLINE
  8
LPF39_SMT
 66
1
 10
0.0000
 20
0.0000
 30
0.0000
 40
0.0100
 41
0.0100
  0
VERTEX
  8
LPF39_SMT
 10
5.5760
 20
2.9800
 30
0.0000
  0
VERTEX
  8
LPF39_SMT
 10
5.5760
 20
2.5500
 30
0.0000
  0
SEQEND
  0
POLYLINE
  8
LPF39_SMT
 66
1
 10
0.0000
 20
0.0000
 30
0.0000
 40
0.0100
 41
0.0100
  0
VERTEX
  8
LPF39_SMT
 10
5.5670
 20
2.9800
 30
0.0000
  0
VERTEX
  8
LPF39_SMT
 10
5.5670
 20
2.5500
 30
0.0000
  0
SEQEND
  0
POLYLINE
  8
LPF39_SMT
 66
1
 10
0.0000
 20
0.0000
 30
0.0000
 40
0.0100
 41
0.0100
  0
VERTEX
  8
LPF39_SMT
 10
5.5580
 20
2.9800
 30
0.0000
  0
VERTEX
  8
LPF39_SMT
 10
5.5580
 20
2.5500
 30
0.0000
  0
SEQEND
  0
POLYLINE
  8
LPF39_SMT
 66
1
 10
0.0000
 20
0.0000
 30
0.0000
 40
0.0100
 41
0.0100
  0
VERTEX
  8
LPF39_SMT
 10
5.5490
 20
2.9800
 30
0.0000
  0
VERTEX
  8
LPF39_SMT
 10
5.5490
 20
2.5500
 30
0.0000
  0
SEQEND
  0
POLYLINE
  8
LPF39_SMT
 66
1
 10
0.0000
 20
0.0000
 30
0.0000
 40
0.0100
 41
0.0100
  0
VERTEX
  8
LPF39_SMT
 10
5.8950
 20
2.9720
 30
0.0000
  0
VERTEX
  8
LPF39_SMT
 10
5.5450
 20
2.9720
 30
0.0000
  0
SEQEND
  0
POLYLINE
  8
LPF39_SMT
 66
1
 10
0.0000
 20
0.0000
 30
0.0000
 40
0.0100
 41
0.0100
  0
VERTEX
  8
LPF39_SMT
 10
5.8950
 20
2.9630
 30
0.0000
  0
VERTEX
  8
LPF39_SMT
 10
5.5450
 20
2.9630
 30
0.0000
  0
SEQEND
  0
POLYLINE
  8
LPF39_SMT
 66
1
 10
0.0000
 20
0.0000
 30
0.0000
 40
0.0100
 41
0.0100
  0
VERTEX
  8
LPF39_SMT
 10
5.8950
 20
2.9540
 30
0.0000
  0
VERTEX
  8
LPF39_SMT
 10
5.5450
 20
2.9540
 30
0.0000
  0
SEQEND
  0
POLYLINE
  8
LPF39_SMT
 66
1
 10
0.0000
 20
0.0000
 30
0.0000
 40
0.0100
 41
0.0100
  0
VERTEX
  8
LPF39_SMT
 10
5.8950
 20
2.9450
 30
0.0000
  0
VERTEX
  8
LPF39_SMT
 10
5.5450
 20
2.9450
 30
0.0000
  0
SEQEND
  0
POLYLINE
  8
LPF39_SMT
 66
1
 10
0.0000
 20
0.0000
 30
0.0000
 40
0.0100
 41
0.0100
  0
VERTEX
  8
LPF39_SMT
 10
5.8950
 20
2.9360
 30
0.0000
  0
VERTEX
  8
LPF39_SMT
 10
5.5450
 20
2.9360
 30
0.0000
  0
SEQEND
  0
POLYLINE
  8
LPF39_SMT
 66
1
 10
0.0000
 20
0.0000
 30
0.0000
 40
0.0100
 41
0.0100
  0
VERTEX
  8
LPF39_SMT
 10
5.8950
 20
2.9270
 30
0.0000
  0
VERTEX
  8
LPF39_SMT
 10
5.5450
 20
2.9270
 30
0.0000
  0
SEQEND
  0
POLYLINE
  8
LPF39_SMT
 66
1
 10
0.0000
 20
0.0000
 30
0.0000
 40
0.0100
 41
0.0100
  0
VERTEX
  8
LPF39_SMT
 10
5.8950
 20
2.9180
 30
0.0000
  0
VERTEX
  8
LPF39_SMT
 10
5.5450
 20
2.9180
 30
0.0000
  0
SEQEND
  0
POLYLINE
  8
LPF39_SMT
 66
1
 10
0.0000
 20
0.0000
 30
0.0000
 40
0.0100
 41
0.0100
  0
VERTEX
  8
LPF39_SMT
 10
5.8950
 20
2.9090
 30
0.0000
  0
VERTEX
  8
LPF39_SMT
 10
5.5450
 20
2.9090
 30
0.0000
  0
SEQEND
  0
POLYLINE
  8
LPF39_SMT
 66
1
 10
0.0000
 20
0.0000
 30
0.0000
 40
0.0100
 41
0.0100
  0
VERTEX
  8
LPF39_SMT
 10
5.8950
 20
2.9000
 30
0.0000
  0
VERTEX
  8
LPF39_SMT
 10
5.5450
 20
2.9000
 30
0.0000
  0
SEQEND
  0
POLYLINE
  8
LPF39_SMT
 66
1
 10
0.0000
 20
0.0000
 30
0.0000
 40
0.0100
 41
0.0100
  0
VERTEX
  8
LPF39_SMT
 10
5.8950
 20
2.8910
 30
0.0000
  0
VERTEX
  8
LPF39_SMT
 10
5.5450
 20
2.8910
 30
0.0000
  0
SEQEND
  0
POLYLINE
  8
LPF39_SMT
 66
1
 10
0.0000
 20
0.0000
 30
0.0000
 40
0.0100
 41
0.0100
  0
VERTEX
  8
LPF39_SMT
 10
5.8950
 20
2.8820
 30
0.0000
  0
VERTEX
  8
LPF39_SMT
 10
5.5450
 20
2.8820
 30
0.0000
  0
SEQEND
  0
POLYLINE
  8
LPF39_SMT
 66
1
 10
0.0000
 20
0.0000
 30
0.0000
 40
0.0100
 41
0.0100
  0
VERTEX
  8
LPF39_SMT
 10
5.8950
 20
2.8730
 30
0.0000
  0
VERTEX
  8
LPF39_SMT
 10
5.5450
 20
2.8730
 30
0.0000
  0
SEQEND
  0
POLYLINE
  8
LPF39_SMT
 66
1
 10
0.0000
 20
0.0000
 30
0.0000
 40
0.0100
 41
0.0100
  0
VERTEX
  8
LPF39_SMT
 10
5.8950
 20
2.8640
 30
0.0000
  0
VERTEX
  8
LPF39_SMT
 10
5.5450
 20
2.8640
 30
0.0000
  0
SEQEND
  0
POLYLINE
  8
LPF39_SMT
 66
1
 10
0.0000
 20
0.0000
 30
0.0000
 40
0.0100
 41
0.0100
  0
VERTEX
  8
LPF39_SMT
 10
5.8950
 20
2.8550
 30
0.0000
  0
VERTEX
  8
LPF39_SMT
 10
5.5450
 20
2.8550
 30
0.0000
  0
SEQEND
  0
POLYLINE
  8
LPF39_SMT
 66
1
 10
0.0000
 20
0.0000
 30
0.0000
 40
0.0100
 41
0.0100
  0
VERTEX
  8
LPF39_SMT
 10
5.8950
 20
2.8460
 30
0.0000
  0
VERTEX
  8
LPF39_SMT
 10
5.5450
 20
2.8460
 30
0.0000
  0
SEQEND
  0
POLYLINE
  8
LPF39_SMT
 66
1
 10
0.0000
 20
0.0000
 30
0.0000
 40
0.0100
 41
0.0100
  0
VERTEX
  8
LPF39_SMT
 10
5.8950
 20
2.8370
 30
0.0000
  0
VERTEX
  8
LPF39_SMT
 10
5.5450
 20
2.8370
 30
0.0000
  0
SEQEND
  0
POLYLINE
  8
LPF39_SMT
 66
1
 10
0.0000
 20
0.0000
 30
0.0000
 40
0.0100
 41
0.0100
  0
VERTEX
  8
LPF39_SMT
 10
5.8950
 20
2.8280
 30
0.0000
  0
VERTEX
  8
LPF39_SMT
 10
5.5450
 20
2.8280
 30
0.0000
  0
SEQEND
  0
POLYLINE
  8
LPF39_SMT
 66
1
 10
0.0000
 20
0.0000
 30
0.0000
 40
0.0100
 41
0.0100
  0
VERTEX
  8
LPF39_SMT
 10
5.8950
 20
2.8190
 30
0.0000
  0
VERTEX
  8
LPF39_SMT
 10
5.5450
 20
2.8190
 30
0.0000
  0
SEQEND
  0
POLYLINE
  8
LPF39_SMT
 66
1
 10
0.0000
 20
0.0000
 30
0.0000
 40
0.0100
 41
0.0100
  0
VERTEX
  8
LPF39_SMT
 10
5.8950
 20
2.8100
 30
0.0000
  0
VERTEX
  8
LPF39_SMT
 10
5.5450
 20
2.8100
 30
0.0000
  0
SEQEND
  0
POLYLINE
  8
LPF39_SMT
 66
1
 10
0.0000
 20
0.0000
 30
0.0000
 40
0.0100
 41
0.0100
  0
VERTEX
  8
LPF39_SMT
 10
5.8950
 20
2.8010
 30
0.0000
  0
VERTEX
  8
LPF39_SMT
 10
5.5450
 20
2.8010
 30
0.0000
  0
SEQEND
  0
POLYLINE
  8
LPF39_SMT
 66
1
 10
0.0000
 20
0.0000
 30
0.0000
 40
0.0100
 41
0.0100
  0
VERTEX
  8
LPF39_SMT
 10
5.8950
 20
2.7920
 30
0.0000
  0
VERTEX
  8
LPF39_SMT
 10
5.5450
 20
2.7920
 30
0.0000
  0
SEQEND
  0
POLYLINE
  8
LPF39_SMT
 66
1
 10
0.0000
 20
0.0000
 30
0.0000
 40
0.0100
 41
0.0100
  0
VERTEX
  8
LPF39_SMT
 10
5.8950
 20
2.7830
 30
0.0000
  0
VERTEX
  8
LPF39_SMT
 10
5.5450
 20
2.7830
 30
0.0000
  0
SEQEND
  0
POLYLINE
  8
LPF39_SMT
 66
1
 10
0.0000
 20
0.0000
 30
0.0000
 40
0.0100
 41
0.0100
  0
VERTEX
  8
LPF39_SMT
 10
5.8950
 20
2.7740
 30
0.0000
  0
VERTEX
  8
LPF39_SMT
 10
5.5450
 20
2.7740
 30
0.0000
  0
SEQEND
  0
POLYLINE
  8
LPF39_SMT
 66
1
 10
0.0000
 20
0.0000
 30
0.0000
 40
0.0100
 41
0.0100
  0
VERTEX
  8
LPF39_SMT
 10
5.8950
 20
2.7650
 30
0.0000
  0
VERTEX
  8
LPF39_SMT
 10
5.5450
 20
2.7650
 30
0.0000
  0
SEQEND
  0
POLYLINE
  8
LPF39_SMT
 66
1
 10
0.0000
 20
0.0000
 30
0.0000
 40
0.0100
 41
0.0100
  0
VERTEX
  8
LPF39_SMT
 10
5.8950
 20
2.7560
 30
0.0000
  0
VERTEX
  8
LPF39_SMT
 10
5.5450
 20
2.7560
 30
0.0000
  0
SEQEND
  0
POLYLINE
  8
LPF39_SMT
 66
1
 10
0.0000
 20
0.0000
 30
0.0000
 40
0.0100
 41
0.0100
  0
VERTEX
  8
LPF39_SMT
 10
5.8950
 20
2.7470
 30
0.0000
  0
VERTEX
  8
LPF39_SMT
 10
5.5450
 20
2.7470
 30
0.0000
  0
SEQEND
  0
POLYLINE
  8
LPF39_SMT
 66
1
 10
0.0000
 20
0.0000
 30
0.0000
 40
0.0100
 41
0.0100
  0
VERTEX
  8
LPF39_SMT
 10
5.8950
 20
2.7380
 30
0.0000
  0
VERTEX
  8
LPF39_SMT
 10
5.5450
 20
2.7380
 30
0.0000
  0
SEQEND
  0
POLYLINE
  8
LPF39_SMT
 66
1
 10
0.0000
 20
0.0000
 30
0.0000
 40
0.0100
 41
0.0100
  0
VERTEX
  8
LPF39_SMT
 10
5.8950
 20
2.7290
 30
0.0000
  0
VERTEX
  8
LPF39_SMT
 10
5.5450
 20
2.7290
 30
0.0000
  0
SEQEND
  0
POLYLINE
  8
LPF39_SMT
 66
1
 10
0.0000
 20
0.0000
 30
0.0000
 40
0.0100
 41
0.0100
  0
VERTEX
  8
LPF39_SMT
 10
5.8950
 20
2.7200
 30
0.0000
  0
VERTEX
  8
LPF39_SMT
 10
5.5450
 20
2.7200
 30
0.0000
  0
SEQEND
  0
POLYLINE
  8
LPF39_SMT
 66
1
 10
0.0000
 20
0.0000
 30
0.0000
 40
0.0100
 41
0.0100
  0
VERTEX
  8
LPF39_SMT
 10
5.8950
 20
2.7110
 30
0.0000
  0
VERTEX
  8
LPF39_SMT
 10
5.5450
 20
2.7110
 30
0.0000
  0
SEQEND
  0
POLYLINE
  8
LPF39_SMT
 66
1
 10
0.0000
 20
0.0000
 30
0.0000
 40
0.0100
 41
0.0100
  0
VERTEX
  8
LPF39_SMT
 10
5.8950
 20
2.7020
 30
0.0000
  0
VERTEX
  8
LPF39_SMT
 10
5.5450
 20
2.7020
 30
0.0000
  0
SEQEND
  0
POLYLINE
  8
LPF39_SMT
 66
1
 10
0.0000
 20
0.0000
 30
0.0000
 40
0.0100
 41
0.0100
  0
VERTEX
  8
LPF39_SMT
 10
5.8950
 20
2.6930
 30
0.0000
  0
VERTEX
  8
LPF39_SMT
 10
5.5450
 20
2.6930
 30
0.0000
  0
SEQEND
  0
POLYLINE
  8
LPF39_SMT
 66
1
 10
0.0000
 20
0.0000
 30
0.0000
 40
0.0100
 41
0.0100
  0
VERTEX
  8
LPF39_SMT
 10
5.8950
 20
2.6840
 30
0.0000
  0
VERTEX
  8
LPF39_SMT
 10
5.5450
 20
2.6840
 30
0.0000
  0
SEQEND
  0
POLYLINE
  8
LPF39_SMT
 66
1
 10
0.0000
 20
0.0000
 30
0.0000
 40
0.0100
 41
0.0100
  0
VERTEX
  8
LPF39_SMT
 10
5.8950
 20
2.6750
 30
0.0000
  0
VERTEX
  8
LPF39_SMT
 10
5.5450
 20
2.6750
 30
0.0000
  0
SEQEND
  0
POLYLINE
  8
LPF39_SMT
 66
1
 10
0.0000
 20
0.0000
 30
0.0000
 40
0.0100
 41
0.0100
  0
VERTEX
  8
LPF39_SMT
 10
5.8950
 20
2.6660
 30
0.0000
  0
VERTEX
  8
LPF39_SMT
 10
5.5450
 20
2.6660
 30
0.0000
  0
SEQEND
  0
POLYLINE
  8
LPF39_SMT
 66
1
 10
0.0000
 20
0.0000
 30
0.0000
 40
0.0100
 41
0.0100
  0
VERTEX
  8
LPF39_SMT
 10
5.8950
 20
2.6570
 30
0.0000
  0
VERTEX
  8
LPF39_SMT
 10
5.5450
 20
2.6570
 30
0.0000
  0
SEQEND
  0
POLYLINE
  8
LPF39_SMT
 66
1
 10
0.0000
 20
0.0000
 30
0.0000
 40
0.0100
 41
0.0100
  0
VERTEX
  8
LPF39_SMT
 10
5.8950
 20
2.6480
 30
0.0000
  0
VERTEX
  8
LPF39_SMT
 10
5.5450
 20
2.6480
 30
0.0000
  0
SEQEND
  0
POLYLINE
  8
LPF39_SMT
 66
1
 10
0.0000
 20
0.0000
 30
0.0000
 40
0.0100
 41
0.0100
  0
VERTEX
  8
LPF39_SMT
 10
5.8950
 20
2.6390
 30
0.0000
  0
VERTEX
  8
LPF39_SMT
 10
5.5450
 20
2.6390
 30
0.0000
  0
SEQEND
  0
POLYLINE
  8
LPF39_SMT
 66
1
 10
0.0000
 20
0.0000
 30
0.0000
 40
0.0100
 41
0.0100
  0
VERTEX
  8
LPF39_SMT
 10
5.8950
 20
2.6300
 30
0.0000
  0
VERTEX
  8
LPF39_SMT
 10
5.5450
 20
2.6300
 30
0.0000
  0
SEQEND
  0
POLYLINE
  8
LPF39_SMT
 66
1
 10
0.0000
 20
0.0000
 30
0.0000
 40
0.0100
 41
0.0100
  0
VERTEX
  8
LPF39_SMT
 10
5.8950
 20
2.6210
 30
0.0000
  0
VERTEX
  8
LPF39_SMT
 10
5.5450
 20
2.6210
 30
0.0000
  0
SEQEND
  0
POLYLINE
  8
LPF39_SMT
 66
1
 10
0.0000
 20
0.0000
 30
0.0000
 40
0.0100
 41
0.0100
  0
VERTEX
  8
LPF39_SMT
 10
5.8950
 20
2.6120
 30
0.0000
  0
VERTEX
  8
LPF39_SMT
 10
5.5450
 20
2.6120
 30
0.0000
  0
SEQEND
  0
POLYLINE
  8
LPF39_SMT
 66
1
 10
0.0000
 20
0.0000
 30
0.0000
 40
0.0100
 41
0.0100
  0
VERTEX
  8
LPF39_SMT
 10
5.8950
 20
2.6030
 30
0.0000
  0
VERTEX
  8
LPF39_SMT
 10
5.5450
 20
2.6030
 30
0.0000
  0
SEQEND
  0
POLYLINE
  8
LPF39_SMT
 66
1
 10
0.0000
 20
0.0000
 30
0.0000
 40
0.0100
 41
0.0100
  0
VERTEX
  8
LPF39_SMT
 10
5.8950
 20
2.5940
 30
0.0000
  0
VERTEX
  8
LPF39_SMT
 10
5.5450
 20
2.5940
 30
0.0000
  0
SEQEND
  0
POLYLINE
  8
LPF39_SMT
 66
1
 10
0.0000
 20
0.0000
 30
0.0000
 40
0.0100
 41
0.0100
  0
VERTEX
  8
LPF39_SMT
 10
5.8950
 20
2.5850
 30
0.0000
  0
VERTEX
  8
LPF39_SMT
 10
5.5450
 20
2.5850
 30
0.0000
  0
SEQEND
  0
POLYLINE
  8
LPF39_SMT
 66
1
 10
0.0000
 20
0.0000
 30
0.0000
 40
0.0100
 41
0.0100
  0
VERTEX
  8
LPF39_SMT
 10
5.8950
 20
2.5760
 30
0.0000
  0
VERTEX
  8
LPF39_SMT
 10
5.5450
 20
2.5760
 30
0.0000
  0
SEQEND
  0
POLYLINE
  8
LPF39_SMT
 66
1
 10
0.0000
 20
0.0000
 30
0.0000
 40
0.0100
 41
0.0100
  0
VERTEX
  8
LPF39_SMT
 10
5.8950
 20
2.5670
 30
0.0000
  0
VERTEX
  8
LPF39_SMT
 10
5.5450
 20
2.5670
 30
0.0000
  0
SEQEND
  0
POLYLINE
  8
LPF39_SMT
 66
1
 10
0.0000
 20
0.0000
 30
0.0000
 40
0.0100
 41
0.0100
  0
VERTEX
  8
LPF39_SMT
 10
5.8950
 20
2.5580
 30
0.0000
  0
VERTEX
  8
LPF39_SMT
 10
5.5450
 20
2.5580
 30
0.0000
  0
SEQEND
  0
POLYLINE
  8
LPF39_SMT
 66
1
 10
0.0000
 20
0.0000
 30
0.0000
 40
0.0100
 41
0.0100
  0
VERTEX
  8
LPF39_SMT
 10
5.8950
 20
2.5490
 30
0.0000
  0
VERTEX
  8
LPF39_SMT
 10
5.6750
 20
2.5490
 30
0.0000
  0
SEQEND
  0
POLYLINE
  8
LPF39_SMT
 66
1
 10
0.0000
 20
0.0000
 30
0.0000
 40
0.0100
 41
0.0100
  0
VERTEX
  8
LPF39_SMT
 10
5.8950
 20
2.5400
 30
0.0000
  0
VERTEX
  8
LPF39_SMT
 10
5.6750
 20
2.5400
 30
0.0000
  0
SEQEND
  0
POLYLINE
  8
LPF39_SMT
 66
1
 10
0.0000
 20
0.0000
 30
0.0000
 40
0.0100
 41
0.0100
  0
VERTEX
  8
LPF39_SMT
 10
5.8950
 20
2.5310
 30
0.0000
  0
VERTEX
  8
LPF39_SMT
 10
5.6750
 20
2.5310
 30
0.0000
  0
SEQEND
  0
POLYLINE
  8
LPF39_SMT
 66
1
 10
0.0000
 20
0.0000
 30
0.0000
 40
0.0100
 41
0.0100
  0
VERTEX
  8
LPF39_SMT
 10
5.8950
 20
2.5220
 30
0.0000
  0
VERTEX
  8
LPF39_SMT
 10
5.6750
 20
2.5220
 30
0.0000
  0
SEQEND
  0
POLYLINE
  8
LPF39_SMT
 66
1
 10
0.0000
 20
0.0000
 30
0.0000
 40
0.0100
 41
0.0100
  0
VERTEX
  8
LPF39_SMT
 10
5.8950
 20
2.5130
 30
0.0000
  0
VERTEX
  8
LPF39_SMT
 10
5.6750
 20
2.5130
 30
0.0000
  0
SEQEND
  0
POLYLINE
  8
LPF39_SMT
 66
1
 10
0.0000
 20
0.0000
 30
0.0000
 40
0.0100
 41
0.0100
  0
VERTEX
  8
LPF39_SMT
 10
5.8950
 20
2.5040
 30
0.0000
  0
VERTEX
  8
LPF39_SMT
 10
5.6750
 20
2.5040
 30
0.0000
  0
SEQEND
  0
POLYLINE
  8
LPF39_SMT
 66
1
 10
0.0000
 20
0.0000
 30
0.0000
 40
0.0100
 41
0.0100
  0
VERTEX
  8
LPF39_SMT
 10
5.8950
 20
2.4950
 30
0.0000
  0
VERTEX
  8
LPF39_SMT
 10
5.6750
 20
2.4950
 30
0.0000
  0
SEQEND
  0
POLYLINE
  8
LPF39_SMT
 66
1
 10
0.0000
 20
0.0000
 30
0.0000
 40
0.0100
 41
0.0100
  0
VERTEX
  8
LPF39_SMT
 10
5.8950
 20
2.4860
 30
0.0000
  0
VERTEX
  8
LPF39_SMT
 10
5.6750
 20
2.4860
 30
0.0000
  0
SEQEND
  0
POLYLINE
  8
LPF39_SMT
 66
1
 10
0.0000
 20
0.0000
 30
0.0000
 40
0.0100
 41
0.0100
  0
VERTEX
  8
LPF39_SMT
 10
5.8950
 20
2.4770
 30
0.0000
  0
VERTEX
  8
LPF39_SMT
 10
5.6750
 20
2.4770
 30
0.0000
  0
SEQEND
  0
POLYLINE
  8
LPF39_SMT
 66
1
 10
0.0000
 20
0.0000
 30
0.0000
 40
0.0100
 41
0.0100
  0
VERTEX
  8
LPF39_SMT
 10
5.8950
 20
2.4680
 30
0.0000
  0
VERTEX
  8
LPF39_SMT
 10
5.6750
 20
2.4680
 30
0.0000
  0
SEQEND
  0
TEXT
  8
LPF39_SMT
 10
0.1500
 20
1.0250
 30
0.0000
 40
0.0492187
 41
1.0000
 51
0.0000
 71
0
  1
INPUT
 50
0.0000
  7
STYLE_1
  0
TEXT
  8
LPF39_SMT
 10
5.4750
 20
2.1250
 30
0.0000
 40
0.0492187
 41
1.0000
 51
0.0000
 71
0
  1
OUT
 50
0.0000
  7
STYLE_1
  0
TEXT
  8
LPF39_SMT
 10
5.3500
 20
2.8750
 30
0.0000
 40
0.0492187
 41
1.0000
 51
0.0000
 71
0
  1
GND
 50
0.0000
  7
STYLE_1
  0
TEXT
  8
LPF39_SMT
 10
0.6250
 20
0.0750
 30
0.0000
 40
0.0492187
 41
1.0000
 51
0.0000
 71
0
  1
GND
 50
0.0000
  7
STYLE_1
  0
ENDSEC
  0
EOF
