  0
SECTION
  2
HEADER
  9
$EXTNAMES
290
1
  9
$EXTMIN
 10
-12.5550
 20
-0.0060
 30
0.0000
  9
$EXTMAX
 10
0.0050
 20
3.9540
 30
0.0000
  0
ENDSEC
  0
SECTION
  2
TABLES
  0
TABLE
  2
LTYPE
 70
3
  0
LTYPE
  2
BYBLOCK
 70
0
  3

 72
65
 73
0
 40
0.0000
  0
LTYPE
  2
BYLAYER
 70
0
  3

 72
65
 73
0
 40
0.0000
  0
LTYPE
  2
CONTINUOUS
 70
0
  3
Solid line
 72
65
 73
0
 40
0.0000
  0
ENDTAB
  0
TABLE
  2
LAYER
 70
2
  0
LAYER
  2
0
 70
0
 62
7
  6
CONTINUOUS
  0
LAYER
  2
LPF3300A_DRD
 70
0
 62
10
  6
CONTINUOUS
  0
LAYER
  2
LPF3300A_TOP
 70
0
 62
8
  6
CONTINUOUS
  0
ENDTAB
  0
TABLE
  2
STYLE
 70
0
  0
ENDTAB
  0
ENDSEC
  0
SECTION
  2
BLOCKS
  0
BLOCK
  2
RECTANGLE_1
  3
RECTANGLE_1
 70
64
 10
0.0000
 20
0.0000
 30
0.0000
  0
SOLID
  8
0
 10
1.1815
 20
1.4000
 30
0.0000
 11
1.1815
 21
-1.4000
 31
0.0000
 12
-1.1815
 22
1.4000
 32
0.0000
 13
-1.1815
 23
-1.4000
 33
0.0000
  0
ENDBLK
  0
BLOCK
  2
RECTANGLE_2
  3
RECTANGLE_2
 70
64
 10
0.0000
 20
0.0000
 30
0.0000
  0
SOLID
  8
0
 10
0.5670
 20
1.4000
 30
0.0000
 11
0.5670
 21
-1.4000
 31
0.0000
 12
-0.5670
 22
1.4000
 32
0.0000
 13
-0.5670
 23
-1.4000
 33
0.0000
  0
ENDBLK
  0
BLOCK
  2
ROUND_3
  3
ROUND_3
 70
64
 10
0.0000
 20
0.0000
 30
0.0000
  0
CIRCLE
  8
0
 10
0.0000
 20
0.0000
 30
0.0000
 40
0.1325
  0
ENDBLK
  0
BLOCK
  2
ROUND_7
  3
ROUND_7
 70
64
 10
0.0000
 20
0.0000
 30
0.0000
  0
CIRCLE
  8
0
 10
0.0000
 20
0.0000
 30
0.0000
 40
0.0050
  0
ENDBLK
  0
ENDSEC
  0
SECTION
  2
ENTITIES
  0
POLYLINE
  8
LPF3300A_DRD
 66
1
 10
0.0000
 20
0.0000
 30
0.0000
 40
0.0100
 41
0.0100
  0
VERTEX
  8
LPF3300A_DRD
 10
-6.3700
 20
3.9490
 30
0.0000
  0
VERTEX
  8
LPF3300A_DRD
 10
0.0000
 20
3.9490
 30
0.0000
  0
VERTEX
  8
LPF3300A_DRD
 10
0.0000
 20
-0.0010
 30
0.0000
  0
VERTEX
  8
LPF3300A_DRD
 10
-12.5500
 20
-0.0010
 30
0.0000
  0
VERTEX
  8
LPF3300A_DRD
 10
-12.5500
 20
3.9490
 30
0.0000
  0
VERTEX
  8
LPF3300A_DRD
 10
-6.3700
 20
3.9490
 30
0.0000
  0
SEQEND
  0
POLYLINE
  8
LPF3300A_DRD
 66
1
 10
0.0000
 20
0.0000
 30
0.0000
 40
0.0100
 41
0.0100
  0
VERTEX
  8
LPF3300A_DRD
 10
-1.5500
 20
0.2000
 30
0.0000
  0
VERTEX
  8
LPF3300A_DRD
 10
-1.6000
 20
0.2000
 30
0.0000
  0
SEQEND
  0
POLYLINE
  8
LPF3300A_DRD
 66
1
 10
0.0000
 20
0.0000
 30
0.0000
 40
0.0100
 41
0.0100
  0
VERTEX
  8
LPF3300A_DRD
 10
-1.5750
 20
0.2250
 30
0.0000
  0
VERTEX
  8
LPF3300A_DRD
 10
-1.5750
 20
0.1750
 30
0.0000
  0
SEQEND
  0
POLYLINE
  8
LPF3300A_DRD
 66
1
 10
0.0000
 20
0.0000
 30
0.0000
 40
0.0100
 41
0.0100
  0
VERTEX
  8
LPF3300A_DRD
 10
-1.5500
 20
1.9750
 30
0.0000
  0
VERTEX
  8
LPF3300A_DRD
 10
-1.6000
 20
1.9750
 30
0.0000
  0
SEQEND
  0
POLYLINE
  8
LPF3300A_DRD
 66
1
 10
0.0000
 20
0.0000
 30
0.0000
 40
0.0100
 41
0.0100
  0
VERTEX
  8
LPF3300A_DRD
 10
-1.5750
 20
2.0000
 30
0.0000
  0
VERTEX
  8
LPF3300A_DRD
 10
-1.5750
 20
1.9500
 30
0.0000
  0
SEQEND
  0
POLYLINE
  8
LPF3300A_DRD
 66
1
 10
0.0000
 20
0.0000
 30
0.0000
 40
0.0100
 41
0.0100
  0
VERTEX
  8
LPF3300A_DRD
 10
-0.6000
 20
3.7500
 30
0.0000
  0
VERTEX
  8
LPF3300A_DRD
 10
-0.6500
 20
3.7500
 30
0.0000
  0
SEQEND
  0
POLYLINE
  8
LPF3300A_DRD
 66
1
 10
0.0000
 20
0.0000
 30
0.0000
 40
0.0100
 41
0.0100
  0
VERTEX
  8
LPF3300A_DRD
 10
-0.6250
 20
3.7750
 30
0.0000
  0
VERTEX
  8
LPF3300A_DRD
 10
-0.6250
 20
3.7250
 30
0.0000
  0
SEQEND
  0
POLYLINE
  8
LPF3300A_DRD
 66
1
 10
0.0000
 20
0.0000
 30
0.0000
 40
0.0100
 41
0.0100
  0
VERTEX
  8
LPF3300A_DRD
 10
-3.1750
 20
0.2000
 30
0.0000
  0
VERTEX
  8
LPF3300A_DRD
 10
-3.2250
 20
0.2000
 30
0.0000
  0
SEQEND
  0
POLYLINE
  8
LPF3300A_DRD
 66
1
 10
0.0000
 20
0.0000
 30
0.0000
 40
0.0100
 41
0.0100
  0
VERTEX
  8
LPF3300A_DRD
 10
-3.2000
 20
0.2250
 30
0.0000
  0
VERTEX
  8
LPF3300A_DRD
 10
-3.2000
 20
0.1750
 30
0.0000
  0
SEQEND
  0
POLYLINE
  8
LPF3300A_DRD
 66
1
 10
0.0000
 20
0.0000
 30
0.0000
 40
0.0100
 41
0.0100
  0
VERTEX
  8
LPF3300A_DRD
 10
-3.1750
 20
3.7500
 30
0.0000
  0
VERTEX
  8
LPF3300A_DRD
 10
-3.2250
 20
3.7500
 30
0.0000
  0
SEQEND
  0
POLYLINE
  8
LPF3300A_DRD
 66
1
 10
0.0000
 20
0.0000
 30
0.0000
 40
0.0100
 41
0.0100
  0
VERTEX
  8
LPF3300A_DRD
 10
-3.2000
 20
3.7750
 30
0.0000
  0
VERTEX
  8
LPF3300A_DRD
 10
-3.2000
 20
3.7250
 30
0.0000
  0
SEQEND
  0
POLYLINE
  8
LPF3300A_DRD
 66
1
 10
0.0000
 20
0.0000
 30
0.0000
 40
0.0100
 41
0.0100
  0
VERTEX
  8
LPF3300A_DRD
 10
-4.7000
 20
1.9750
 30
0.0000
  0
VERTEX
  8
LPF3300A_DRD
 10
-4.7500
 20
1.9750
 30
0.0000
  0
SEQEND
  0
POLYLINE
  8
LPF3300A_DRD
 66
1
 10
0.0000
 20
0.0000
 30
0.0000
 40
0.0100
 41
0.0100
  0
VERTEX
  8
LPF3300A_DRD
 10
-4.7250
 20
2.0000
 30
0.0000
  0
VERTEX
  8
LPF3300A_DRD
 10
-4.7250
 20
1.9500
 30
0.0000
  0
SEQEND
  0
POLYLINE
  8
LPF3300A_DRD
 66
1
 10
0.0000
 20
0.0000
 30
0.0000
 40
0.0100
 41
0.0100
  0
VERTEX
  8
LPF3300A_DRD
 10
-6.3750
 20
0.2000
 30
0.0000
  0
VERTEX
  8
LPF3300A_DRD
 10
-6.4250
 20
0.2000
 30
0.0000
  0
SEQEND
  0
POLYLINE
  8
LPF3300A_DRD
 66
1
 10
0.0000
 20
0.0000
 30
0.0000
 40
0.0100
 41
0.0100
  0
VERTEX
  8
LPF3300A_DRD
 10
-6.4000
 20
0.2250
 30
0.0000
  0
VERTEX
  8
LPF3300A_DRD
 10
-6.4000
 20
0.1750
 30
0.0000
  0
SEQEND
  0
POLYLINE
  8
LPF3300A_DRD
 66
1
 10
0.0000
 20
0.0000
 30
0.0000
 40
0.0100
 41
0.0100
  0
VERTEX
  8
LPF3300A_DRD
 10
-6.3750
 20
3.7500
 30
0.0000
  0
VERTEX
  8
LPF3300A_DRD
 10
-6.4250
 20
3.7500
 30
0.0000
  0
SEQEND
  0
POLYLINE
  8
LPF3300A_DRD
 66
1
 10
0.0000
 20
0.0000
 30
0.0000
 40
0.0100
 41
0.0100
  0
VERTEX
  8
LPF3300A_DRD
 10
-6.4000
 20
3.7750
 30
0.0000
  0
VERTEX
  8
LPF3300A_DRD
 10
-6.4000
 20
3.7250
 30
0.0000
  0
SEQEND
  0
POLYLINE
  8
LPF3300A_DRD
 66
1
 10
0.0000
 20
0.0000
 30
0.0000
 40
0.0100
 41
0.0100
  0
VERTEX
  8
LPF3300A_DRD
 10
-9.3000
 20
3.7500
 30
0.0000
  0
VERTEX
  8
LPF3300A_DRD
 10
-9.3500
 20
3.7500
 30
0.0000
  0
SEQEND
  0
POLYLINE
  8
LPF3300A_DRD
 66
1
 10
0.0000
 20
0.0000
 30
0.0000
 40
0.0100
 41
0.0100
  0
VERTEX
  8
LPF3300A_DRD
 10
-9.3250
 20
3.7750
 30
0.0000
  0
VERTEX
  8
LPF3300A_DRD
 10
-9.3250
 20
3.7250
 30
0.0000
  0
SEQEND
  0
POLYLINE
  8
LPF3300A_DRD
 66
1
 10
0.0000
 20
0.0000
 30
0.0000
 40
0.0100
 41
0.0100
  0
VERTEX
  8
LPF3300A_DRD
 10
-9.3250
 20
0.2000
 30
0.0000
  0
VERTEX
  8
LPF3300A_DRD
 10
-9.3750
 20
0.2000
 30
0.0000
  0
SEQEND
  0
POLYLINE
  8
LPF3300A_DRD
 66
1
 10
0.0000
 20
0.0000
 30
0.0000
 40
0.0100
 41
0.0100
  0
VERTEX
  8
LPF3300A_DRD
 10
-9.3500
 20
0.2250
 30
0.0000
  0
VERTEX
  8
LPF3300A_DRD
 10
-9.3500
 20
0.1750
 30
0.0000
  0
SEQEND
  0
POLYLINE
  8
LPF3300A_DRD
 66
1
 10
0.0000
 20
0.0000
 30
0.0000
 40
0.0100
 41
0.0100
  0
VERTEX
  8
LPF3300A_DRD
 10
-11.9000
 20
0.2000
 30
0.0000
  0
VERTEX
  8
LPF3300A_DRD
 10
-11.9500
 20
0.2000
 30
0.0000
  0
SEQEND
  0
POLYLINE
  8
LPF3300A_DRD
 66
1
 10
0.0000
 20
0.0000
 30
0.0000
 40
0.0100
 41
0.0100
  0
VERTEX
  8
LPF3300A_DRD
 10
-11.9250
 20
0.2250
 30
0.0000
  0
VERTEX
  8
LPF3300A_DRD
 10
-11.9250
 20
0.1750
 30
0.0000
  0
SEQEND
  0
POLYLINE
  8
LPF3300A_DRD
 66
1
 10
0.0000
 20
0.0000
 30
0.0000
 40
0.0100
 41
0.0100
  0
VERTEX
  8
LPF3300A_DRD
 10
-11.9250
 20
3.7500
 30
0.0000
  0
VERTEX
  8
LPF3300A_DRD
 10
-11.9750
 20
3.7500
 30
0.0000
  0
SEQEND
  0
POLYLINE
  8
LPF3300A_DRD
 66
1
 10
0.0000
 20
0.0000
 30
0.0000
 40
0.0100
 41
0.0100
  0
VERTEX
  8
LPF3300A_DRD
 10
-11.9500
 20
3.7750
 30
0.0000
  0
VERTEX
  8
LPF3300A_DRD
 10
-11.9500
 20
3.7250
 30
0.0000
  0
SEQEND
  0
POLYLINE
  8
LPF3300A_DRD
 66
1
 10
0.0000
 20
0.0000
 30
0.0000
 40
0.0100
 41
0.0100
  0
VERTEX
  8
LPF3300A_DRD
 10
-10.9250
 20
1.9750
 30
0.0000
  0
VERTEX
  8
LPF3300A_DRD
 10
-10.9750
 20
1.9750
 30
0.0000
  0
SEQEND
  0
POLYLINE
  8
LPF3300A_DRD
 66
1
 10
0.0000
 20
0.0000
 30
0.0000
 40
0.0100
 41
0.0100
  0
VERTEX
  8
LPF3300A_DRD
 10
-10.9500
 20
2.0000
 30
0.0000
  0
VERTEX
  8
LPF3300A_DRD
 10
-10.9500
 20
1.9500
 30
0.0000
  0
SEQEND
  0
POLYLINE
  8
LPF3300A_DRD
 66
1
 10
0.0000
 20
0.0000
 30
0.0000
 40
0.0100
 41
0.0100
  0
VERTEX
  8
LPF3300A_DRD
 10
-7.8000
 20
1.9750
 30
0.0000
  0
VERTEX
  8
LPF3300A_DRD
 10
-7.8500
 20
1.9750
 30
0.0000
  0
SEQEND
  0
POLYLINE
  8
LPF3300A_DRD
 66
1
 10
0.0000
 20
0.0000
 30
0.0000
 40
0.0100
 41
0.0100
  0
VERTEX
  8
LPF3300A_DRD
 10
-7.8250
 20
2.0000
 30
0.0000
  0
VERTEX
  8
LPF3300A_DRD
 10
-7.8250
 20
1.9500
 30
0.0000
  0
SEQEND
  0
INSERT
  2
RECTANGLE_1
  8
LPF3300A_TOP
 10
-3.1610
 20
1.9740
 30
0.0000
 41
1.0000
 42
1.0000
 50
0.0000
  0
INSERT
  2
RECTANGLE_1
  8
LPF3300A_TOP
 10
-6.2740
 20
1.9740
 30
0.0000
 41
1.0000
 42
1.0000
 50
0.0000
  0
INSERT
  2
RECTANGLE_1
  8
LPF3300A_TOP
 10
-9.3890
 20
1.9740
 30
0.0000
 41
1.0000
 42
1.0000
 50
0.0000
  0
INSERT
  2
RECTANGLE_2
  8
LPF3300A_TOP
 10
-0.6610
 20
1.7000
 30
0.0000
 41
1.0000
 42
1.0000
 50
0.0000
  0
INSERT
  2
RECTANGLE_2
  8
LPF3300A_TOP
 10
-11.8900
 20
1.9740
 30
0.0000
 41
1.0000
 42
1.0000
 50
0.0000
  0
INSERT
  2
ROUND_3
  8
LPF3300A_TOP
 10
-1.5750
 20
0.2000
 30
0.0000
 41
1.0000
 42
1.0000
 50
0.0000
  0
INSERT
  2
ROUND_3
  8
LPF3300A_TOP
 10
-1.5750
 20
1.9750
 30
0.0000
 41
1.0000
 42
1.0000
 50
0.0000
  0
INSERT
  2
ROUND_3
  8
LPF3300A_TOP
 10
-0.6250
 20
3.7500
 30
0.0000
 41
1.0000
 42
1.0000
 50
0.0000
  0
INSERT
  2
ROUND_3
  8
LPF3300A_TOP
 10
-3.2000
 20
0.2000
 30
0.0000
 41
1.0000
 42
1.0000
 50
0.0000
  0
INSERT
  2
ROUND_3
  8
LPF3300A_TOP
 10
-3.2000
 20
3.7500
 30
0.0000
 41
1.0000
 42
1.0000
 50
0.0000
  0
INSERT
  2
ROUND_3
  8
LPF3300A_TOP
 10
-4.7250
 20
1.9750
 30
0.0000
 41
1.0000
 42
1.0000
 50
0.0000
  0
INSERT
  2
ROUND_3
  8
LPF3300A_TOP
 10
-6.4000
 20
0.2000
 30
0.0000
 41
1.0000
 42
1.0000
 50
0.0000
  0
INSERT
  2
ROUND_3
  8
LPF3300A_TOP
 10
-6.4000
 20
3.7500
 30
0.0000
 41
1.0000
 42
1.0000
 50
0.0000
  0
INSERT
  2
ROUND_3
  8
LPF3300A_TOP
 10
-9.3250
 20
3.7500
 30
0.0000
 41
1.0000
 42
1.0000
 50
0.0000
  0
INSERT
  2
ROUND_3
  8
LPF3300A_TOP
 10
-9.3500
 20
0.2000
 30
0.0000
 41
1.0000
 42
1.0000
 50
0.0000
  0
INSERT
  2
ROUND_3
  8
LPF3300A_TOP
 10
-11.9250
 20
0.2000
 30
0.0000
 41
1.0000
 42
1.0000
 50
0.0000
  0
INSERT
  2
ROUND_3
  8
LPF3300A_TOP
 10
-11.9500
 20
3.7500
 30
0.0000
 41
1.0000
 42
1.0000
 50
0.0000
  0
INSERT
  2
ROUND_3
  8
LPF3300A_TOP
 10
-10.9500
 20
1.9750
 30
0.0000
 41
1.0000
 42
1.0000
 50
0.0000
  0
INSERT
  2
ROUND_3
  8
LPF3300A_TOP
 10
-7.8250
 20
1.9750
 30
0.0000
 41
1.0000
 42
1.0000
 50
0.0000
  0
ENDSEC
  0
EOF
