  0
SECTION
  2
HEADER
  9
$EXTMIN
 10
-3.5377022
 20
-5.1555905
 30
0.0000
  9
$EXTMAX
 10
5.312198
 20
0.7139691
 30
0.0000
  0
ENDSEC
  0
SECTION
  2
TABLES
  0
TABLE
  2
LTYPE
 70
3
  0
LTYPE
  2
BYBLOCK
 70
0
  3

 72
65
 73
0
 40
0.0000
  0
LTYPE
  2
BYLAYER
 70
0
  3

 72
65
 73
0
 40
0.0000
  0
LTYPE
  2
CONTINUOUS
 70
0
  3
Solid line
 72
65
 73
0
 40
0.0000
  0
ENDTAB
  0
TABLE
  2
LAYER
 70
4
  0
LAYER
  2
0
 70
0
 62
1
  6
CONTINUOUS
  0
LAYER
  2
10888_DRD
 70
0
 62
1
  6
CONTINUOUS
  0
LAYER
  2
SCOTTY_AST
 70
0
 62
1
  6
CONTINUOUS
  0
LAYER
  2
SCOTTY_DRD
 70
0
 62
1
  6
CONTINUOUS
  0
ENDTAB
  0
TABLE
  2
STYLE
 70
3
  0
STYLE
  2
STYLE_0
 70
0
 40
0.065625
 41
1.0000
 50
0.0000
 71
0
 42
0.1000
  3
TXT
  0
STYLE
  2
STYLE_1
 70
0
 40
0.2499999
 41
1.0000
 50
0.0000
 71
0
 42
0.3809524
  3
TXT
  0
STYLE
  2
STYLE_2
 70
0
 40
0.0999999
 41
1.0000
 50
0.0000
 71
0
 42
0.1523809
  3
TXT
  0
ENDTAB
  0
ENDSEC
  0
SECTION
  2
BLOCKS
  0
BLOCK
  2
ROUND_1
  3
ROUND_1
 70
64
 10
0.0000
 20
0.0000
 30
0.0000
  0
CIRCLE
  8
0
 10
0.0000
 20
0.0000
 30
0.0000
 40
0.0010
  0
ENDBLK
  0
ENDSEC
  0
SECTION
  2
ENTITIES
  0
POLYLINE
  8
0
 66
1
 10
0.0000
 20
0.0000
 30
0.0000
 40
0.0020
 41
0.0020
  0
VERTEX
  8
0
 10
5.279234
 20
-3.305925
 30
0.0000
  0
VERTEX
  8
0
 10
5.311198
 20
-3.305925
 30
0.0000
  0
SEQEND
  0
POLYLINE
  8
0
 66
1
 10
0.0000
 20
0.0000
 30
0.0000
 40
0.0020
 41
0.0020
  0
VERTEX
  8
0
 10
5.279234
 20
-3.405925
 30
0.0000
  0
VERTEX
  8
0
 10
5.279234
 20
-3.305925
 30
0.0000
  0
SEQEND
  0
POLYLINE
  8
0
 66
1
 10
0.0000
 20
0.0000
 30
0.0000
 40
0.0020
 41
0.0020
  0
VERTEX
  8
0
 10
5.24727
 20
-3.305925
 30
0.0000
  0
VERTEX
  8
0
 10
5.279234
 20
-3.305925
 30
0.0000
  0
SEQEND
  0
POLYLINE
  8
0
 66
1
 10
0.0000
 20
0.0000
 30
0.0000
 40
0.0020
 41
0.0020
  0
VERTEX
  8
0
 10
5.1686991
 20
-3.3773535
 30
0.0000
 42
1.0098035
  0
VERTEX
  8
0
 10
5.22727
 20
-3.3766391
 30
0.0000
 42
0.0000
  0
SEQEND
  0
POLYLINE
  8
0
 66
1
 10
0.0000
 20
0.0000
 30
0.0000
 40
0.0020
 41
0.0020
  0
VERTEX
  8
0
 10
5.22727
 20
-3.305925
 30
0.0000
  0
VERTEX
  8
0
 10
5.22727
 20
-3.37664
 30
0.0000
  0
SEQEND
  0
POLYLINE
  8
0
 66
1
 10
0.0000
 20
0.0000
 30
0.0000
 40
0.0020
 41
0.0020
  0
VERTEX
  8
0
 10
5.168698
 20
-3.305925
 30
0.0000
  0
VERTEX
  8
0
 10
5.168698
 20
-3.377354
 30
0.0000
  0
SEQEND
  0
POLYLINE
  8
0
 66
1
 10
0.0000
 20
0.0000
 30
0.0000
 40
0.0020
 41
0.0020
  0
VERTEX
  8
0
 10
5.0867901
 20
-3.3844963
 30
0.0000
 42
0.7548959
  0
VERTEX
  8
0
 10
5.143992
 20
-3.3844963
 30
0.0000
 42
0.0000
  0
SEQEND
  0
POLYLINE
  8
0
 66
1
 10
0.0000
 20
0.0000
 30
0.0000
 40
0.0020
 41
0.0020
  0
VERTEX
  8
0
 10
5.143992
 20
-3.3273537
 30
0.0000
 42
0.7548959
  0
VERTEX
  8
0
 10
5.0867901
 20
-3.3273537
 30
0.0000
 42
0.0000
  0
SEQEND
  0
POLYLINE
  8
0
 66
1
 10
0.0000
 20
0.0000
 30
0.0000
 40
0.0020
 41
0.0020
  0
VERTEX
  8
0
 10
5.1439921
 20
-3.3844965
 30
0.0000
 42
0.1647051
  0
VERTEX
  8
0
 10
5.1439921
 20
-3.3273536
 30
0.0000
 42
0.0000
  0
SEQEND
  0
POLYLINE
  8
0
 66
1
 10
0.0000
 20
0.0000
 30
0.0000
 40
0.0020
 41
0.0020
  0
VERTEX
  8
0
 10
5.0867898
 20
-3.3273536
 30
0.0000
 42
0.1647051
  0
VERTEX
  8
0
 10
5.0867898
 20
-3.3844965
 30
0.0000
 42
0.0000
  0
SEQEND
  0
POLYLINE
  8
0
 66
1
 10
0.0000
 20
0.0000
 30
0.0000
 40
0.0020
 41
0.0020
  0
VERTEX
  8
0
 10
4.926298
 20
-3.405925
 30
0.0000
  0
VERTEX
  8
0
 10
4.926298
 20
-3.355925
 30
0.0000
  0
SEQEND
  0
POLYLINE
  8
0
 66
1
 10
0.0000
 20
0.0000
 30
0.0000
 40
0.0020
 41
0.0020
  0
VERTEX
  8
0
 10
4.926298
 20
-3.305925
 30
0.0000
  0
VERTEX
  8
0
 10
4.926298
 20
-3.355925
 30
0.0000
  0
SEQEND
  0
POLYLINE
  8
0
 66
1
 10
0.0000
 20
0.0000
 30
0.0000
 40
0.0020
 41
0.0020
  0
VERTEX
  8
0
 10
4.926298
 20
-3.305925
 30
0.0000
  0
VERTEX
  8
0
 10
4.984941
 20
-3.305925
 30
0.0000
  0
SEQEND
  0
POLYLINE
  8
0
 66
1
 10
0.0000
 20
0.0000
 30
0.0000
 40
0.0020
 41
0.0020
  0
VERTEX
  8
0
 10
4.926298
 20
-3.355925
 30
0.0000
  0
VERTEX
  8
0
 10
4.972084
 20
-3.355925
 30
0.0000
  0
SEQEND
  0
POLYLINE
  8
0
 66
1
 10
0.0000
 20
0.0000
 30
0.0000
 40
0.0020
 41
0.0020
  0
VERTEX
  8
0
 10
4.881295
 20
-3.355925
 30
0.0000
  0
VERTEX
  8
0
 10
4.906298
 20
-3.405925
 30
0.0000
  0
SEQEND
  0
POLYLINE
  8
0
 66
1
 10
0.0000
 20
0.0000
 30
0.0000
 40
0.0020
 41
0.0020
  0
VERTEX
  8
0
 10
4.8812942
 20
-3.355925
 30
0.0000
 42
1.0000771
  0
VERTEX
  8
0
 10
4.881298
 20
-3.305925
 30
0.0000
 42
0.0000
  0
SEQEND
  0
POLYLINE
  8
0
 66
1
 10
0.0000
 20
0.0000
 30
0.0000
 40
0.0020
 41
0.0020
  0
VERTEX
  8
0
 10
4.845013
 20
-3.305925
 30
0.0000
  0
VERTEX
  8
0
 10
4.845013
 20
-3.355925
 30
0.0000
  0
SEQEND
  0
POLYLINE
  8
0
 66
1
 10
0.0000
 20
0.0000
 30
0.0000
 40
0.0020
 41
0.0020
  0
VERTEX
  8
0
 10
4.845013
 20
-3.405925
 30
0.0000
  0
VERTEX
  8
0
 10
4.845013
 20
-3.355925
 30
0.0000
  0
SEQEND
  0
POLYLINE
  8
0
 66
1
 10
0.0000
 20
0.0000
 30
0.0000
 40
0.0020
 41
0.0020
  0
VERTEX
  8
0
 10
4.845013
 20
-3.305925
 30
0.0000
  0
VERTEX
  8
0
 10
4.881298
 20
-3.305925
 30
0.0000
  0
SEQEND
  0
POLYLINE
  8
0
 66
1
 10
0.0000
 20
0.0000
 30
0.0000
 40
0.0020
 41
0.0020
  0
VERTEX
  8
0
 10
4.845013
 20
-3.355925
 30
0.0000
  0
VERTEX
  8
0
 10
4.881295
 20
-3.355925
 30
0.0000
  0
SEQEND
  0
SOLID
  8
0
 10
4.292491
 20
-3.601208
 30
0.0000
 11
4.334141
 21
-3.351208
 31
0.0000
 12
4.375791
 22
-3.601208
 32
0.0000
 13
4.334141
 23
-3.351208
 33
0.0000
  0
SOLID
  8
0
 10
4.334141
 20
-4.700208
 30
0.0000
 11
4.292491
 21
-4.450208
 31
0.0000
 12
4.334141
 22
-4.700208
 32
0.0000
 13
4.375791
 23
-4.450208
 33
0.0000
  0
TEXT
  8
0
 10
4.334141
 20
-4.025708
 30
0.0000
 11
4.334141
 21
-4.025708
 31
0.0000
 40
0.0999999
 41
1.0000
 51
0.0000
 71
0
  1
1.349
 50
0.0000
  7
STYLE_2
 72
1
 73
2
  0
POLYLINE
  8
0
 66
1
 10
0.0000
 20
0.0000
 30
0.0000
 40
0.0020
 41
0.0020
  0
VERTEX
  8
0
 10
4.334141
 20
-3.351208
 30
0.0000
  0
VERTEX
  8
0
 10
4.334141
 20
-3.92127
 30
0.0000
  0
SEQEND
  0
POLYLINE
  8
0
 66
1
 10
0.0000
 20
0.0000
 30
0.0000
 40
0.0020
 41
0.0020
  0
VERTEX
  8
0
 10
4.334141
 20
-4.700208
 30
0.0000
  0
VERTEX
  8
0
 10
4.334141
 20
-4.130146
 30
0.0000
  0
SEQEND
  0
POLYLINE
  8
0
 66
1
 10
0.0000
 20
0.0000
 30
0.0000
 40
0.0020
 41
0.0020
  0
VERTEX
  8
0
 10
4.40119
 20
-3.351208
 30
0.0000
  0
VERTEX
  8
0
 10
4.209141
 20
-3.351208
 30
0.0000
  0
SEQEND
  0
POLYLINE
  8
0
 66
1
 10
0.0000
 20
0.0000
 30
0.0000
 40
0.0020
 41
0.0020
  0
VERTEX
  8
0
 10
4.55319
 20
-4.700208
 30
0.0000
  0
VERTEX
  8
0
 10
4.209141
 20
-4.700208
 30
0.0000
  0
SEQEND
  0
POLYLINE
  8
0
 66
1
 10
0.0000
 20
0.0000
 30
0.0000
 40
0.0020
 41
0.0020
  0
VERTEX
  8
0
 10
4.77619
 20
-3.301208
 30
0.0000
  0
VERTEX
  8
0
 10
4.52619
 20
-3.401208
 30
0.0000
  0
SEQEND
  0
POLYLINE
  8
0
 66
1
 10
0.0000
 20
0.0000
 30
0.0000
 40
0.0020
 41
0.0020
  0
VERTEX
  8
0
 10
4.52619
 20
-3.301208
 30
0.0000
  0
VERTEX
  8
0
 10
4.77619
 20
-3.401208
 30
0.0000
  0
SEQEND
  0
TEXT
  8
0
 10
3.8847
 20
-2.4860
 30
0.0000
 11
3.8847
 21
-2.4860
 31
0.0000
 40
0.0999999
 41
1.0000
 51
0.0000
 71
0
  1
X 6.069, Y 2.236
 50
0.0000
  7
STYLE_2
 72
1
 73
2
  0
POLYLINE
  8
0
 66
1
 10
0.0000
 20
0.0000
 30
0.0000
 40
0.0020
 41
0.0020
  0
VERTEX
  8
0
 10
1.834506
 20
-0.579244
 30
0.0000
  0
VERTEX
  8
0
 10
1.860398
 20
-0.479244
 30
0.0000
  0
SEQEND
  0
POLYLINE
  8
0
 66
1
 10
0.0000
 20
0.0000
 30
0.0000
 40
0.0020
 41
0.0020
  0
VERTEX
  8
0
 10
1.808613
 20
-0.495887
 30
0.0000
  0
VERTEX
  8
0
 10
1.834506
 20
-0.579244
 30
0.0000
  0
SEQEND
  0
POLYLINE
  8
0
 66
1
 10
0.0000
 20
0.0000
 30
0.0000
 40
0.0020
 41
0.0020
  0
VERTEX
  8
0
 10
1.78272
 20
-0.579244
 30
0.0000
  0
VERTEX
  8
0
 10
1.808613
 20
-0.495887
 30
0.0000
  0
SEQEND
  0
POLYLINE
  8
0
 66
1
 10
0.0000
 20
0.0000
 30
0.0000
 40
0.0020
 41
0.0020
  0
VERTEX
  8
0
 10
1.756827
 20
-0.479244
 30
0.0000
  0
VERTEX
  8
0
 10
1.78272
 20
-0.579244
 30
0.0000
  0
SEQEND
  0
POLYLINE
  8
0
 66
1
 10
0.0000
 20
0.0000
 30
0.0000
 40
0.0020
 41
0.0020
  0
VERTEX
  8
0
 10
1.678184
 20
-0.579244
 30
0.0000
  0
VERTEX
  8
0
 10
1.678184
 20
-0.529244
 30
0.0000
  0
SEQEND
  0
POLYLINE
  8
0
 66
1
 10
0.0000
 20
0.0000
 30
0.0000
 40
0.0020
 41
0.0020
  0
VERTEX
  8
0
 10
1.678184
 20
-0.479244
 30
0.0000
  0
VERTEX
  8
0
 10
1.678184
 20
-0.529244
 30
0.0000
  0
SEQEND
  0
POLYLINE
  8
0
 66
1
 10
0.0000
 20
0.0000
 30
0.0000
 40
0.0020
 41
0.0020
  0
VERTEX
  8
0
 10
1.678184
 20
-0.479244
 30
0.0000
  0
VERTEX
  8
0
 10
1.736827
 20
-0.479244
 30
0.0000
  0
SEQEND
  0
POLYLINE
  8
0
 66
1
 10
0.0000
 20
0.0000
 30
0.0000
 40
0.0020
 41
0.0020
  0
VERTEX
  8
0
 10
1.678184
 20
-0.579244
 30
0.0000
  0
VERTEX
  8
0
 10
1.736827
 20
-0.579244
 30
0.0000
  0
SEQEND
  0
POLYLINE
  8
0
 66
1
 10
0.0000
 20
0.0000
 30
0.0000
 40
0.0020
 41
0.0020
  0
VERTEX
  8
0
 10
1.678184
 20
-0.529244
 30
0.0000
  0
VERTEX
  8
0
 10
1.72397
 20
-0.529244
 30
0.0000
  0
SEQEND
  0
POLYLINE
  8
0
 66
1
 10
0.0000
 20
0.0000
 30
0.0000
 40
0.0020
 41
0.0020
  0
VERTEX
  8
0
 10
1.658184
 20
-0.479244
 30
0.0000
  0
VERTEX
  8
0
 10
1.643898
 20
-0.479244
 30
0.0000
  0
SEQEND
  0
POLYLINE
  8
0
 66
1
 10
0.0000
 20
0.0000
 30
0.0000
 40
0.0020
 41
0.0020
  0
VERTEX
  8
0
 10
1.629613
 20
-0.479244
 30
0.0000
  0
VERTEX
  8
0
 10
1.643898
 20
-0.479244
 30
0.0000
  0
SEQEND
  0
POLYLINE
  8
0
 66
1
 10
0.0000
 20
0.0000
 30
0.0000
 40
0.0020
 41
0.0020
  0
VERTEX
  8
0
 10
1.658184
 20
-0.579244
 30
0.0000
  0
VERTEX
  8
0
 10
1.643898
 20
-0.579244
 30
0.0000
  0
SEQEND
  0
POLYLINE
  8
0
 66
1
 10
0.0000
 20
0.0000
 30
0.0000
 40
0.0020
 41
0.0020
  0
VERTEX
  8
0
 10
1.629613
 20
-0.579244
 30
0.0000
  0
VERTEX
  8
0
 10
1.643898
 20
-0.579244
 30
0.0000
  0
SEQEND
  0
POLYLINE
  8
0
 66
1
 10
0.0000
 20
0.0000
 30
0.0000
 40
0.0020
 41
0.0020
  0
VERTEX
  8
0
 10
1.643898
 20
-0.579244
 30
0.0000
  0
VERTEX
  8
0
 10
1.643898
 20
-0.479244
 30
0.0000
  0
SEQEND
  0
POLYLINE
  8
0
 66
1
 10
0.0000
 20
0.0000
 30
0.0000
 40
0.0020
 41
0.0020
  0
VERTEX
  8
0
 10
1.573184
 20
-0.579244
 30
0.0000
  0
VERTEX
  8
0
 10
1.609613
 20
-0.479244
 30
0.0000
  0
SEQEND
  0
POLYLINE
  8
0
 66
1
 10
0.0000
 20
0.0000
 30
0.0000
 40
0.0020
 41
0.0020
  0
VERTEX
  8
0
 10
1.536756
 20
-0.479244
 30
0.0000
  0
VERTEX
  8
0
 10
1.573184
 20
-0.579244
 30
0.0000
  0
SEQEND
  0
POLYLINE
  8
0
 66
1
 10
0.0000
 20
0.0000
 30
0.0000
 40
0.0020
 41
0.0020
  0
VERTEX
  8
0
 10
1.4146091
 20
-0.529244
 30
0.0000
 42
1.0000771
  0
VERTEX
  8
0
 10
1.414613
 20
-0.479244
 30
0.0000
 42
0.0000
  0
SEQEND
  0
POLYLINE
  8
0
 66
1
 10
0.0000
 20
0.0000
 30
0.0000
 40
0.0020
 41
0.0020
  0
VERTEX
  8
0
 10
1.378327
 20
-0.479244
 30
0.0000
  0
VERTEX
  8
0
 10
1.378327
 20
-0.529244
 30
0.0000
  0
SEQEND
  0
POLYLINE
  8
0
 66
1
 10
0.0000
 20
0.0000
 30
0.0000
 40
0.0020
 41
0.0020
  0
VERTEX
  8
0
 10
1.378327
 20
-0.579244
 30
0.0000
  0
VERTEX
  8
0
 10
1.378327
 20
-0.529244
 30
0.0000
  0
SEQEND
  0
POLYLINE
  8
0
 66
1
 10
0.0000
 20
0.0000
 30
0.0000
 40
0.0020
 41
0.0020
  0
VERTEX
  8
0
 10
1.378327
 20
-0.479244
 30
0.0000
  0
VERTEX
  8
0
 10
1.414613
 20
-0.479244
 30
0.0000
  0
SEQEND
  0
POLYLINE
  8
0
 66
1
 10
0.0000
 20
0.0000
 30
0.0000
 40
0.0020
 41
0.0020
  0
VERTEX
  8
0
 10
1.378327
 20
-0.529244
 30
0.0000
  0
VERTEX
  8
0
 10
1.414609
 20
-0.529244
 30
0.0000
  0
SEQEND
  0
POLYLINE
  8
0
 66
1
 10
0.0000
 20
0.0000
 30
0.0000
 40
0.0020
 41
0.0020
  0
VERTEX
  8
0
 10
1.2964191
 20
-0.5578153
 30
0.0000
 42
0.7548959
  0
VERTEX
  8
0
 10
1.3536209
 20
-0.5578153
 30
0.0000
 42
0.0000
  0
SEQEND
  0
POLYLINE
  8
0
 66
1
 10
0.0000
 20
0.0000
 30
0.0000
 40
0.0020
 41
0.0020
  0
VERTEX
  8
0
 10
1.3536209
 20
-0.5006728
 30
0.0000
 42
0.7548959
  0
VERTEX
  8
0
 10
1.2964191
 20
-0.5006728
 30
0.0000
 42
0.0000
  0
SEQEND
  0
POLYLINE
  8
0
 66
1
 10
0.0000
 20
0.0000
 30
0.0000
 40
0.0020
 41
0.0020
  0
VERTEX
  8
0
 10
1.3536202
 20
-0.5578154
 30
0.0000
 42
0.1647051
  0
VERTEX
  8
0
 10
1.3536202
 20
-0.5006726
 30
0.0000
 42
0.0000
  0
SEQEND
  0
POLYLINE
  8
0
 66
1
 10
0.0000
 20
0.0000
 30
0.0000
 40
0.0020
 41
0.0020
  0
VERTEX
  8
0
 10
1.2964188
 20
-0.5006726
 30
0.0000
 42
0.1647051
  0
VERTEX
  8
0
 10
1.2964189
 20
-0.5578154
 30
0.0000
 42
0.0000
  0
SEQEND
  0
POLYLINE
  8
0
 66
1
 10
0.0000
 20
0.0000
 30
0.0000
 40
0.0020
 41
0.0020
  0
VERTEX
  8
0
 10
1.239748
 20
-0.479244
 30
0.0000
  0
VERTEX
  8
0
 10
1.271713
 20
-0.479244
 30
0.0000
  0
SEQEND
  0
POLYLINE
  8
0
 66
1
 10
0.0000
 20
0.0000
 30
0.0000
 40
0.0020
 41
0.0020
  0
VERTEX
  8
0
 10
1.239748
 20
-0.579244
 30
0.0000
  0
VERTEX
  8
0
 10
1.239748
 20
-0.479244
 30
0.0000
  0
SEQEND
  0
POLYLINE
  8
0
 66
1
 10
0.0000
 20
0.0000
 30
0.0000
 40
0.0020
 41
0.0020
  0
VERTEX
  8
0
 10
1.207784
 20
-0.479244
 30
0.0000
  0
VERTEX
  8
0
 10
1.239748
 20
-0.479244
 30
0.0000
  0
SEQEND
  0
POLYLINE
  8
0
 66
1
 10
0.0000
 20
0.0000
 30
0.0000
 40
0.0020
 41
0.0020
  0
VERTEX
  8
0
 10
2.024175
 20
0.028645
 30
0.0000
  0
VERTEX
  8
0
 10
2.063532
 20
0.011742
 30
0.0000
  0
SEQEND
  0
POLYLINE
  8
0
 66
1
 10
0.0000
 20
0.0000
 30
0.0000
 40
0.0020
 41
0.0020
  0
VERTEX
  8
0
 10
2.040339
 20
0.070291
 30
0.0000
  0
VERTEX
  8
0
 10
2.048464
 20
0.070191
 30
0.0000
  0
SEQEND
  0
POLYLINE
  8
0
 66
1
 10
0.0000
 20
0.0000
 30
0.0000
 40
0.0020
 41
0.0020
  0
VERTEX
  8
0
 10
2.0729435
 20
0.0560073
 30
0.0000
 42
0.2622357
  0
VERTEX
  8
0
 10
2.0484639
 20
0.0701918
 30
0.0000
 42
0.0000
  0
SEQEND
  0
POLYLINE
  8
0
 66
1
 10
0.0000
 20
0.0000
 30
0.0000
 40
0.0020
 41
0.0020
  0
VERTEX
  8
0
 10
2.0403382
 20
0.070291
 30
0.0000
 42
0.4042915
  0
VERTEX
  8
0
 10
2.0137281
 20
0.0451934
 30
0.0000
 42
0.0000
  0
SEQEND
  0
POLYLINE
  8
0
 66
1
 10
0.0000
 20
0.0000
 30
0.0000
 40
0.0020
 41
0.0020
  0
VERTEX
  8
0
 10
2.0137288
 20
0.0451936
 30
0.0000
 42
0.2408283
  0
VERTEX
  8
0
 10
2.0241754
 20
0.0286456
 30
0.0000
 42
0.0000
  0
SEQEND
  0
POLYLINE
  8
0
 66
1
 10
0.0000
 20
0.0000
 30
0.0000
 40
0.0020
 41
0.0020
  0
VERTEX
  8
0
 10
2.037244
 20
-0.029805
 30
0.0000
  0
VERTEX
  8
0
 10
2.047434
 20
-0.029905
 30
0.0000
  0
SEQEND
  0
POLYLINE
  8
0
 66
1
 10
0.0000
 20
0.0000
 30
0.0000
 40
0.0020
 41
0.0020
  0
VERTEX
  8
0
 10
2.0126924
 20
-0.0156203
 30
0.0000
 42
0.2629004
  0
VERTEX
  8
0
 10
2.0372438
 20
-0.0298056
 30
0.0000
 42
0.0000
  0
SEQEND
  0
POLYLINE
  8
0
 66
1
 10
0.0000
 20
0.0000
 30
0.0000
 40
0.0020
 41
0.0020
  0
VERTEX
  8
0
 10
2.0474343
 20
-0.0299047
 30
0.0000
 42
0.4035684
  0
VERTEX
  8
0
 10
2.0739789
 20
-0.0048064
 30
0.0000
 42
0.0000
  0
SEQEND
  0
POLYLINE
  8
0
 66
1
 10
0.0000
 20
0.0000
 30
0.0000
 40
0.0020
 41
0.0020
  0
VERTEX
  8
0
 10
2.0739781
 20
-0.0048067
 30
0.0000
 42
0.2408292
  0
VERTEX
  8
0
 10
2.0635317
 20
0.0117414
 30
0.0000
 42
0.0000
  0
SEQEND
  0
POLYLINE
  8
0
 66
1
 10
0.0000
 20
0.0000
 30
0.0000
 40
0.0020
 41
0.0020
  0
VERTEX
  8
0
 10
1.93405
 20
-0.029807
 30
0.0000
  0
VERTEX
  8
0
 10
1.93405
 20
0.020193
 30
0.0000
  0
SEQEND
  0
POLYLINE
  8
0
 66
1
 10
0.0000
 20
0.0000
 30
0.0000
 40
0.0020
 41
0.0020
  0
VERTEX
  8
0
 10
1.93405
 20
0.070193
 30
0.0000
  0
VERTEX
  8
0
 10
1.93405
 20
0.020193
 30
0.0000
  0
SEQEND
  0
POLYLINE
  8
0
 66
1
 10
0.0000
 20
0.0000
 30
0.0000
 40
0.0020
 41
0.0020
  0
VERTEX
  8
0
 10
1.93405
 20
0.070193
 30
0.0000
  0
VERTEX
  8
0
 10
1.992693
 20
0.070193
 30
0.0000
  0
SEQEND
  0
POLYLINE
  8
0
 66
1
 10
0.0000
 20
0.0000
 30
0.0000
 40
0.0020
 41
0.0020
  0
VERTEX
  8
0
 10
1.93405
 20
-0.029807
 30
0.0000
  0
VERTEX
  8
0
 10
1.992693
 20
-0.029807
 30
0.0000
  0
SEQEND
  0
POLYLINE
  8
0
 66
1
 10
0.0000
 20
0.0000
 30
0.0000
 40
0.0020
 41
0.0020
  0
VERTEX
  8
0
 10
1.93405
 20
0.020193
 30
0.0000
  0
VERTEX
  8
0
 10
1.979836
 20
0.020193
 30
0.0000
  0
SEQEND
  0
POLYLINE
  8
0
 66
1
 10
0.0000
 20
0.0000
 30
0.0000
 40
0.0020
 41
0.0020
  0
VERTEX
  8
0
 10
1.91405
 20
-0.029807
 30
0.0000
  0
VERTEX
  8
0
 10
1.91405
 20
0.020193
 30
0.0000
  0
SEQEND
  0
POLYLINE
  8
0
 66
1
 10
0.0000
 20
0.0000
 30
0.0000
 40
0.0020
 41
0.0020
  0
VERTEX
  8
0
 10
1.91405
 20
0.070193
 30
0.0000
  0
VERTEX
  8
0
 10
1.91405
 20
0.020193
 30
0.0000
  0
SEQEND
  0
POLYLINE
  8
0
 66
1
 10
0.0000
 20
0.0000
 30
0.0000
 40
0.0020
 41
0.0020
  0
VERTEX
  8
0
 10
1.853336
 20
-0.029807
 30
0.0000
  0
VERTEX
  8
0
 10
1.853336
 20
0.020193
 30
0.0000
  0
SEQEND
  0
POLYLINE
  8
0
 66
1
 10
0.0000
 20
0.0000
 30
0.0000
 40
0.0020
 41
0.0020
  0
VERTEX
  8
0
 10
1.853336
 20
0.070193
 30
0.0000
  0
VERTEX
  8
0
 10
1.853336
 20
0.020193
 30
0.0000
  0
SEQEND
  0
POLYLINE
  8
0
 66
1
 10
0.0000
 20
0.0000
 30
0.0000
 40
0.0020
 41
0.0020
  0
VERTEX
  8
0
 10
1.853336
 20
0.020193
 30
0.0000
  0
VERTEX
  8
0
 10
1.91405
 20
0.020193
 30
0.0000
  0
SEQEND
  0
POLYLINE
  8
0
 66
1
 10
0.0000
 20
0.0000
 30
0.0000
 40
0.0020
 41
0.0020
  0
VERTEX
  8
0
 10
1.7699698
 20
0.0487644
 30
0.0000
 42
0.1647051
  0
VERTEX
  8
0
 10
1.7699698
 20
-0.0083784
 30
0.0000
 42
0.0000
  0
SEQEND
  0
POLYLINE
  8
0
 66
1
 10
0.0000
 20
0.0000
 30
0.0000
 40
0.0020
 41
0.0020
  0
VERTEX
  8
0
 10
1.7699702
 20
-0.0083782
 30
0.0000
 42
0.5769616
  0
VERTEX
  8
0
 10
1.8333358
 20
-0.0146433
 30
0.0000
 42
0.0000
  0
SEQEND
  0
POLYLINE
  8
0
 66
1
 10
0.0000
 20
0.0000
 30
0.0000
 40
0.0020
 41
0.0020
  0
VERTEX
  8
0
 10
1.8333358
 20
0.0550303
 30
0.0000
 42
0.5769616
  0
VERTEX
  8
0
 10
1.7699702
 20
0.0487652
 30
0.0000
 42
0.0000
  0
SEQEND
  0
POLYLINE
  8
0
 66
1
 10
0.0000
 20
0.0000
 30
0.0000
 40
0.0020
 41
0.0020
  0
VERTEX
  8
0
 10
1.683979
 20
0.070193
 30
0.0000
  0
VERTEX
  8
0
 10
1.745264
 20
-0.029807
 30
0.0000
  0
SEQEND
  0
POLYLINE
  8
0
 66
1
 10
0.0000
 20
0.0000
 30
0.0000
 40
0.0020
 41
0.0020
  0
VERTEX
  8
0
 10
1.745264
 20
-0.029807
 30
0.0000
  0
VERTEX
  8
0
 10
1.745264
 20
0.070193
 30
0.0000
  0
SEQEND
  0
POLYLINE
  8
0
 66
1
 10
0.0000
 20
0.0000
 30
0.0000
 40
0.0020
 41
0.0020
  0
VERTEX
  8
0
 10
1.683979
 20
-0.029807
 30
0.0000
  0
VERTEX
  8
0
 10
1.683979
 20
0.070193
 30
0.0000
  0
SEQEND
  0
POLYLINE
  8
0
 66
1
 10
0.0000
 20
0.0000
 30
0.0000
 40
0.0020
 41
0.0020
  0
VERTEX
  8
0
 10
1.663979
 20
0.070193
 30
0.0000
  0
VERTEX
  8
0
 10
1.649693
 20
0.070193
 30
0.0000
  0
SEQEND
  0
POLYLINE
  8
0
 66
1
 10
0.0000
 20
0.0000
 30
0.0000
 40
0.0020
 41
0.0020
  0
VERTEX
  8
0
 10
1.635407
 20
0.070193
 30
0.0000
  0
VERTEX
  8
0
 10
1.649693
 20
0.070193
 30
0.0000
  0
SEQEND
  0
POLYLINE
  8
0
 66
1
 10
0.0000
 20
0.0000
 30
0.0000
 40
0.0020
 41
0.0020
  0
VERTEX
  8
0
 10
1.663979
 20
-0.029807
 30
0.0000
  0
VERTEX
  8
0
 10
1.649693
 20
-0.029807
 30
0.0000
  0
SEQEND
  0
POLYLINE
  8
0
 66
1
 10
0.0000
 20
0.0000
 30
0.0000
 40
0.0020
 41
0.0020
  0
VERTEX
  8
0
 10
1.635407
 20
-0.029807
 30
0.0000
  0
VERTEX
  8
0
 10
1.649693
 20
-0.029807
 30
0.0000
  0
SEQEND
  0
POLYLINE
  8
0
 66
1
 10
0.0000
 20
0.0000
 30
0.0000
 40
0.0020
 41
0.0020
  0
VERTEX
  8
0
 10
1.649693
 20
-0.029807
 30
0.0000
  0
VERTEX
  8
0
 10
1.649693
 20
0.070193
 30
0.0000
  0
SEQEND
  0
POLYLINE
  8
0
 66
1
 10
0.0000
 20
0.0000
 30
0.0000
 40
0.0020
 41
0.0020
  0
VERTEX
  8
0
 10
1.476979
 20
0.070193
 30
0.0000
  0
VERTEX
  8
0
 10
1.538264
 20
-0.029807
 30
0.0000
  0
SEQEND
  0
POLYLINE
  8
0
 66
1
 10
0.0000
 20
0.0000
 30
0.0000
 40
0.0020
 41
0.0020
  0
VERTEX
  8
0
 10
1.538264
 20
-0.029807
 30
0.0000
  0
VERTEX
  8
0
 10
1.538264
 20
0.070193
 30
0.0000
  0
SEQEND
  0
POLYLINE
  8
0
 66
1
 10
0.0000
 20
0.0000
 30
0.0000
 40
0.0020
 41
0.0020
  0
VERTEX
  8
0
 10
1.476979
 20
-0.029807
 30
0.0000
  0
VERTEX
  8
0
 10
1.476979
 20
0.070193
 30
0.0000
  0
SEQEND
  0
POLYLINE
  8
0
 66
1
 10
0.0000
 20
0.0000
 30
0.0000
 40
0.0020
 41
0.0020
  0
VERTEX
  8
0
 10
1.456979
 20
0.070193
 30
0.0000
  0
VERTEX
  8
0
 10
1.442693
 20
0.070193
 30
0.0000
  0
SEQEND
  0
POLYLINE
  8
0
 66
1
 10
0.0000
 20
0.0000
 30
0.0000
 40
0.0020
 41
0.0020
  0
VERTEX
  8
0
 10
1.428407
 20
0.070193
 30
0.0000
  0
VERTEX
  8
0
 10
1.442693
 20
0.070193
 30
0.0000
  0
SEQEND
  0
POLYLINE
  8
0
 66
1
 10
0.0000
 20
0.0000
 30
0.0000
 40
0.0020
 41
0.0020
  0
VERTEX
  8
0
 10
1.456979
 20
-0.029807
 30
0.0000
  0
VERTEX
  8
0
 10
1.442693
 20
-0.029807
 30
0.0000
  0
SEQEND
  0
POLYLINE
  8
0
 66
1
 10
0.0000
 20
0.0000
 30
0.0000
 40
0.0020
 41
0.0020
  0
VERTEX
  8
0
 10
1.428407
 20
-0.029807
 30
0.0000
  0
VERTEX
  8
0
 10
1.442693
 20
-0.029807
 30
0.0000
  0
SEQEND
  0
POLYLINE
  8
0
 66
1
 10
0.0000
 20
0.0000
 30
0.0000
 40
0.0020
 41
0.0020
  0
VERTEX
  8
0
 10
1.442693
 20
-0.029807
 30
0.0000
  0
VERTEX
  8
0
 10
1.442693
 20
0.070193
 30
0.0000
  0
SEQEND
  0
POLYLINE
  8
0
 66
1
 10
0.0000
 20
0.0000
 30
0.0000
 40
0.0020
 41
0.0020
  0
VERTEX
  8
0
 10
1.272622
 20
-0.029807
 30
0.0000
  0
VERTEX
  8
0
 10
1.272622
 20
0.020193
 30
0.0000
  0
SEQEND
  0
POLYLINE
  8
0
 66
1
 10
0.0000
 20
0.0000
 30
0.0000
 40
0.0020
 41
0.0020
  0
VERTEX
  8
0
 10
1.272622
 20
0.070193
 30
0.0000
  0
VERTEX
  8
0
 10
1.272622
 20
0.020193
 30
0.0000
  0
SEQEND
  0
POLYLINE
  8
0
 66
1
 10
0.0000
 20
0.0000
 30
0.0000
 40
0.0020
 41
0.0020
  0
VERTEX
  8
0
 10
1.272622
 20
0.070193
 30
0.0000
  0
VERTEX
  8
0
 10
1.331264
 20
0.070193
 30
0.0000
  0
SEQEND
  0
POLYLINE
  8
0
 66
1
 10
0.0000
 20
0.0000
 30
0.0000
 40
0.0020
 41
0.0020
  0
VERTEX
  8
0
 10
1.272622
 20
-0.029807
 30
0.0000
  0
VERTEX
  8
0
 10
1.331264
 20
-0.029807
 30
0.0000
  0
SEQEND
  0
POLYLINE
  8
0
 66
1
 10
0.0000
 20
0.0000
 30
0.0000
 40
0.0020
 41
0.0020
  0
VERTEX
  8
0
 10
1.272622
 20
0.020193
 30
0.0000
  0
VERTEX
  8
0
 10
1.318407
 20
0.020193
 30
0.0000
  0
SEQEND
  0
POLYLINE
  8
0
 66
1
 10
0.0000
 20
0.0000
 30
0.0000
 40
0.0020
 41
0.0020
  0
VERTEX
  8
0
 10
1.227618
 20
0.020193
 30
0.0000
  0
VERTEX
  8
0
 10
1.252622
 20
-0.029807
 30
0.0000
  0
SEQEND
  0
POLYLINE
  8
0
 66
1
 10
0.0000
 20
0.0000
 30
0.0000
 40
0.0020
 41
0.0020
  0
VERTEX
  8
0
 10
1.2276181
 20
0.020193
 30
0.0000
 42
1.0000771
  0
VERTEX
  8
0
 10
1.227622
 20
0.070193
 30
0.0000
 42
0.0000
  0
SEQEND
  0
POLYLINE
  8
0
 66
1
 10
0.0000
 20
0.0000
 30
0.0000
 40
0.0020
 41
0.0020
  0
VERTEX
  8
0
 10
1.191336
 20
0.070193
 30
0.0000
  0
VERTEX
  8
0
 10
1.191336
 20
0.020193
 30
0.0000
  0
SEQEND
  0
POLYLINE
  8
0
 66
1
 10
0.0000
 20
0.0000
 30
0.0000
 40
0.0020
 41
0.0020
  0
VERTEX
  8
0
 10
1.191336
 20
-0.029807
 30
0.0000
  0
VERTEX
  8
0
 10
1.191336
 20
0.020193
 30
0.0000
  0
SEQEND
  0
POLYLINE
  8
0
 66
1
 10
0.0000
 20
0.0000
 30
0.0000
 40
0.0020
 41
0.0020
  0
VERTEX
  8
0
 10
1.191336
 20
0.070193
 30
0.0000
  0
VERTEX
  8
0
 10
1.227622
 20
0.070193
 30
0.0000
  0
SEQEND
  0
POLYLINE
  8
0
 66
1
 10
0.0000
 20
0.0000
 30
0.0000
 40
0.0020
 41
0.0020
  0
VERTEX
  8
0
 10
1.191336
 20
0.020193
 30
0.0000
  0
VERTEX
  8
0
 10
1.227618
 20
0.020193
 30
0.0000
  0
SEQEND
  0
POLYLINE
  8
0
 66
1
 10
0.0000
 20
0.0000
 30
0.0000
 40
0.0020
 41
0.0020
  0
VERTEX
  8
0
 10
1.1633
 20
-0.008378
 30
0.0000
  0
VERTEX
  8
0
 10
1.171336
 20
-0.029807
 30
0.0000
  0
SEQEND
  0
POLYLINE
  8
0
 66
1
 10
0.0000
 20
0.0000
 30
0.0000
 40
0.0020
 41
0.0020
  0
VERTEX
  8
0
 10
1.104372
 20
-0.008378
 30
0.0000
  0
VERTEX
  8
0
 10
1.133836
 20
0.070193
 30
0.0000
  0
SEQEND
  0
POLYLINE
  8
0
 66
1
 10
0.0000
 20
0.0000
 30
0.0000
 40
0.0020
 41
0.0020
  0
VERTEX
  8
0
 10
1.133836
 20
0.070193
 30
0.0000
  0
VERTEX
  8
0
 10
1.1633
 20
-0.008378
 30
0.0000
  0
SEQEND
  0
POLYLINE
  8
0
 66
1
 10
0.0000
 20
0.0000
 30
0.0000
 40
0.0020
 41
0.0020
  0
VERTEX
  8
0
 10
1.096336
 20
-0.029807
 30
0.0000
  0
VERTEX
  8
0
 10
1.104372
 20
-0.008378
 30
0.0000
  0
SEQEND
  0
POLYLINE
  8
0
 66
1
 10
0.0000
 20
0.0000
 30
0.0000
 40
0.0020
 41
0.0020
  0
VERTEX
  8
0
 10
1.104372
 20
-0.008378
 30
0.0000
  0
VERTEX
  8
0
 10
1.1633
 20
-0.008378
 30
0.0000
  0
SEQEND
  0
POLYLINE
  8
0
 66
1
 10
0.0000
 20
0.0000
 30
0.0000
 40
0.0020
 41
0.0020
  0
VERTEX
  8
0
 10
0.94939
 20
0.028645
 30
0.0000
  0
VERTEX
  8
0
 10
0.988746
 20
0.011742
 30
0.0000
  0
SEQEND
  0
POLYLINE
  8
0
 66
1
 10
0.0000
 20
0.0000
 30
0.0000
 40
0.0020
 41
0.0020
  0
VERTEX
  8
0
 10
0.965553
 20
0.070291
 30
0.0000
  0
VERTEX
  8
0
 10
0.973678
 20
0.070191
 30
0.0000
  0
SEQEND
  0
POLYLINE
  8
0
 66
1
 10
0.0000
 20
0.0000
 30
0.0000
 40
0.0020
 41
0.0020
  0
VERTEX
  8
0
 10
0.9981576
 20
0.0560073
 30
0.0000
 42
0.2622357
  0
VERTEX
  8
0
 10
0.973678
 20
0.0701918
 30
0.0000
 42
0.0000
  0
SEQEND
  0
POLYLINE
  8
0
 66
1
 10
0.0000
 20
0.0000
 30
0.0000
 40
0.0020
 41
0.0020
  0
VERTEX
  8
0
 10
0.9655532
 20
0.070291
 30
0.0000
 42
0.4042915
  0
VERTEX
  8
0
 10
0.9389431
 20
0.0451934
 30
0.0000
 42
0.0000
  0
SEQEND
  0
POLYLINE
  8
0
 66
1
 10
0.0000
 20
0.0000
 30
0.0000
 40
0.0020
 41
0.0020
  0
VERTEX
  8
0
 10
0.9389428
 20
0.0451936
 30
0.0000
 42
0.2408283
  0
VERTEX
  8
0
 10
0.9493894
 20
0.0286456
 30
0.0000
 42
0.0000
  0
SEQEND
  0
POLYLINE
  8
0
 66
1
 10
0.0000
 20
0.0000
 30
0.0000
 40
0.0020
 41
0.0020
  0
VERTEX
  8
0
 10
0.962458
 20
-0.029805
 30
0.0000
  0
VERTEX
  8
0
 10
0.972649
 20
-0.029905
 30
0.0000
  0
SEQEND
  0
POLYLINE
  8
0
 66
1
 10
0.0000
 20
0.0000
 30
0.0000
 40
0.0020
 41
0.0020
  0
VERTEX
  8
0
 10
0.9379065
 20
-0.0156203
 30
0.0000
 42
0.2629007
  0
VERTEX
  8
0
 10
0.9624578
 20
-0.0298056
 30
0.0000
 42
0.0000
  0
SEQEND
  0
POLYLINE
  8
0
 66
1
 10
0.0000
 20
0.0000
 30
0.0000
 40
0.0020
 41
0.0020
  0
VERTEX
  8
0
 10
0.9726483
 20
-0.0299047
 30
0.0000
 42
0.4035684
  0
VERTEX
  8
0
 10
0.9991928
 20
-0.0048064
 30
0.0000
 42
0.0000
  0
SEQEND
  0
POLYLINE
  8
0
 66
1
 10
0.0000
 20
0.0000
 30
0.0000
 40
0.0020
 41
0.0020
  0
VERTEX
  8
0
 10
0.9991931
 20
-0.0048067
 30
0.0000
 42
0.24083
  0
VERTEX
  8
0
 10
0.9887466
 20
0.0117414
 30
0.0000
 42
0.0000
  0
SEQEND
  0
POLYLINE
  8
0
 66
1
 10
0.0000
 20
0.0000
 30
0.0000
 40
0.0020
 41
0.0020
  0
VERTEX
  8
0
 10
0.856622
 20
0.070193
 30
0.0000
  0
VERTEX
  8
0
 10
0.917907
 20
-0.029807
 30
0.0000
  0
SEQEND
  0
POLYLINE
  8
0
 66
1
 10
0.0000
 20
0.0000
 30
0.0000
 40
0.0020
 41
0.0020
  0
VERTEX
  8
0
 10
0.917907
 20
-0.029807
 30
0.0000
  0
VERTEX
  8
0
 10
0.917907
 20
0.070193
 30
0.0000
  0
SEQEND
  0
POLYLINE
  8
0
 66
1
 10
0.0000
 20
0.0000
 30
0.0000
 40
0.0020
 41
0.0020
  0
VERTEX
  8
0
 10
0.856622
 20
-0.029807
 30
0.0000
  0
VERTEX
  8
0
 10
0.856622
 20
0.070193
 30
0.0000
  0
SEQEND
  0
POLYLINE
  8
0
 66
1
 10
0.0000
 20
0.0000
 30
0.0000
 40
0.0020
 41
0.0020
  0
VERTEX
  8
0
 10
0.7747131
 20
-0.0083783
 30
0.0000
 42
0.7548959
  0
VERTEX
  8
0
 10
0.831915
 20
-0.0083783
 30
0.0000
 42
0.0000
  0
SEQEND
  0
POLYLINE
  8
0
 66
1
 10
0.0000
 20
0.0000
 30
0.0000
 40
0.0020
 41
0.0020
  0
VERTEX
  8
0
 10
0.831915
 20
0.0487653
 30
0.0000
 42
0.7548959
  0
VERTEX
  8
0
 10
0.7747131
 20
0.0487653
 30
0.0000
 42
0.0000
  0
SEQEND
  0
POLYLINE
  8
0
 66
1
 10
0.0000
 20
0.0000
 30
0.0000
 40
0.0020
 41
0.0020
  0
VERTEX
  8
0
 10
0.8319151
 20
-0.0083784
 30
0.0000
 42
0.1647051
  0
VERTEX
  8
0
 10
0.8319151
 20
0.0487644
 30
0.0000
 42
0.0000
  0
SEQEND
  0
POLYLINE
  8
0
 66
1
 10
0.0000
 20
0.0000
 30
0.0000
 40
0.0020
 41
0.0020
  0
VERTEX
  8
0
 10
0.7747128
 20
0.0487644
 30
0.0000
 42
0.164705
  0
VERTEX
  8
0
 10
0.7747128
 20
-0.0083784
 30
0.0000
 42
0.0000
  0
SEQEND
  0
POLYLINE
  8
0
 66
1
 10
0.0000
 20
0.0000
 30
0.0000
 40
0.0020
 41
0.0020
  0
VERTEX
  8
0
 10
0.750007
 20
0.070193
 30
0.0000
  0
VERTEX
  8
0
 10
0.735722
 20
0.070193
 30
0.0000
  0
SEQEND
  0
POLYLINE
  8
0
 66
1
 10
0.0000
 20
0.0000
 30
0.0000
 40
0.0020
 41
0.0020
  0
VERTEX
  8
0
 10
0.721436
 20
0.070193
 30
0.0000
  0
VERTEX
  8
0
 10
0.735722
 20
0.070193
 30
0.0000
  0
SEQEND
  0
POLYLINE
  8
0
 66
1
 10
0.0000
 20
0.0000
 30
0.0000
 40
0.0020
 41
0.0020
  0
VERTEX
  8
0
 10
0.750007
 20
-0.029807
 30
0.0000
  0
VERTEX
  8
0
 10
0.735722
 20
-0.029807
 30
0.0000
  0
SEQEND
  0
POLYLINE
  8
0
 66
1
 10
0.0000
 20
0.0000
 30
0.0000
 40
0.0020
 41
0.0020
  0
VERTEX
  8
0
 10
0.721436
 20
-0.029807
 30
0.0000
  0
VERTEX
  8
0
 10
0.735722
 20
-0.029807
 30
0.0000
  0
SEQEND
  0
POLYLINE
  8
0
 66
1
 10
0.0000
 20
0.0000
 30
0.0000
 40
0.0020
 41
0.0020
  0
VERTEX
  8
0
 10
0.735722
 20
-0.029807
 30
0.0000
  0
VERTEX
  8
0
 10
0.735722
 20
0.070193
 30
0.0000
  0
SEQEND
  0
POLYLINE
  8
0
 66
1
 10
0.0000
 20
0.0000
 30
0.0000
 40
0.0020
 41
0.0020
  0
VERTEX
  8
0
 10
0.651633
 20
0.028645
 30
0.0000
  0
VERTEX
  8
0
 10
0.690989
 20
0.011742
 30
0.0000
  0
SEQEND
  0
POLYLINE
  8
0
 66
1
 10
0.0000
 20
0.0000
 30
0.0000
 40
0.0020
 41
0.0020
  0
VERTEX
  8
0
 10
0.667796
 20
0.070291
 30
0.0000
  0
VERTEX
  8
0
 10
0.675921
 20
0.070191
 30
0.0000
  0
SEQEND
  0
POLYLINE
  8
0
 66
1
 10
0.0000
 20
0.0000
 30
0.0000
 40
0.0020
 41
0.0020
  0
VERTEX
  8
0
 10
0.7004006
 20
0.0560073
 30
0.0000
 42
0.2622357
  0
VERTEX
  8
0
 10
0.6759209
 20
0.0701918
 30
0.0000
 42
0.0000
  0
SEQEND
  0
POLYLINE
  8
0
 66
1
 10
0.0000
 20
0.0000
 30
0.0000
 40
0.0020
 41
0.0020
  0
VERTEX
  8
0
 10
0.6677952
 20
0.070291
 30
0.0000
 42
0.4042915
  0
VERTEX
  8
0
 10
0.6411851
 20
0.0451934
 30
0.0000
 42
0.0000
  0
SEQEND
  0
POLYLINE
  8
0
 66
1
 10
0.0000
 20
0.0000
 30
0.0000
 40
0.0020
 41
0.0020
  0
VERTEX
  8
0
 10
0.6411858
 20
0.0451936
 30
0.0000
 42
0.2408283
  0
VERTEX
  8
0
 10
0.6516324
 20
0.0286456
 30
0.0000
 42
0.0000
  0
SEQEND
  0
POLYLINE
  8
0
 66
1
 10
0.0000
 20
0.0000
 30
0.0000
 40
0.0020
 41
0.0020
  0
VERTEX
  8
0
 10
0.664701
 20
-0.029805
 30
0.0000
  0
VERTEX
  8
0
 10
0.674892
 20
-0.029905
 30
0.0000
  0
SEQEND
  0
POLYLINE
  8
0
 66
1
 10
0.0000
 20
0.0000
 30
0.0000
 40
0.0020
 41
0.0020
  0
VERTEX
  8
0
 10
0.6401494
 20
-0.0156203
 30
0.0000
 42
0.2629007
  0
VERTEX
  8
0
 10
0.6647008
 20
-0.0298056
 30
0.0000
 42
0.0000
  0
SEQEND
  0
POLYLINE
  8
0
 66
1
 10
0.0000
 20
0.0000
 30
0.0000
 40
0.0020
 41
0.0020
  0
VERTEX
  8
0
 10
0.6748913
 20
-0.0299047
 30
0.0000
 42
0.4035684
  0
VERTEX
  8
0
 10
0.7014359
 20
-0.0048064
 30
0.0000
 42
0.0000
  0
SEQEND
  0
POLYLINE
  8
0
 66
1
 10
0.0000
 20
0.0000
 30
0.0000
 40
0.0020
 41
0.0020
  0
VERTEX
  8
0
 10
0.7014351
 20
-0.0048067
 30
0.0000
 42
0.2408292
  0
VERTEX
  8
0
 10
0.6909887
 20
0.0117414
 30
0.0000
 42
0.0000
  0
SEQEND
  0
POLYLINE
  8
0
 66
1
 10
0.0000
 20
0.0000
 30
0.0000
 40
0.0020
 41
0.0020
  0
VERTEX
  8
0
 10
0.558864
 20
0.070193
 30
0.0000
  0
VERTEX
  8
0
 10
0.62015
 20
-0.029807
 30
0.0000
  0
SEQEND
  0
POLYLINE
  8
0
 66
1
 10
0.0000
 20
0.0000
 30
0.0000
 40
0.0020
 41
0.0020
  0
VERTEX
  8
0
 10
0.62015
 20
-0.029807
 30
0.0000
  0
VERTEX
  8
0
 10
0.62015
 20
0.070193
 30
0.0000
  0
SEQEND
  0
POLYLINE
  8
0
 66
1
 10
0.0000
 20
0.0000
 30
0.0000
 40
0.0020
 41
0.0020
  0
VERTEX
  8
0
 10
0.558864
 20
-0.029807
 30
0.0000
  0
VERTEX
  8
0
 10
0.558864
 20
0.070193
 30
0.0000
  0
SEQEND
  0
POLYLINE
  8
0
 66
1
 10
0.0000
 20
0.0000
 30
0.0000
 40
0.0020
 41
0.0020
  0
VERTEX
  8
0
 10
0.480222
 20
-0.029807
 30
0.0000
  0
VERTEX
  8
0
 10
0.480222
 20
0.020193
 30
0.0000
  0
SEQEND
  0
POLYLINE
  8
0
 66
1
 10
0.0000
 20
0.0000
 30
0.0000
 40
0.0020
 41
0.0020
  0
VERTEX
  8
0
 10
0.480222
 20
0.070193
 30
0.0000
  0
VERTEX
  8
0
 10
0.480222
 20
0.020193
 30
0.0000
  0
SEQEND
  0
POLYLINE
  8
0
 66
1
 10
0.0000
 20
0.0000
 30
0.0000
 40
0.0020
 41
0.0020
  0
VERTEX
  8
0
 10
0.480222
 20
0.070193
 30
0.0000
  0
VERTEX
  8
0
 10
0.538864
 20
0.070193
 30
0.0000
  0
SEQEND
  0
POLYLINE
  8
0
 66
1
 10
0.0000
 20
0.0000
 30
0.0000
 40
0.0020
 41
0.0020
  0
VERTEX
  8
0
 10
0.480222
 20
-0.029807
 30
0.0000
  0
VERTEX
  8
0
 10
0.538864
 20
-0.029807
 30
0.0000
  0
SEQEND
  0
POLYLINE
  8
0
 66
1
 10
0.0000
 20
0.0000
 30
0.0000
 40
0.0020
 41
0.0020
  0
VERTEX
  8
0
 10
0.480222
 20
0.020193
 30
0.0000
  0
VERTEX
  8
0
 10
0.526007
 20
0.020193
 30
0.0000
  0
SEQEND
  0
POLYLINE
  8
0
 66
1
 10
0.0000
 20
0.0000
 30
0.0000
 40
0.0020
 41
0.0020
  0
VERTEX
  8
0
 10
0.418079
 20
-0.000521
 30
0.0000
  0
VERTEX
  8
0
 10
0.460222
 20
0.070193
 30
0.0000
  0
SEQEND
  0
POLYLINE
  8
0
 66
1
 10
0.0000
 20
0.0000
 30
0.0000
 40
0.0020
 41
0.0020
  0
VERTEX
  8
0
 10
0.375936
 20
0.070193
 30
0.0000
  0
VERTEX
  8
0
 10
0.418079
 20
-0.000521
 30
0.0000
  0
SEQEND
  0
POLYLINE
  8
0
 66
1
 10
0.0000
 20
0.0000
 30
0.0000
 40
0.0020
 41
0.0020
  0
VERTEX
  8
0
 10
0.460222
 20
-0.029807
 30
0.0000
  0
VERTEX
  8
0
 10
0.460222
 20
0.070193
 30
0.0000
  0
SEQEND
  0
POLYLINE
  8
0
 66
1
 10
0.0000
 20
0.0000
 30
0.0000
 40
0.0020
 41
0.0020
  0
VERTEX
  8
0
 10
0.375936
 20
-0.029807
 30
0.0000
  0
VERTEX
  8
0
 10
0.375936
 20
0.070193
 30
0.0000
  0
SEQEND
  0
POLYLINE
  8
0
 66
1
 10
0.0000
 20
0.0000
 30
0.0000
 40
0.0020
 41
0.0020
  0
VERTEX
  8
0
 10
0.355936
 20
0.070193
 30
0.0000
  0
VERTEX
  8
0
 10
0.34165
 20
0.070193
 30
0.0000
  0
SEQEND
  0
POLYLINE
  8
0
 66
1
 10
0.0000
 20
0.0000
 30
0.0000
 40
0.0020
 41
0.0020
  0
VERTEX
  8
0
 10
0.327364
 20
0.070193
 30
0.0000
  0
VERTEX
  8
0
 10
0.34165
 20
0.070193
 30
0.0000
  0
SEQEND
  0
POLYLINE
  8
0
 66
1
 10
0.0000
 20
0.0000
 30
0.0000
 40
0.0020
 41
0.0020
  0
VERTEX
  8
0
 10
0.355936
 20
-0.029807
 30
0.0000
  0
VERTEX
  8
0
 10
0.34165
 20
-0.029807
 30
0.0000
  0
SEQEND
  0
POLYLINE
  8
0
 66
1
 10
0.0000
 20
0.0000
 30
0.0000
 40
0.0020
 41
0.0020
  0
VERTEX
  8
0
 10
0.327364
 20
-0.029807
 30
0.0000
  0
VERTEX
  8
0
 10
0.34165
 20
-0.029807
 30
0.0000
  0
SEQEND
  0
POLYLINE
  8
0
 66
1
 10
0.0000
 20
0.0000
 30
0.0000
 40
0.0020
 41
0.0020
  0
VERTEX
  8
0
 10
0.34165
 20
-0.029807
 30
0.0000
  0
VERTEX
  8
0
 10
0.34165
 20
0.070193
 30
0.0000
  0
SEQEND
  0
POLYLINE
  8
0
 66
1
 10
0.0000
 20
0.0000
 30
0.0000
 40
0.0020
 41
0.0020
  0
VERTEX
  8
0
 10
0.3026581
 20
-0.0083784
 30
0.0000
 42
0.1647051
  0
VERTEX
  8
0
 10
0.3026581
 20
0.0487644
 30
0.0000
 42
0.0000
  0
SEQEND
  0
POLYLINE
  8
0
 66
1
 10
0.0000
 20
0.0000
 30
0.0000
 40
0.0020
 41
0.0020
  0
VERTEX
  8
0
 10
0.2726146
 20
-0.0298069
 30
0.0000
 42
0.2690288
  0
VERTEX
  8
0
 10
0.3026589
 20
-0.0083782
 30
0.0000
 42
0.0000
  0
SEQEND
  0
POLYLINE
  8
0
 66
1
 10
0.0000
 20
0.0000
 30
0.0000
 40
0.0020
 41
0.0020
  0
VERTEX
  8
0
 10
0.3026589
 20
0.0487652
 30
0.0000
 42
0.2690282
  0
VERTEX
  8
0
 10
0.2726147
 20
0.0701939
 30
0.0000
 42
0.0000
  0
SEQEND
  0
POLYLINE
  8
0
 66
1
 10
0.0000
 20
0.0000
 30
0.0000
 40
0.0020
 41
0.0020
  0
VERTEX
  8
0
 10
0.244722
 20
0.070193
 30
0.0000
  0
VERTEX
  8
0
 10
0.272614
 20
0.070193
 30
0.0000
  0
SEQEND
  0
POLYLINE
  8
0
 66
1
 10
0.0000
 20
0.0000
 30
0.0000
 40
0.0020
 41
0.0020
  0
VERTEX
  8
0
 10
0.244722
 20
-0.029807
 30
0.0000
  0
VERTEX
  8
0
 10
0.272614
 20
-0.029807
 30
0.0000
  0
SEQEND
  0
POLYLINE
  8
0
 66
1
 10
0.0000
 20
0.0000
 30
0.0000
 40
0.0020
 41
0.0020
  0
VERTEX
  8
0
 10
0.244722
 20
0.070193
 30
0.0000
  0
VERTEX
  8
0
 10
0.244722
 20
-0.029807
 30
0.0000
  0
SEQEND
  0
POLYLINE
  8
0
 66
1
 10
0.0000
 20
0.0000
 30
0.0000
 40
0.0020
 41
0.0020
  0
VERTEX
  8
0
 10
0.088936
 20
-0.029807
 30
0.0000
  0
VERTEX
  8
0
 10
0.147579
 20
-0.029807
 30
0.0000
  0
SEQEND
  0
POLYLINE
  8
0
 66
1
 10
0.0000
 20
0.0000
 30
0.0000
 40
0.0020
 41
0.0020
  0
VERTEX
  8
0
 10
0.088936
 20
0.070193
 30
0.0000
  0
VERTEX
  8
0
 10
0.088936
 20
-0.029807
 30
0.0000
  0
SEQEND
  0
POLYLINE
  8
0
 66
1
 10
0.0000
 20
0.0000
 30
0.0000
 40
0.0020
 41
0.0020
  0
VERTEX
  8
0
 10
0.010293
 20
-0.029807
 30
0.0000
  0
VERTEX
  8
0
 10
0.068936
 20
-0.029807
 30
0.0000
  0
SEQEND
  0
POLYLINE
  8
0
 66
1
 10
0.0000
 20
0.0000
 30
0.0000
 40
0.0020
 41
0.0020
  0
VERTEX
  8
0
 10
0.010293
 20
0.070193
 30
0.0000
  0
VERTEX
  8
0
 10
0.010293
 20
-0.029807
 30
0.0000
  0
SEQEND
  0
POLYLINE
  8
0
 66
1
 10
0.0000
 20
0.0000
 30
0.0000
 40
0.0020
 41
0.0020
  0
VERTEX
  8
0
 10
-0.017743
 20
-0.008378
 30
0.0000
  0
VERTEX
  8
0
 10
-0.009707
 20
-0.029807
 30
0.0000
  0
SEQEND
  0
POLYLINE
  8
0
 66
1
 10
0.0000
 20
0.0000
 30
0.0000
 40
0.0020
 41
0.0020
  0
VERTEX
  8
0
 10
-0.076671
 20
-0.008378
 30
0.0000
  0
VERTEX
  8
0
 10
-0.047207
 20
0.070193
 30
0.0000
  0
SEQEND
  0
POLYLINE
  8
0
 66
1
 10
0.0000
 20
0.0000
 30
0.0000
 40
0.0020
 41
0.0020
  0
VERTEX
  8
0
 10
-0.047207
 20
0.070193
 30
0.0000
  0
VERTEX
  8
0
 10
-0.017743
 20
-0.008378
 30
0.0000
  0
SEQEND
  0
POLYLINE
  8
0
 66
1
 10
0.0000
 20
0.0000
 30
0.0000
 40
0.0020
 41
0.0020
  0
VERTEX
  8
0
 10
-0.084707
 20
-0.029807
 30
0.0000
  0
VERTEX
  8
0
 10
-0.076671
 20
-0.008378
 30
0.0000
  0
SEQEND
  0
POLYLINE
  8
0
 66
1
 10
0.0000
 20
0.0000
 30
0.0000
 40
0.0020
 41
0.0020
  0
VERTEX
  8
0
 10
-0.076671
 20
-0.008378
 30
0.0000
  0
VERTEX
  8
0
 10
-0.017743
 20
-0.008378
 30
0.0000
  0
SEQEND
  0
TEXT
  8
0
 10
3.184936
 20
-4.261906
 30
0.0000
 11
3.184936
 21
-4.261906
 31
0.0000
 40
0.0999999
 41
1.0000
 51
0.0000
 71
0
  1
X 3.805, Y 0.439
 50
0.0000
  7
STYLE_2
 72
1
 73
2
  0
TEXT
  8
0
 10
2.250522
 20
-2.750641
 30
0.0000
 11
2.250522
 21
-2.750641
 31
0.0000
 40
0.0999999
 41
1.0000
 51
0.0000
 71
0
  1
X 2.760, Y 1.950
 50
0.0000
  7
STYLE_2
 72
1
 73
2
  0
TEXT
  8
0
 10
3.17517
 20
-1.238542
 30
0.0000
 11
3.17517
 21
-1.238542
 31
0.0000
 40
0.0999999
 41
1.0000
 51
0.0000
 71
0
  1
X 3.805, Y 3.461
 50
0.0000
  7
STYLE_2
 72
1
 73
2
  0
TEXT
  8
0
 10
-0.037407
 20
-2.003233
 30
0.0000
 11
-0.037407
 21
-2.003233
 31
0.0000
 40
0.0999999
 41
1.0000
 51
0.0000
 71
0
  1
X 2.141, Y 2.700
 50
0.0000
  7
STYLE_2
 72
1
 73
2
  0
TEXT
  8
0
 10
-0.0938
 20
-3.5135
 30
0.0000
 11
-0.0938
 21
-3.5135
 31
0.0000
 40
0.0999999
 41
1.0000
 51
0.0000
 71
0
  1
X 2.141, Y 1.200
 50
0.0000
  7
STYLE_2
 72
1
 73
2
  0
POLYLINE
  8
0
 66
1
 10
0.0000
 20
0.0000
 30
0.0000
 40
0.0020
 41
0.0020
  0
VERTEX
  8
0
 10
-1.43846
 20
-4.950208
 30
0.0000
  0
VERTEX
  8
0
 10
-1.39681
 20
-4.700208
 30
0.0000
  0
SEQEND
  0
POLYLINE
  8
0
 66
1
 10
0.0000
 20
0.0000
 30
0.0000
 40
0.0020
 41
0.0020
  0
VERTEX
  8
0
 10
-1.35516
 20
-4.950208
 30
0.0000
  0
VERTEX
  8
0
 10
-1.39681
 20
-4.700208
 30
0.0000
  0
SEQEND
  0
TEXT
  8
0
 10
-1.3211
 20
-5.0784
 30
0.0000
 11
-1.3211
 21
-5.0784
 31
0.0000
 40
0.0999999
 41
1.0000
 51
0.0000
 71
0
  1
X 0.000, Y 0.000
 50
0.0000
  7
STYLE_2
 72
1
 73
2
  0
POLYLINE
  8
0
 66
1
 10
0.0000
 20
0.0000
 30
0.0000
 40
0.0020
 41
0.0020
  0
VERTEX
  8
0
 10
-1.39681
 20
-4.700208
 30
0.0000
  0
VERTEX
  8
0
 10
-1.39681
 20
-4.914765
 30
0.0000
  0
SEQEND
  0
POLYLINE
  8
0
 66
1
 10
0.0000
 20
0.0000
 30
0.0000
 70
1
 40
0.0020
 41
0.0020
  0
VERTEX
  8
0
 10
2.33019
 20
-4.261208
 30
0.0000
 42
1
  0
VERTEX
  8
0
 10
2.48619
 20
-4.261208
 30
0.0000
 42
1
  0
SEQEND
  0
POLYLINE
  8
0
 66
1
 10
0.0000
 20
0.0000
 30
0.0000
 70
1
 40
0.0020
 41
0.0020
  0
VERTEX
  8
0
 10
4.59419
 20
-2.464208
 30
0.0000
 42
1
  0
VERTEX
  8
0
 10
4.75019
 20
-2.464208
 30
0.0000
 42
1
  0
SEQEND
  0
POLYLINE
  8
0
 66
1
 10
0.0000
 20
0.0000
 30
0.0000
 70
1
 40
0.0020
 41
0.0020
  0
VERTEX
  8
0
 10
2.33019
 20
-1.239208
 30
0.0000
 42
1
  0
VERTEX
  8
0
 10
2.48619
 20
-1.239208
 30
0.0000
 42
1
  0
SEQEND
  0
POLYLINE
  8
0
 66
1
 10
0.0000
 20
0.0000
 30
0.0000
 70
1
 40
0.0020
 41
0.0020
  0
VERTEX
  8
0
 10
1.28519
 20
-2.750209
 30
0.0000
 42
1
  0
VERTEX
  8
0
 10
1.44119
 20
-2.750209
 30
0.0000
 42
1
  0
SEQEND
  0
POLYLINE
  8
0
 66
1
 10
0.0000
 20
0.0000
 30
0.0000
 70
1
 40
0.0020
 41
0.0020
  0
VERTEX
  8
0
 10
0.66619
 20
-3.500208
 30
0.0000
 42
1
  0
VERTEX
  8
0
 10
0.82219
 20
-3.500208
 30
0.0000
 42
1
  0
SEQEND
  0
POLYLINE
  8
0
 66
1
 10
0.0000
 20
0.0000
 30
0.0000
 40
0.0020
 41
0.0020
  0
VERTEX
  8
0
 10
0.96819
 20
-1.696208
 30
0.0000
  0
VERTEX
  8
0
 10
1.13819
 20
-1.696208
 30
0.0000
  0
SEQEND
  0
POLYLINE
  8
0
 66
1
 10
0.0000
 20
0.0000
 30
0.0000
 40
0.0020
 41
0.0020
  0
VERTEX
  8
0
 10
0.96819
 20
-3.857208
 30
0.0000
  0
VERTEX
  8
0
 10
1.13819
 20
-3.857208
 30
0.0000
  0
SEQEND
  0
POLYLINE
  8
0
 66
1
 10
0.0000
 20
0.0000
 30
0.0000
 40
0.0020
 41
0.0020
  0
VERTEX
  8
0
 10
0.96819
 20
-3.804208
 30
0.0000
  0
VERTEX
  8
0
 10
1.13819
 20
-3.804208
 30
0.0000
  0
SEQEND
  0
POLYLINE
  8
0
 66
1
 10
0.0000
 20
0.0000
 30
0.0000
 40
0.0020
 41
0.0020
  0
VERTEX
  8
0
 10
-1.488981
 20
-1.689107
 30
0.0000
  0
VERTEX
  8
0
 10
-1.457017
 20
-1.689107
 30
0.0000
  0
SEQEND
  0
POLYLINE
  8
0
 66
1
 10
0.0000
 20
0.0000
 30
0.0000
 40
0.0020
 41
0.0020
  0
VERTEX
  8
0
 10
-1.488981
 20
-1.789107
 30
0.0000
  0
VERTEX
  8
0
 10
-1.488981
 20
-1.689107
 30
0.0000
  0
SEQEND
  0
POLYLINE
  8
0
 66
1
 10
0.0000
 20
0.0000
 30
0.0000
 40
0.0020
 41
0.0020
  0
VERTEX
  8
0
 10
-1.520945
 20
-1.689107
 30
0.0000
  0
VERTEX
  8
0
 10
-1.488981
 20
-1.689107
 30
0.0000
  0
SEQEND
  0
POLYLINE
  8
0
 66
1
 10
0.0000
 20
0.0000
 30
0.0000
 40
0.0020
 41
0.0020
  0
VERTEX
  8
0
 10
-1.5995159
 20
-1.7605354
 30
0.0000
 42
1.0098035
  0
VERTEX
  8
0
 10
-1.540945
 20
-1.7598212
 30
0.0000
 42
0.0000
  0
SEQEND
  0
POLYLINE
  8
0
 66
1
 10
0.0000
 20
0.0000
 30
0.0000
 40
0.0020
 41
0.0020
  0
VERTEX
  8
0
 10
-1.540945
 20
-1.689107
 30
0.0000
  0
VERTEX
  8
0
 10
-1.540945
 20
-1.759821
 30
0.0000
  0
SEQEND
  0
POLYLINE
  8
0
 66
1
 10
0.0000
 20
0.0000
 30
0.0000
 40
0.0020
 41
0.0020
  0
VERTEX
  8
0
 10
-1.599517
 20
-1.689107
 30
0.0000
  0
VERTEX
  8
0
 10
-1.599517
 20
-1.760535
 30
0.0000
  0
SEQEND
  0
POLYLINE
  8
0
 66
1
 10
0.0000
 20
0.0000
 30
0.0000
 40
0.0020
 41
0.0020
  0
VERTEX
  8
0
 10
-1.6445209
 20
-1.739107
 30
0.0000
 42
1.0000771
  0
VERTEX
  8
0
 10
-1.644517
 20
-1.689107
 30
0.0000
 42
0.0000
  0
SEQEND
  0
POLYLINE
  8
0
 66
1
 10
0.0000
 20
0.0000
 30
0.0000
 40
0.0020
 41
0.0020
  0
VERTEX
  8
0
 10
-1.680802
 20
-1.689107
 30
0.0000
  0
VERTEX
  8
0
 10
-1.680802
 20
-1.739107
 30
0.0000
  0
SEQEND
  0
POLYLINE
  8
0
 66
1
 10
0.0000
 20
0.0000
 30
0.0000
 40
0.0020
 41
0.0020
  0
VERTEX
  8
0
 10
-1.680802
 20
-1.789107
 30
0.0000
  0
VERTEX
  8
0
 10
-1.680802
 20
-1.739107
 30
0.0000
  0
SEQEND
  0
POLYLINE
  8
0
 66
1
 10
0.0000
 20
0.0000
 30
0.0000
 40
0.0020
 41
0.0020
  0
VERTEX
  8
0
 10
-1.680802
 20
-1.689107
 30
0.0000
  0
VERTEX
  8
0
 10
-1.644517
 20
-1.689107
 30
0.0000
  0
SEQEND
  0
POLYLINE
  8
0
 66
1
 10
0.0000
 20
0.0000
 30
0.0000
 40
0.0020
 41
0.0020
  0
VERTEX
  8
0
 10
-1.680802
 20
-1.739107
 30
0.0000
  0
VERTEX
  8
0
 10
-1.64452
 20
-1.739107
 30
0.0000
  0
SEQEND
  0
POLYLINE
  8
0
 66
1
 10
0.0000
 20
0.0000
 30
0.0000
 40
0.0020
 41
0.0020
  0
VERTEX
  8
0
 10
-1.762088
 20
-1.689107
 30
0.0000
  0
VERTEX
  8
0
 10
-1.700802
 20
-1.789107
 30
0.0000
  0
SEQEND
  0
POLYLINE
  8
0
 66
1
 10
0.0000
 20
0.0000
 30
0.0000
 40
0.0020
 41
0.0020
  0
VERTEX
  8
0
 10
-1.700802
 20
-1.789107
 30
0.0000
  0
VERTEX
  8
0
 10
-1.700802
 20
-1.689107
 30
0.0000
  0
SEQEND
  0
POLYLINE
  8
0
 66
1
 10
0.0000
 20
0.0000
 30
0.0000
 40
0.0020
 41
0.0020
  0
VERTEX
  8
0
 10
-1.762088
 20
-1.789107
 30
0.0000
  0
VERTEX
  8
0
 10
-1.762088
 20
-1.689107
 30
0.0000
  0
SEQEND
  0
POLYLINE
  8
0
 66
1
 10
0.0000
 20
0.0000
 30
0.0000
 40
0.0020
 41
0.0020
  0
VERTEX
  8
0
 10
-1.782088
 20
-1.689107
 30
0.0000
  0
VERTEX
  8
0
 10
-1.796374
 20
-1.689107
 30
0.0000
  0
SEQEND
  0
POLYLINE
  8
0
 66
1
 10
0.0000
 20
0.0000
 30
0.0000
 40
0.0020
 41
0.0020
  0
VERTEX
  8
0
 10
-1.810659
 20
-1.689107
 30
0.0000
  0
VERTEX
  8
0
 10
-1.796374
 20
-1.689107
 30
0.0000
  0
SEQEND
  0
POLYLINE
  8
0
 66
1
 10
0.0000
 20
0.0000
 30
0.0000
 40
0.0020
 41
0.0020
  0
VERTEX
  8
0
 10
-1.782088
 20
-1.789107
 30
0.0000
  0
VERTEX
  8
0
 10
-1.796374
 20
-1.789107
 30
0.0000
  0
SEQEND
  0
POLYLINE
  8
0
 66
1
 10
0.0000
 20
0.0000
 30
0.0000
 40
0.0020
 41
0.0020
  0
VERTEX
  8
0
 10
-1.810659
 20
-1.789107
 30
0.0000
  0
VERTEX
  8
0
 10
-1.796374
 20
-1.789107
 30
0.0000
  0
SEQEND
  0
POLYLINE
  8
0
 66
1
 10
0.0000
 20
0.0000
 30
0.0000
 40
0.0020
 41
0.0020
  0
VERTEX
  8
0
 10
-1.796374
 20
-1.789107
 30
0.0000
  0
VERTEX
  8
0
 10
-1.796374
 20
-1.689107
 30
0.0000
  0
SEQEND
  0
POLYLINE
  8
0
 66
1
 10
0.0000
 20
0.0000
 30
0.0000
 40
0.0020
 41
0.0020
  0
VERTEX
  8
0
 10
-1.966445
 20
-1.789107
 30
0.0000
  0
VERTEX
  8
0
 10
-1.966445
 20
-1.739107
 30
0.0000
  0
SEQEND
  0
POLYLINE
  8
0
 66
1
 10
0.0000
 20
0.0000
 30
0.0000
 40
0.0020
 41
0.0020
  0
VERTEX
  8
0
 10
-1.966445
 20
-1.689107
 30
0.0000
  0
VERTEX
  8
0
 10
-1.966445
 20
-1.739107
 30
0.0000
  0
SEQEND
  0
POLYLINE
  8
0
 66
1
 10
0.0000
 20
0.0000
 30
0.0000
 40
0.0020
 41
0.0020
  0
VERTEX
  8
0
 10
-1.966445
 20
-1.689107
 30
0.0000
  0
VERTEX
  8
0
 10
-1.907802
 20
-1.689107
 30
0.0000
  0
SEQEND
  0
POLYLINE
  8
0
 66
1
 10
0.0000
 20
0.0000
 30
0.0000
 40
0.0020
 41
0.0020
  0
VERTEX
  8
0
 10
-1.966445
 20
-1.739107
 30
0.0000
  0
VERTEX
  8
0
 10
-1.920659
 20
-1.739107
 30
0.0000
  0
SEQEND
  0
POLYLINE
  8
0
 66
1
 10
0.0000
 20
0.0000
 30
0.0000
 40
0.0020
 41
0.0020
  0
VERTEX
  8
0
 10
-2.011449
 20
-1.739107
 30
0.0000
  0
VERTEX
  8
0
 10
-1.986445
 20
-1.789107
 30
0.0000
  0
SEQEND
  0
POLYLINE
  8
0
 66
1
 10
0.0000
 20
0.0000
 30
0.0000
 40
0.0020
 41
0.0020
  0
VERTEX
  8
0
 10
-2.0114489
 20
-1.739107
 30
0.0000
 42
1.0000771
  0
VERTEX
  8
0
 10
-2.011445
 20
-1.689107
 30
0.0000
 42
0.0000
  0
SEQEND
  0
POLYLINE
  8
0
 66
1
 10
0.0000
 20
0.0000
 30
0.0000
 40
0.0020
 41
0.0020
  0
VERTEX
  8
0
 10
-2.047731
 20
-1.689107
 30
0.0000
  0
VERTEX
  8
0
 10
-2.047731
 20
-1.739107
 30
0.0000
  0
SEQEND
  0
POLYLINE
  8
0
 66
1
 10
0.0000
 20
0.0000
 30
0.0000
 40
0.0020
 41
0.0020
  0
VERTEX
  8
0
 10
-2.047731
 20
-1.789107
 30
0.0000
  0
VERTEX
  8
0
 10
-2.047731
 20
-1.739107
 30
0.0000
  0
SEQEND
  0
POLYLINE
  8
0
 66
1
 10
0.0000
 20
0.0000
 30
0.0000
 40
0.0020
 41
0.0020
  0
VERTEX
  8
0
 10
-2.047731
 20
-1.689107
 30
0.0000
  0
VERTEX
  8
0
 10
-2.011445
 20
-1.689107
 30
0.0000
  0
SEQEND
  0
POLYLINE
  8
0
 66
1
 10
0.0000
 20
0.0000
 30
0.0000
 40
0.0020
 41
0.0020
  0
VERTEX
  8
0
 10
-2.047731
 20
-1.739107
 30
0.0000
  0
VERTEX
  8
0
 10
-2.011449
 20
-1.739107
 30
0.0000
  0
SEQEND
  0
SOLID
  8
0
 10
-0.93972
 20
-1.050208
 30
0.0000
 11
-0.89807
 21
-0.800208
 31
0.0000
 12
-0.85642
 22
-1.050208
 32
0.0000
 13
-0.89807
 23
-0.800208
 33
0.0000
  0
SOLID
  8
0
 10
-0.89807
 20
-1.738208
 30
0.0000
 11
-0.93972
 21
-1.488208
 31
0.0000
 12
-0.89807
 22
-1.738208
 32
0.0000
 13
-0.85642
 23
-1.488208
 33
0.0000
  0
TEXT
  8
0
 10
-0.89807
 20
-1.269208
 30
0.0000
 11
-0.89807
 21
-1.269208
 31
0.0000
 40
0.2499999
 41
1.0000
 51
0.0000
 71
0
  1
0.938
 50
0.0000
  7
STYLE_1
 72
1
 73
2
  0
POLYLINE
  8
0
 66
1
 10
0.0000
 20
0.0000
 30
0.0000
 40
0.0020
 41
0.0020
  0
VERTEX
  8
0
 10
-0.89807
 20
-0.800208
 30
0.0000
  0
VERTEX
  8
0
 10
-0.89807
 20
-1.008113
 30
0.0000
  0
SEQEND
  0
POLYLINE
  8
0
 66
1
 10
0.0000
 20
0.0000
 30
0.0000
 40
0.0020
 41
0.0020
  0
VERTEX
  8
0
 10
-0.89807
 20
-1.738208
 30
0.0000
  0
VERTEX
  8
0
 10
-0.89807
 20
-1.530303
 30
0.0000
  0
SEQEND
  0
POLYLINE
  8
0
 66
1
 10
0.0000
 20
0.0000
 30
0.0000
 40
0.0020
 41
0.0020
  0
VERTEX
  8
0
 10
-1.14681
 20
-0.800208
 30
0.0000
  0
VERTEX
  8
0
 10
-0.77307
 20
-0.800208
 30
0.0000
  0
SEQEND
  0
POLYLINE
  8
0
 66
1
 10
0.0000
 20
0.0000
 30
0.0000
 40
0.0020
 41
0.0020
  0
VERTEX
  8
0
 10
-0.99481
 20
-1.738208
 30
0.0000
  0
VERTEX
  8
0
 10
-0.77307
 20
-1.738208
 30
0.0000
  0
SEQEND
  0
POLYLINE
  8
0
 66
1
 10
0.0000
 20
0.0000
 30
0.0000
 40
0.0020
 41
0.0020
  0
VERTEX
  8
0
 10
-1.11981
 20
-1.688208
 30
0.0000
  0
VERTEX
  8
0
 10
-1.36981
 20
-1.788208
 30
0.0000
  0
SEQEND
  0
POLYLINE
  8
0
 66
1
 10
0.0000
 20
0.0000
 30
0.0000
 40
0.0020
 41
0.0020
  0
VERTEX
  8
0
 10
-1.36981
 20
-1.688208
 30
0.0000
  0
VERTEX
  8
0
 10
-1.11981
 20
-1.788208
 30
0.0000
  0
SEQEND
  0
POLYLINE
  8
0
 66
1
 10
0.0000
 20
0.0000
 30
0.0000
 70
1
 40
0.0020
 41
0.0020
  0
VERTEX
  8
0
 10
0.66619
 20
-2.000208
 30
0.0000
 42
1
  0
VERTEX
  8
0
 10
0.82219
 20
-2.000208
 30
0.0000
 42
1
  0
SEQEND
  0
POLYLINE
  8
0
 66
1
 10
0.0000
 20
0.0000
 30
0.0000
 40
0.0020
 41
0.0020
  0
VERTEX
  8
0
 10
1.57819
 20
-4.700208
 30
0.0000
  0
VERTEX
  8
0
 10
1.14819
 20
-4.700208
 30
0.0000
  0
SEQEND
  0
POLYLINE
  8
0
 66
1
 10
0.0000
 20
0.0000
 30
0.0000
 40
0.0020
 41
0.0020
  0
VERTEX
  8
0
 10
1.57819
 20
-0.800208
 30
0.0000
  0
VERTEX
  8
0
 10
1.14819
 20
-0.800208
 30
0.0000
  0
SEQEND
  0
POLYLINE
  8
0
 66
1
 10
0.0000
 20
0.0000
 30
0.0000
 40
0.0020
 41
0.0020
  0
VERTEX
  8
0
 10
1.57819
 20
-0.800208
 30
0.0000
  0
VERTEX
  8
0
 10
1.57819
 20
-4.700208
 30
0.0000
  0
SEQEND
  0
POLYLINE
  8
0
 66
1
 10
0.0000
 20
0.0000
 30
0.0000
 40
0.0020
 41
0.0020
  0
VERTEX
  8
0
 10
1.14819
 20
-0.800208
 30
0.0000
  0
VERTEX
  8
0
 10
1.14819
 20
-4.700208
 30
0.0000
  0
SEQEND
  0
SOLID
  8
0
 10
-3.042638
 20
-1.050208
 30
0.0000
 11
-3.000988
 21
-0.800208
 31
0.0000
 12
-2.959338
 22
-1.050208
 32
0.0000
 13
-3.000988
 23
-0.800208
 33
0.0000
  0
SOLID
  8
0
 10
-3.000988
 20
-4.700209
 30
0.0000
 11
-3.042638
 21
-4.450209
 31
0.0000
 12
-3.000988
 22
-4.700209
 32
0.0000
 13
-2.959338
 23
-4.450209
 33
0.0000
  0
TEXT
  8
0
 10
-3.000988
 20
-2.750208
 30
0.0000
 11
-3.000988
 21
-2.750208
 31
0.0000
 40
0.2499999
 41
1.0000
 51
0.0000
 71
0
  1
3.900
 50
0.0000
  7
STYLE_1
 72
1
 73
2
  0
POLYLINE
  8
0
 66
1
 10
0.0000
 20
0.0000
 30
0.0000
 40
0.0020
 41
0.0020
  0
VERTEX
  8
0
 10
-3.000988
 20
-0.800208
 30
0.0000
  0
VERTEX
  8
0
 10
-3.000988
 20
-2.430463
 30
0.0000
  0
SEQEND
  0
POLYLINE
  8
0
 66
1
 10
0.0000
 20
0.0000
 30
0.0000
 40
0.0020
 41
0.0020
  0
VERTEX
  8
0
 10
-3.000988
 20
-4.700209
 30
0.0000
  0
VERTEX
  8
0
 10
-3.000988
 20
-3.069954
 30
0.0000
  0
SEQEND
  0
POLYLINE
  8
0
 66
1
 10
0.0000
 20
0.0000
 30
0.0000
 40
0.0020
 41
0.0020
  0
VERTEX
  8
0
 10
-1.64681
 20
-0.800208
 30
0.0000
  0
VERTEX
  8
0
 10
-3.125988
 20
-0.800208
 30
0.0000
  0
SEQEND
  0
POLYLINE
  8
0
 66
1
 10
0.0000
 20
0.0000
 30
0.0000
 40
0.0020
 41
0.0020
  0
VERTEX
  8
0
 10
-1.64681
 20
-4.700209
 30
0.0000
  0
VERTEX
  8
0
 10
-3.125988
 20
-4.700209
 30
0.0000
  0
SEQEND
  0
SOLID
  8
0
 10
4.55319
 20
0.480843
 30
0.0000
 11
4.55319
 21
0.522493
 31
0.0000
 12
4.55319
 22
0.480843
 32
0.0000
 13
4.80319
 23
0.522493
 33
0.0000
  0
SOLID
  8
0
 10
4.55319
 20
0.522493
 30
0.0000
 11
4.55319
 21
0.564143
 31
0.0000
 12
4.80319
 22
0.522493
 32
0.0000
 13
4.55319
 23
0.564143
 33
0.0000
  0
SOLID
  8
0
 10
-1.14681
 20
0.480843
 30
0.0000
 11
-1.39681
 21
0.522493
 31
0.0000
 12
-1.14681
 22
0.480843
 32
0.0000
 13
-1.14681
 23
0.522493
 33
0.0000
  0
SOLID
  8
0
 10
-1.39681
 20
0.522493
 30
0.0000
 11
-1.14681
 21
0.564143
 31
0.0000
 12
-1.14681
 22
0.522493
 32
0.0000
 13
-1.14681
 23
0.564143
 33
0.0000
  0
TEXT
  8
0
 10
1.70319
 20
0.522493
 30
0.0000
 11
1.70319
 21
0.522493
 31
0.0000
 40
0.2499999
 41
1.0000
 51
0.0000
 71
0
  1
6.200
 50
0.0000
  7
STYLE_1
 72
1
 73
2
  0
POLYLINE
  8
0
 66
1
 10
0.0000
 20
0.0000
 30
0.0000
 40
0.0020
 41
0.0020
  0
VERTEX
  8
0
 10
4.80319
 20
0.522493
 30
0.0000
  0
VERTEX
  8
0
 10
2.240866
 20
0.522493
 30
0.0000
  0
SEQEND
  0
POLYLINE
  8
0
 66
1
 10
0.0000
 20
0.0000
 30
0.0000
 40
0.0020
 41
0.0020
  0
VERTEX
  8
0
 10
-1.39681
 20
0.522493
 30
0.0000
  0
VERTEX
  8
0
 10
1.165514
 20
0.522493
 30
0.0000
  0
SEQEND
  0
POLYLINE
  8
0
 66
1
 10
0.0000
 20
0.0000
 30
0.0000
 40
0.0020
 41
0.0020
  0
VERTEX
  8
0
 10
4.80319
 20
-0.000208
 30
0.0000
  0
VERTEX
  8
0
 10
4.80319
 20
0.647493
 30
0.0000
  0
SEQEND
  0
POLYLINE
  8
0
 66
1
 10
0.0000
 20
0.0000
 30
0.0000
 40
0.0020
 41
0.0020
  0
VERTEX
  8
0
 10
-1.39681
 20
-0.000208
 30
0.0000
  0
VERTEX
  8
0
 10
-1.39681
 20
0.647493
 30
0.0000
  0
SEQEND
  0
POLYLINE
  8
0
 66
1
 10
0.0000
 20
0.0000
 30
0.0000
 40
0.0020
 41
0.0020
  0
VERTEX
  8
0
 10
1.36319
 20
-2.725209
 30
0.0000
  0
VERTEX
  8
0
 10
1.36319
 20
-2.775209
 30
0.0000
  0
SEQEND
  0
POLYLINE
  8
0
 66
1
 10
0.0000
 20
0.0000
 30
0.0000
 40
0.0020
 41
0.0020
  0
VERTEX
  8
0
 10
1.33819
 20
-2.750209
 30
0.0000
  0
VERTEX
  8
0
 10
1.38819
 20
-2.750209
 30
0.0000
  0
SEQEND
  0
TEXT
  8
0
 10
-0.0829
 20
-0.2046
 30
0.0000
 40
0.065625
 41
1.0000
 51
0.0000
 71
0
  1
Mounting holes are designed for #6 hex cap screw or metric equivalent
 50
0.0000
  7
STYLE_0
  0
POLYLINE
  8
10888_DRD
 66
1
 10
0.0000
 20
0.0000
 30
0.0000
 40
0.0020
 41
0.0020
  0
VERTEX
  8
10888_DRD
 10
2.43319
 20
-1.264208
 30
0.0000
  0
VERTEX
  8
10888_DRD
 10
2.38319
 20
-1.214208
 30
0.0000
  0
SEQEND
  0
POLYLINE
  8
10888_DRD
 66
1
 10
0.0000
 20
0.0000
 30
0.0000
 40
0.0020
 41
0.0020
  0
VERTEX
  8
10888_DRD
 10
2.43319
 20
-1.214208
 30
0.0000
  0
VERTEX
  8
10888_DRD
 10
2.38319
 20
-1.264208
 30
0.0000
  0
SEQEND
  0
POLYLINE
  8
10888_DRD
 66
1
 10
0.0000
 20
0.0000
 30
0.0000
 40
0.0020
 41
0.0020
  0
VERTEX
  8
10888_DRD
 10
2.38319
 20
-1.264208
 30
0.0000
  0
VERTEX
  8
10888_DRD
 10
2.43319
 20
-1.264208
 30
0.0000
  0
SEQEND
  0
POLYLINE
  8
10888_DRD
 66
1
 10
0.0000
 20
0.0000
 30
0.0000
 40
0.0020
 41
0.0020
  0
VERTEX
  8
10888_DRD
 10
2.43319
 20
-1.264208
 30
0.0000
  0
VERTEX
  8
10888_DRD
 10
2.43319
 20
-1.214208
 30
0.0000
  0
SEQEND
  0
POLYLINE
  8
10888_DRD
 66
1
 10
0.0000
 20
0.0000
 30
0.0000
 40
0.0020
 41
0.0020
  0
VERTEX
  8
10888_DRD
 10
2.43319
 20
-1.214208
 30
0.0000
  0
VERTEX
  8
10888_DRD
 10
2.38319
 20
-1.214208
 30
0.0000
  0
SEQEND
  0
POLYLINE
  8
10888_DRD
 66
1
 10
0.0000
 20
0.0000
 30
0.0000
 40
0.0020
 41
0.0020
  0
VERTEX
  8
10888_DRD
 10
2.38319
 20
-1.214208
 30
0.0000
  0
VERTEX
  8
10888_DRD
 10
2.38319
 20
-1.264208
 30
0.0000
  0
SEQEND
  0
POLYLINE
  8
10888_DRD
 66
1
 10
0.0000
 20
0.0000
 30
0.0000
 40
0.0020
 41
0.0020
  0
VERTEX
  8
10888_DRD
 10
2.43319
 20
-4.286208
 30
0.0000
  0
VERTEX
  8
10888_DRD
 10
2.38319
 20
-4.236208
 30
0.0000
  0
SEQEND
  0
POLYLINE
  8
10888_DRD
 66
1
 10
0.0000
 20
0.0000
 30
0.0000
 40
0.0020
 41
0.0020
  0
VERTEX
  8
10888_DRD
 10
2.43319
 20
-4.236208
 30
0.0000
  0
VERTEX
  8
10888_DRD
 10
2.38319
 20
-4.286208
 30
0.0000
  0
SEQEND
  0
POLYLINE
  8
10888_DRD
 66
1
 10
0.0000
 20
0.0000
 30
0.0000
 40
0.0020
 41
0.0020
  0
VERTEX
  8
10888_DRD
 10
2.38319
 20
-4.286208
 30
0.0000
  0
VERTEX
  8
10888_DRD
 10
2.43319
 20
-4.286208
 30
0.0000
  0
SEQEND
  0
POLYLINE
  8
10888_DRD
 66
1
 10
0.0000
 20
0.0000
 30
0.0000
 40
0.0020
 41
0.0020
  0
VERTEX
  8
10888_DRD
 10
2.43319
 20
-4.286208
 30
0.0000
  0
VERTEX
  8
10888_DRD
 10
2.43319
 20
-4.236208
 30
0.0000
  0
SEQEND
  0
POLYLINE
  8
10888_DRD
 66
1
 10
0.0000
 20
0.0000
 30
0.0000
 40
0.0020
 41
0.0020
  0
VERTEX
  8
10888_DRD
 10
2.43319
 20
-4.236208
 30
0.0000
  0
VERTEX
  8
10888_DRD
 10
2.38319
 20
-4.236208
 30
0.0000
  0
SEQEND
  0
POLYLINE
  8
10888_DRD
 66
1
 10
0.0000
 20
0.0000
 30
0.0000
 40
0.0020
 41
0.0020
  0
VERTEX
  8
10888_DRD
 10
2.38319
 20
-4.236208
 30
0.0000
  0
VERTEX
  8
10888_DRD
 10
2.38319
 20
-4.286208
 30
0.0000
  0
SEQEND
  0
POLYLINE
  8
10888_DRD
 66
1
 10
0.0000
 20
0.0000
 30
0.0000
 40
0.0020
 41
0.0020
  0
VERTEX
  8
10888_DRD
 10
4.67219
 20
-2.439208
 30
0.0000
  0
VERTEX
  8
10888_DRD
 10
4.67219
 20
-2.489208
 30
0.0000
  0
SEQEND
  0
POLYLINE
  8
10888_DRD
 66
1
 10
0.0000
 20
0.0000
 30
0.0000
 40
0.0020
 41
0.0020
  0
VERTEX
  8
10888_DRD
 10
4.69719
 20
-2.464208
 30
0.0000
  0
VERTEX
  8
10888_DRD
 10
4.64719
 20
-2.464208
 30
0.0000
  0
SEQEND
  0
POLYLINE
  8
10888_DRD
 66
1
 10
0.0000
 20
0.0000
 30
0.0000
 40
0.0020
 41
0.0020
  0
VERTEX
  8
10888_DRD
 10
4.64719
 20
-2.489208
 30
0.0000
  0
VERTEX
  8
10888_DRD
 10
4.69719
 20
-2.489208
 30
0.0000
  0
SEQEND
  0
POLYLINE
  8
10888_DRD
 66
1
 10
0.0000
 20
0.0000
 30
0.0000
 40
0.0020
 41
0.0020
  0
VERTEX
  8
10888_DRD
 10
4.69719
 20
-2.489208
 30
0.0000
  0
VERTEX
  8
10888_DRD
 10
4.69719
 20
-2.439208
 30
0.0000
  0
SEQEND
  0
POLYLINE
  8
10888_DRD
 66
1
 10
0.0000
 20
0.0000
 30
0.0000
 40
0.0020
 41
0.0020
  0
VERTEX
  8
10888_DRD
 10
4.69719
 20
-2.439208
 30
0.0000
  0
VERTEX
  8
10888_DRD
 10
4.64719
 20
-2.439208
 30
0.0000
  0
SEQEND
  0
POLYLINE
  8
10888_DRD
 66
1
 10
0.0000
 20
0.0000
 30
0.0000
 40
0.0020
 41
0.0020
  0
VERTEX
  8
10888_DRD
 10
4.64719
 20
-2.439208
 30
0.0000
  0
VERTEX
  8
10888_DRD
 10
4.64719
 20
-2.489208
 30
0.0000
  0
SEQEND
  0
POLYLINE
  8
10888_DRD
 66
1
 10
0.0000
 20
0.0000
 30
0.0000
 40
0.0020
 41
0.0020
  0
VERTEX
  8
10888_DRD
 10
4.80319
 20
-4.700208
 30
0.0000
  0
VERTEX
  8
10888_DRD
 10
1.57819
 20
-4.700208
 30
0.0000
  0
SEQEND
  0
POLYLINE
  8
10888_DRD
 66
1
 10
0.0000
 20
0.0000
 30
0.0000
 40
0.0020
 41
0.0020
  0
VERTEX
  8
10888_DRD
 10
4.80319
 20
-0.800208
 30
0.0000
  0
VERTEX
  8
10888_DRD
 10
4.80319
 20
-4.700208
 30
0.0000
  0
SEQEND
  0
POLYLINE
  8
10888_DRD
 66
1
 10
0.0000
 20
0.0000
 30
0.0000
 40
0.0020
 41
0.0020
  0
VERTEX
  8
10888_DRD
 10
1.57819
 20
-0.800208
 30
0.0000
  0
VERTEX
  8
10888_DRD
 10
4.80319
 20
-0.800208
 30
0.0000
  0
SEQEND
  0
POLYLINE
  8
10888_DRD
 66
1
 10
0.0000
 20
0.0000
 30
0.0000
 40
0.0020
 41
0.0020
  0
VERTEX
  8
10888_DRD
 10
0.76919
 20
-3.525208
 30
0.0000
  0
VERTEX
  8
10888_DRD
 10
0.71919
 20
-3.475208
 30
0.0000
  0
SEQEND
  0
POLYLINE
  8
10888_DRD
 66
1
 10
0.0000
 20
0.0000
 30
0.0000
 40
0.0020
 41
0.0020
  0
VERTEX
  8
10888_DRD
 10
0.76919
 20
-3.475208
 30
0.0000
  0
VERTEX
  8
10888_DRD
 10
0.71919
 20
-3.525208
 30
0.0000
  0
SEQEND
  0
POLYLINE
  8
10888_DRD
 66
1
 10
0.0000
 20
0.0000
 30
0.0000
 40
0.0020
 41
0.0020
  0
VERTEX
  8
10888_DRD
 10
0.71919
 20
-3.525208
 30
0.0000
  0
VERTEX
  8
10888_DRD
 10
0.76919
 20
-3.525208
 30
0.0000
  0
SEQEND
  0
POLYLINE
  8
10888_DRD
 66
1
 10
0.0000
 20
0.0000
 30
0.0000
 40
0.0020
 41
0.0020
  0
VERTEX
  8
10888_DRD
 10
0.76919
 20
-3.525208
 30
0.0000
  0
VERTEX
  8
10888_DRD
 10
0.76919
 20
-3.475208
 30
0.0000
  0
SEQEND
  0
POLYLINE
  8
10888_DRD
 66
1
 10
0.0000
 20
0.0000
 30
0.0000
 40
0.0020
 41
0.0020
  0
VERTEX
  8
10888_DRD
 10
0.76919
 20
-3.475208
 30
0.0000
  0
VERTEX
  8
10888_DRD
 10
0.71919
 20
-3.475208
 30
0.0000
  0
SEQEND
  0
POLYLINE
  8
10888_DRD
 66
1
 10
0.0000
 20
0.0000
 30
0.0000
 40
0.0020
 41
0.0020
  0
VERTEX
  8
10888_DRD
 10
0.71919
 20
-3.475208
 30
0.0000
  0
VERTEX
  8
10888_DRD
 10
0.71919
 20
-3.525208
 30
0.0000
  0
SEQEND
  0
POLYLINE
  8
10888_DRD
 66
1
 10
0.0000
 20
0.0000
 30
0.0000
 40
0.0020
 41
0.0020
  0
VERTEX
  8
10888_DRD
 10
0.76919
 20
-2.025208
 30
0.0000
  0
VERTEX
  8
10888_DRD
 10
0.71919
 20
-1.975208
 30
0.0000
  0
SEQEND
  0
POLYLINE
  8
10888_DRD
 66
1
 10
0.0000
 20
0.0000
 30
0.0000
 40
0.0020
 41
0.0020
  0
VERTEX
  8
10888_DRD
 10
0.76919
 20
-1.975208
 30
0.0000
  0
VERTEX
  8
10888_DRD
 10
0.71919
 20
-2.025208
 30
0.0000
  0
SEQEND
  0
POLYLINE
  8
10888_DRD
 66
1
 10
0.0000
 20
0.0000
 30
0.0000
 40
0.0020
 41
0.0020
  0
VERTEX
  8
10888_DRD
 10
0.71919
 20
-2.025208
 30
0.0000
  0
VERTEX
  8
10888_DRD
 10
0.76919
 20
-2.025208
 30
0.0000
  0
SEQEND
  0
POLYLINE
  8
10888_DRD
 66
1
 10
0.0000
 20
0.0000
 30
0.0000
 40
0.0020
 41
0.0020
  0
VERTEX
  8
10888_DRD
 10
0.76919
 20
-2.025208
 30
0.0000
  0
VERTEX
  8
10888_DRD
 10
0.76919
 20
-1.975208
 30
0.0000
  0
SEQEND
  0
POLYLINE
  8
10888_DRD
 66
1
 10
0.0000
 20
0.0000
 30
0.0000
 40
0.0020
 41
0.0020
  0
VERTEX
  8
10888_DRD
 10
0.76919
 20
-1.975208
 30
0.0000
  0
VERTEX
  8
10888_DRD
 10
0.71919
 20
-1.975208
 30
0.0000
  0
SEQEND
  0
POLYLINE
  8
10888_DRD
 66
1
 10
0.0000
 20
0.0000
 30
0.0000
 40
0.0020
 41
0.0020
  0
VERTEX
  8
10888_DRD
 10
0.71919
 20
-1.975208
 30
0.0000
  0
VERTEX
  8
10888_DRD
 10
0.71919
 20
-2.025208
 30
0.0000
  0
SEQEND
  0
POLYLINE
  8
10888_DRD
 66
1
 10
0.0000
 20
0.0000
 30
0.0000
 40
0.0020
 41
0.0020
  0
VERTEX
  8
10888_DRD
 10
-1.39681
 20
-0.800208
 30
0.0000
  0
VERTEX
  8
10888_DRD
 10
-1.39681
 20
-4.700208
 30
0.0000
  0
SEQEND
  0
POLYLINE
  8
10888_DRD
 66
1
 10
0.0000
 20
0.0000
 30
0.0000
 40
0.0020
 41
0.0020
  0
VERTEX
  8
10888_DRD
 10
1.14819
 20
-0.800208
 30
0.0000
  0
VERTEX
  8
10888_DRD
 10
-1.39681
 20
-0.800208
 30
0.0000
  0
SEQEND
  0
POLYLINE
  8
10888_DRD
 66
1
 10
0.0000
 20
0.0000
 30
0.0000
 40
0.0020
 41
0.0020
  0
VERTEX
  8
10888_DRD
 10
-1.39681
 20
-4.700208
 30
0.0000
  0
VERTEX
  8
10888_DRD
 10
1.14819
 20
-4.700208
 30
0.0000
  0
SEQEND
  0
POLYLINE
  8
SCOTTY_AST
 66
1
 10
0.0000
 20
0.0000
 30
0.0000
 40
0.0020
 41
0.0020
  0
VERTEX
  8
SCOTTY_AST
 10
4.77619
 20
-3.401208
 30
0.0000
  0
VERTEX
  8
SCOTTY_AST
 10
4.52619
 20
-3.401208
 30
0.0000
  0
SEQEND
  0
POLYLINE
  8
SCOTTY_AST
 66
1
 10
0.0000
 20
0.0000
 30
0.0000
 40
0.0020
 41
0.0020
  0
VERTEX
  8
SCOTTY_AST
 10
4.77619
 20
-3.301208
 30
0.0000
  0
VERTEX
  8
SCOTTY_AST
 10
4.52619
 20
-3.301208
 30
0.0000
  0
SEQEND
  0
POLYLINE
  8
SCOTTY_AST
 66
1
 10
0.0000
 20
0.0000
 30
0.0000
 40
0.0020
 41
0.0020
  0
VERTEX
  8
SCOTTY_AST
 10
4.52619
 20
-3.301208
 30
0.0000
  0
VERTEX
  8
SCOTTY_AST
 10
4.52619
 20
-3.401208
 30
0.0000
  0
SEQEND
  0
POLYLINE
  8
SCOTTY_AST
 66
1
 10
0.0000
 20
0.0000
 30
0.0000
 40
0.0020
 41
0.0020
  0
VERTEX
  8
SCOTTY_AST
 10
4.77619
 20
-3.301208
 30
0.0000
  0
VERTEX
  8
SCOTTY_AST
 10
4.77619
 20
-3.401208
 30
0.0000
  0
SEQEND
  0
POLYLINE
  8
SCOTTY_AST
 66
1
 10
0.0000
 20
0.0000
 30
0.0000
 40
0.0020
 41
0.0020
  0
VERTEX
  8
SCOTTY_AST
 10
1.75819
 20
-3.804208
 30
0.0000
  0
VERTEX
  8
SCOTTY_AST
 10
1.58819
 20
-3.804208
 30
0.0000
  0
SEQEND
  0
POLYLINE
  8
SCOTTY_AST
 66
1
 10
0.0000
 20
0.0000
 30
0.0000
 40
0.0020
 41
0.0020
  0
VERTEX
  8
SCOTTY_AST
 10
1.75819
 20
-3.304208
 30
0.0000
  0
VERTEX
  8
SCOTTY_AST
 10
1.58819
 20
-3.304208
 30
0.0000
  0
SEQEND
  0
POLYLINE
  8
SCOTTY_AST
 66
1
 10
0.0000
 20
0.0000
 30
0.0000
 40
0.0020
 41
0.0020
  0
VERTEX
  8
SCOTTY_AST
 10
1.58819
 20
-3.304208
 30
0.0000
  0
VERTEX
  8
SCOTTY_AST
 10
1.58819
 20
-3.804208
 30
0.0000
  0
SEQEND
  0
POLYLINE
  8
SCOTTY_AST
 66
1
 10
0.0000
 20
0.0000
 30
0.0000
 40
0.0020
 41
0.0020
  0
VERTEX
  8
SCOTTY_AST
 10
1.75819
 20
-3.304208
 30
0.0000
  0
VERTEX
  8
SCOTTY_AST
 10
1.75819
 20
-3.804208
 30
0.0000
  0
SEQEND
  0
POLYLINE
  8
SCOTTY_AST
 66
1
 10
0.0000
 20
0.0000
 30
0.0000
 40
0.0020
 41
0.0020
  0
VERTEX
  8
SCOTTY_AST
 10
1.75819
 20
-4.357208
 30
0.0000
  0
VERTEX
  8
SCOTTY_AST
 10
1.58819
 20
-4.357208
 30
0.0000
  0
SEQEND
  0
POLYLINE
  8
SCOTTY_AST
 66
1
 10
0.0000
 20
0.0000
 30
0.0000
 40
0.0020
 41
0.0020
  0
VERTEX
  8
SCOTTY_AST
 10
1.75819
 20
-3.857208
 30
0.0000
  0
VERTEX
  8
SCOTTY_AST
 10
1.58819
 20
-3.857208
 30
0.0000
  0
SEQEND
  0
POLYLINE
  8
SCOTTY_AST
 66
1
 10
0.0000
 20
0.0000
 30
0.0000
 40
0.0020
 41
0.0020
  0
VERTEX
  8
SCOTTY_AST
 10
1.58819
 20
-3.857208
 30
0.0000
  0
VERTEX
  8
SCOTTY_AST
 10
1.58819
 20
-4.357208
 30
0.0000
  0
SEQEND
  0
POLYLINE
  8
SCOTTY_AST
 66
1
 10
0.0000
 20
0.0000
 30
0.0000
 40
0.0020
 41
0.0020
  0
VERTEX
  8
SCOTTY_AST
 10
1.75819
 20
-3.857208
 30
0.0000
  0
VERTEX
  8
SCOTTY_AST
 10
1.75819
 20
-4.357208
 30
0.0000
  0
SEQEND
  0
POLYLINE
  8
SCOTTY_AST
 66
1
 10
0.0000
 20
0.0000
 30
0.0000
 40
0.0020
 41
0.0020
  0
VERTEX
  8
SCOTTY_AST
 10
1.75819
 20
-1.643208
 30
0.0000
  0
VERTEX
  8
SCOTTY_AST
 10
1.58819
 20
-1.643208
 30
0.0000
  0
SEQEND
  0
POLYLINE
  8
SCOTTY_AST
 66
1
 10
0.0000
 20
0.0000
 30
0.0000
 40
0.0020
 41
0.0020
  0
VERTEX
  8
SCOTTY_AST
 10
1.75819
 20
-1.143208
 30
0.0000
  0
VERTEX
  8
SCOTTY_AST
 10
1.58819
 20
-1.143208
 30
0.0000
  0
SEQEND
  0
POLYLINE
  8
SCOTTY_AST
 66
1
 10
0.0000
 20
0.0000
 30
0.0000
 40
0.0020
 41
0.0020
  0
VERTEX
  8
SCOTTY_AST
 10
1.58819
 20
-1.143208
 30
0.0000
  0
VERTEX
  8
SCOTTY_AST
 10
1.58819
 20
-1.643208
 30
0.0000
  0
SEQEND
  0
POLYLINE
  8
SCOTTY_AST
 66
1
 10
0.0000
 20
0.0000
 30
0.0000
 40
0.0020
 41
0.0020
  0
VERTEX
  8
SCOTTY_AST
 10
1.75819
 20
-1.143208
 30
0.0000
  0
VERTEX
  8
SCOTTY_AST
 10
1.75819
 20
-1.643208
 30
0.0000
  0
SEQEND
  0
POLYLINE
  8
SCOTTY_AST
 66
1
 10
0.0000
 20
0.0000
 30
0.0000
 40
0.0020
 41
0.0020
  0
VERTEX
  8
SCOTTY_AST
 10
1.75819
 20
-2.196208
 30
0.0000
  0
VERTEX
  8
SCOTTY_AST
 10
1.58819
 20
-2.196208
 30
0.0000
  0
SEQEND
  0
POLYLINE
  8
SCOTTY_AST
 66
1
 10
0.0000
 20
0.0000
 30
0.0000
 40
0.0020
 41
0.0020
  0
VERTEX
  8
SCOTTY_AST
 10
1.75819
 20
-1.696208
 30
0.0000
  0
VERTEX
  8
SCOTTY_AST
 10
1.58819
 20
-1.696208
 30
0.0000
  0
SEQEND
  0
POLYLINE
  8
SCOTTY_AST
 66
1
 10
0.0000
 20
0.0000
 30
0.0000
 40
0.0020
 41
0.0020
  0
VERTEX
  8
SCOTTY_AST
 10
1.58819
 20
-1.696208
 30
0.0000
  0
VERTEX
  8
SCOTTY_AST
 10
1.58819
 20
-2.196208
 30
0.0000
  0
SEQEND
  0
POLYLINE
  8
SCOTTY_AST
 66
1
 10
0.0000
 20
0.0000
 30
0.0000
 40
0.0020
 41
0.0020
  0
VERTEX
  8
SCOTTY_AST
 10
1.75819
 20
-1.696208
 30
0.0000
  0
VERTEX
  8
SCOTTY_AST
 10
1.75819
 20
-2.196208
 30
0.0000
  0
SEQEND
  0
POLYLINE
  8
SCOTTY_AST
 66
1
 10
0.0000
 20
0.0000
 30
0.0000
 40
0.0020
 41
0.0020
  0
VERTEX
  8
SCOTTY_AST
 10
-1.11981
 20
-1.788208
 30
0.0000
  0
VERTEX
  8
SCOTTY_AST
 10
-1.36981
 20
-1.788208
 30
0.0000
  0
SEQEND
  0
POLYLINE
  8
SCOTTY_AST
 66
1
 10
0.0000
 20
0.0000
 30
0.0000
 40
0.0020
 41
0.0020
  0
VERTEX
  8
SCOTTY_AST
 10
-1.11981
 20
-1.688208
 30
0.0000
  0
VERTEX
  8
SCOTTY_AST
 10
-1.36981
 20
-1.688208
 30
0.0000
  0
SEQEND
  0
POLYLINE
  8
SCOTTY_AST
 66
1
 10
0.0000
 20
0.0000
 30
0.0000
 40
0.0020
 41
0.0020
  0
VERTEX
  8
SCOTTY_AST
 10
-1.36981
 20
-1.688208
 30
0.0000
  0
VERTEX
  8
SCOTTY_AST
 10
-1.36981
 20
-1.788208
 30
0.0000
  0
SEQEND
  0
POLYLINE
  8
SCOTTY_AST
 66
1
 10
0.0000
 20
0.0000
 30
0.0000
 40
0.0020
 41
0.0020
  0
VERTEX
  8
SCOTTY_AST
 10
-1.11981
 20
-1.688208
 30
0.0000
  0
VERTEX
  8
SCOTTY_AST
 10
-1.11981
 20
-1.788208
 30
0.0000
  0
SEQEND
  0
POLYLINE
  8
SCOTTY_AST
 66
1
 10
0.0000
 20
0.0000
 30
0.0000
 40
0.0020
 41
0.0020
  0
VERTEX
  8
SCOTTY_AST
 10
1.13819
 20
-3.304208
 30
0.0000
  0
VERTEX
  8
SCOTTY_AST
 10
0.96819
 20
-3.304208
 30
0.0000
  0
SEQEND
  0
POLYLINE
  8
SCOTTY_AST
 66
1
 10
0.0000
 20
0.0000
 30
0.0000
 40
0.0020
 41
0.0020
  0
VERTEX
  8
SCOTTY_AST
 10
0.96819
 20
-3.304208
 30
0.0000
  0
VERTEX
  8
SCOTTY_AST
 10
0.96819
 20
-3.804208
 30
0.0000
  0
SEQEND
  0
POLYLINE
  8
SCOTTY_AST
 66
1
 10
0.0000
 20
0.0000
 30
0.0000
 40
0.0020
 41
0.0020
  0
VERTEX
  8
SCOTTY_AST
 10
1.13819
 20
-3.304208
 30
0.0000
  0
VERTEX
  8
SCOTTY_AST
 10
1.13819
 20
-3.804208
 30
0.0000
  0
SEQEND
  0
POLYLINE
  8
SCOTTY_AST
 66
1
 10
0.0000
 20
0.0000
 30
0.0000
 40
0.0020
 41
0.0020
  0
VERTEX
  8
SCOTTY_AST
 10
1.13819
 20
-4.357208
 30
0.0000
  0
VERTEX
  8
SCOTTY_AST
 10
0.96819
 20
-4.357208
 30
0.0000
  0
SEQEND
  0
POLYLINE
  8
SCOTTY_AST
 66
1
 10
0.0000
 20
0.0000
 30
0.0000
 40
0.0020
 41
0.0020
  0
VERTEX
  8
SCOTTY_AST
 10
0.96819
 20
-3.857208
 30
0.0000
  0
VERTEX
  8
SCOTTY_AST
 10
0.96819
 20
-4.357208
 30
0.0000
  0
SEQEND
  0
POLYLINE
  8
SCOTTY_AST
 66
1
 10
0.0000
 20
0.0000
 30
0.0000
 40
0.0020
 41
0.0020
  0
VERTEX
  8
SCOTTY_AST
 10
1.13819
 20
-3.857208
 30
0.0000
  0
VERTEX
  8
SCOTTY_AST
 10
1.13819
 20
-4.357208
 30
0.0000
  0
SEQEND
  0
POLYLINE
  8
SCOTTY_AST
 66
1
 10
0.0000
 20
0.0000
 30
0.0000
 40
0.0020
 41
0.0020
  0
VERTEX
  8
SCOTTY_AST
 10
1.13819
 20
-1.643208
 30
0.0000
  0
VERTEX
  8
SCOTTY_AST
 10
0.96819
 20
-1.643208
 30
0.0000
  0
SEQEND
  0
POLYLINE
  8
SCOTTY_AST
 66
1
 10
0.0000
 20
0.0000
 30
0.0000
 40
0.0020
 41
0.0020
  0
VERTEX
  8
SCOTTY_AST
 10
1.13819
 20
-1.143208
 30
0.0000
  0
VERTEX
  8
SCOTTY_AST
 10
0.96819
 20
-1.143208
 30
0.0000
  0
SEQEND
  0
POLYLINE
  8
SCOTTY_AST
 66
1
 10
0.0000
 20
0.0000
 30
0.0000
 40
0.0020
 41
0.0020
  0
VERTEX
  8
SCOTTY_AST
 10
0.96819
 20
-1.143208
 30
0.0000
  0
VERTEX
  8
SCOTTY_AST
 10
0.96819
 20
-1.643208
 30
0.0000
  0
SEQEND
  0
POLYLINE
  8
SCOTTY_AST
 66
1
 10
0.0000
 20
0.0000
 30
0.0000
 40
0.0020
 41
0.0020
  0
VERTEX
  8
SCOTTY_AST
 10
1.13819
 20
-1.143208
 30
0.0000
  0
VERTEX
  8
SCOTTY_AST
 10
1.13819
 20
-1.643208
 30
0.0000
  0
SEQEND
  0
POLYLINE
  8
SCOTTY_AST
 66
1
 10
0.0000
 20
0.0000
 30
0.0000
 40
0.0020
 41
0.0020
  0
VERTEX
  8
SCOTTY_AST
 10
1.13819
 20
-2.196208
 30
0.0000
  0
VERTEX
  8
SCOTTY_AST
 10
0.96819
 20
-2.196208
 30
0.0000
  0
SEQEND
  0
POLYLINE
  8
SCOTTY_AST
 66
1
 10
0.0000
 20
0.0000
 30
0.0000
 40
0.0020
 41
0.0020
  0
VERTEX
  8
SCOTTY_AST
 10
0.96819
 20
-1.696208
 30
0.0000
  0
VERTEX
  8
SCOTTY_AST
 10
0.96819
 20
-2.196208
 30
0.0000
  0
SEQEND
  0
POLYLINE
  8
SCOTTY_AST
 66
1
 10
0.0000
 20
0.0000
 30
0.0000
 40
0.0020
 41
0.0020
  0
VERTEX
  8
SCOTTY_AST
 10
1.13819
 20
-1.696208
 30
0.0000
  0
VERTEX
  8
SCOTTY_AST
 10
1.13819
 20
-2.196208
 30
0.0000
  0
SEQEND
  0
POLYLINE
  8
SCOTTY_DRD
 66
1
 10
0.0000
 20
0.0000
 30
0.0000
 40
0.0020
 41
0.0020
  0
VERTEX
  8
SCOTTY_DRD
 10
1.33819
 20
-2.750209
 30
0.0000
  0
VERTEX
  8
SCOTTY_DRD
 10
1.36319
 20
-2.775209
 30
0.0000
  0
SEQEND
  0
POLYLINE
  8
SCOTTY_DRD
 66
1
 10
0.0000
 20
0.0000
 30
0.0000
 40
0.0020
 41
0.0020
  0
VERTEX
  8
SCOTTY_DRD
 10
1.36319
 20
-2.775209
 30
0.0000
  0
VERTEX
  8
SCOTTY_DRD
 10
1.38819
 20
-2.750209
 30
0.0000
  0
SEQEND
  0
POLYLINE
  8
SCOTTY_DRD
 66
1
 10
0.0000
 20
0.0000
 30
0.0000
 40
0.0020
 41
0.0020
  0
VERTEX
  8
SCOTTY_DRD
 10
1.38819
 20
-2.750209
 30
0.0000
  0
VERTEX
  8
SCOTTY_DRD
 10
1.36319
 20
-2.725209
 30
0.0000
  0
SEQEND
  0
POLYLINE
  8
SCOTTY_DRD
 66
1
 10
0.0000
 20
0.0000
 30
0.0000
 40
0.0020
 41
0.0020
  0
VERTEX
  8
SCOTTY_DRD
 10
1.36319
 20
-2.725209
 30
0.0000
  0
VERTEX
  8
SCOTTY_DRD
 10
1.33819
 20
-2.750209
 30
0.0000
  0
SEQEND
  0
ENDSEC
  0
EOF
