  0
SECTION
  2
HEADER
  9
$EXTMIN
 10
-0.0050
 20
-0.0050
 30
0.0000
  9
$EXTMAX
 10
6.2080
 20
3.8050
 30
0.0000
  0
ENDSEC
  0
SECTION
  2
TABLES
  0
TABLE
  2
LTYPE
 70
3
  0
LTYPE
  2
BYBLOCK
 70
0
  3

 72
65
 73
0
 40
0.0000
  0
LTYPE
  2
BYLAYER
 70
0
  3

 72
65
 73
0
 40
0.0000
  0
LTYPE
  2
CONTINUOUS
 70
0
  3
Solid line
 72
65
 73
0
 40
0.0000
  0
ENDTAB
  0
TABLE
  2
LAYER
 70
4
  0
LAYER
  2
0
 70
0
 62
7
  6
CONTINUOUS
  0
LAYER
  2
SCOTTY_ASB
 70
0
 62
7
  6
CONTINUOUS
  0
LAYER
  2
SCOTTY_AST
 70
0
 62
6
  6
CONTINUOUS
  0
LAYER
  2
SCOTTY_DRD
 70
0
 62
1
  6
CONTINUOUS
  0
LAYER
  2
SCOTTY_GND
 70
0
 62
4
  6
CONTINUOUS
  0
ENDTAB
  0
TABLE
  2
STYLE
 70
0
  0
ENDTAB
  0
ENDSEC
  0
SECTION
  2
BLOCKS
  0
BLOCK
  2
ROUND_1
  3
ROUND_1
 70
64
 10
0.0000
 20
0.0000
 30
0.0000
  0
CIRCLE
  8
0
 10
0.0000
 20
0.0000
 30
0.0000
 40
0.0200
  0
ENDBLK
  0
BLOCK
  2
ROUND_35
  3
ROUND_35
 70
64
 10
0.0000
 20
0.0000
 30
0.0000
  0
CIRCLE
  8
0
 10
0.0000
 20
0.0000
 30
0.0000
 40
0.0050
  0
ENDBLK
  0
BLOCK
  2
ROUND_40
  3
ROUND_40
 70
64
 10
0.0000
 20
0.0000
 30
0.0000
  0
CIRCLE
  8
0
 10
0.0000
 20
0.0000
 30
0.0000
 40
0.0005
  0
ENDBLK
  0
BLOCK
  2
ROUND_41
  3
ROUND_41
 70
64
 10
0.0000
 20
0.0000
 30
0.0000
  0
CIRCLE
  8
0
 10
0.0000
 20
0.0000
 30
0.0000
 40
0.0020
  0
ENDBLK
  0
ENDSEC
  0
SECTION
  2
ENTITIES
  0
POLYLINE
  8
SCOTTY_ASB
 66
1
 10
0.0000
 20
0.0000
 30
0.0000
 40
0.0100
 41
0.0100
  0
VERTEX
  8
SCOTTY_ASB
 10
3.1950
 20
0.0000
 30
0.0000
  0
VERTEX
  8
SCOTTY_ASB
 10
3.1950
 20
3.8000
 30
0.0000
  0
VERTEX
  8
SCOTTY_ASB
 10
2.7650
 20
3.8000
 30
0.0000
  0
VERTEX
  8
SCOTTY_ASB
 10
2.7650
 20
0.0000
 30
0.0000
  0
VERTEX
  8
SCOTTY_ASB
 10
3.1950
 20
0.0000
 30
0.0000
  0
SEQEND
  0
POLYLINE
  8
SCOTTY_ASB
 66
1
 10
0.0000
 20
0.0000
 30
0.0000
 40
0.0100
 41
0.0100
  0
VERTEX
  8
SCOTTY_ASB
 10
0.8150
 20
0.0000
 30
0.0000
  0
VERTEX
  8
SCOTTY_ASB
 10
2.7650
 20
0.0000
 30
0.0000
  0
VERTEX
  8
SCOTTY_ASB
 10
2.7650
 20
3.8000
 30
0.0000
  0
VERTEX
  8
SCOTTY_ASB
 10
0.8150
 20
3.8000
 30
0.0000
  0
VERTEX
  8
SCOTTY_ASB
 10
0.8150
 20
0.0000
 30
0.0000
  0
SEQEND
  0
POLYLINE
  8
SCOTTY_AST
 66
1
 10
0.0000
 20
0.0000
 30
0.0000
 40
0.0100
 41
0.0100
  0
VERTEX
  8
SCOTTY_AST
 10
0.3350
 20
1.1290
 30
0.0000
  0
VERTEX
  8
SCOTTY_AST
 10
0.0000
 20
1.1290
 30
0.0000
  0
VERTEX
  8
SCOTTY_AST
 10
0.0000
 20
3.8000
 30
0.0000
  0
VERTEX
  8
SCOTTY_AST
 10
0.3350
 20
3.8000
 30
0.0000
  0
VERTEX
  8
SCOTTY_AST
 10
0.3350
 20
1.1290
 30
0.0000
  0
SEQEND
  0
POLYLINE
  8
SCOTTY_AST
 66
1
 10
0.0000
 20
0.0000
 30
0.0000
 40
0.0100
 41
0.0100
  0
VERTEX
  8
SCOTTY_AST
 10
0.3340
 20
0.5820
 30
0.0000
  0
VERTEX
  8
SCOTTY_AST
 10
0.0000
 20
0.5820
 30
0.0000
  0
VERTEX
  8
SCOTTY_AST
 10
0.0000
 20
0.0000
 30
0.0000
  0
VERTEX
  8
SCOTTY_AST
 10
0.3350
 20
0.0000
 30
0.0000
  0
VERTEX
  8
SCOTTY_AST
 10
0.3350
 20
0.5820
 30
0.0000
  0
VERTEX
  8
SCOTTY_AST
 10
0.3340
 20
0.5820
 30
0.0000
  0
SEQEND
  0
POLYLINE
  8
SCOTTY_AST
 66
1
 10
0.0000
 20
0.0000
 30
0.0000
 40
0.0100
 41
0.0100
  0
VERTEX
  8
SCOTTY_AST
 10
0.1270
 20
1.0110
 30
0.0000
  0
VERTEX
  8
SCOTTY_AST
 10
0.1770
 20
1.0110
 30
0.0000
  0
VERTEX
  8
SCOTTY_AST
 10
0.1770
 20
0.9610
 30
0.0000
  0
VERTEX
  8
SCOTTY_AST
 10
0.1270
 20
0.9610
 30
0.0000
  0
VERTEX
  8
SCOTTY_AST
 10
0.1270
 20
1.0110
 30
0.0000
  0
SEQEND
  0
POLYLINE
  8
SCOTTY_AST
 66
1
 10
0.0000
 20
0.0000
 30
0.0000
 40
0.0100
 41
0.0100
  0
VERTEX
  8
SCOTTY_AST
 10
0.1770
 20
0.9860
 30
0.0000
  0
VERTEX
  8
SCOTTY_AST
 10
0.1270
 20
0.9860
 30
0.0000
  0
SEQEND
  0
POLYLINE
  8
SCOTTY_AST
 66
1
 10
0.0000
 20
0.0000
 30
0.0000
 40
0.0100
 41
0.0100
  0
VERTEX
  8
SCOTTY_AST
 10
0.1520
 20
1.0110
 30
0.0000
  0
VERTEX
  8
SCOTTY_AST
 10
0.1520
 20
0.9610
 30
0.0000
  0
SEQEND
  0
POLYLINE
  8
SCOTTY_AST
 66
1
 10
0.0000
 20
0.0000
 30
0.0000
 40
0.0100
 41
0.0100
  0
VERTEX
  8
SCOTTY_AST
 10
0.1900
 20
1.2990
 30
0.0000
  0
VERTEX
  8
SCOTTY_AST
 10
0.1400
 20
1.2990
 30
0.0000
  0
SEQEND
  0
POLYLINE
  8
SCOTTY_AST
 66
1
 10
0.0000
 20
0.0000
 30
0.0000
 40
0.0100
 41
0.0100
  0
VERTEX
  8
SCOTTY_AST
 10
0.1650
 20
1.3240
 30
0.0000
  0
VERTEX
  8
SCOTTY_AST
 10
0.1650
 20
1.2740
 30
0.0000
  0
SEQEND
  0
POLYLINE
  8
SCOTTY_AST
 66
1
 10
0.0000
 20
0.0000
 30
0.0000
 40
0.0100
 41
0.0100
  0
VERTEX
  8
SCOTTY_AST
 10
0.1900
 20
1.8750
 30
0.0000
  0
VERTEX
  8
SCOTTY_AST
 10
0.1400
 20
1.9250
 30
0.0000
  0
VERTEX
  8
SCOTTY_AST
 10
0.1900
 20
1.9250
 30
0.0000
  0
VERTEX
  8
SCOTTY_AST
 10
0.1900
 20
1.8750
 30
0.0000
  0
VERTEX
  8
SCOTTY_AST
 10
0.1400
 20
1.8750
 30
0.0000
  0
VERTEX
  8
SCOTTY_AST
 10
0.1400
 20
1.9250
 30
0.0000
  0
SEQEND
  0
POLYLINE
  8
SCOTTY_AST
 66
1
 10
0.0000
 20
0.0000
 30
0.0000
 40
0.0100
 41
0.0100
  0
VERTEX
  8
SCOTTY_AST
 10
0.1900
 20
1.9250
 30
0.0000
  0
VERTEX
  8
SCOTTY_AST
 10
0.1400
 20
1.8750
 30
0.0000
  0
SEQEND
  0
POLYLINE
  8
SCOTTY_AST
 66
1
 10
0.0000
 20
0.0000
 30
0.0000
 40
0.0100
 41
0.0100
  0
VERTEX
  8
SCOTTY_AST
 10
0.1900
 20
0.1810
 30
0.0000
  0
VERTEX
  8
SCOTTY_AST
 10
0.1400
 20
0.1810
 30
0.0000
  0
SEQEND
  0
POLYLINE
  8
SCOTTY_AST
 66
1
 10
0.0000
 20
0.0000
 30
0.0000
 40
0.0100
 41
0.0100
  0
VERTEX
  8
SCOTTY_AST
 10
0.1650
 20
0.2060
 30
0.0000
  0
VERTEX
  8
SCOTTY_AST
 10
0.1650
 20
0.1560
 30
0.0000
  0
SEQEND
  0
POLYLINE
  8
SCOTTY_AST
 66
1
 10
0.0000
 20
0.0000
 30
0.0000
 40
0.0100
 41
0.0100
  0
VERTEX
  8
SCOTTY_AST
 10
0.1900
 20
2.8490
 30
0.0000
  0
VERTEX
  8
SCOTTY_AST
 10
0.1400
 20
2.8490
 30
0.0000
  0
SEQEND
  0
POLYLINE
  8
SCOTTY_AST
 66
1
 10
0.0000
 20
0.0000
 30
0.0000
 40
0.0100
 41
0.0100
  0
VERTEX
  8
SCOTTY_AST
 10
0.1650
 20
2.8740
 30
0.0000
  0
VERTEX
  8
SCOTTY_AST
 10
0.1650
 20
2.8240
 30
0.0000
  0
SEQEND
  0
POLYLINE
  8
SCOTTY_AST
 66
1
 10
0.0000
 20
0.0000
 30
0.0000
 40
0.0100
 41
0.0100
  0
VERTEX
  8
SCOTTY_AST
 10
0.1900
 20
3.6950
 30
0.0000
  0
VERTEX
  8
SCOTTY_AST
 10
0.1400
 20
3.6950
 30
0.0000
  0
SEQEND
  0
POLYLINE
  8
SCOTTY_AST
 66
1
 10
0.0000
 20
0.0000
 30
0.0000
 40
0.0100
 41
0.0100
  0
VERTEX
  8
SCOTTY_AST
 10
0.1650
 20
3.7200
 30
0.0000
  0
VERTEX
  8
SCOTTY_AST
 10
0.1650
 20
3.6700
 30
0.0000
  0
SEQEND
  0
POLYLINE
  8
SCOTTY_DRD
 66
1
 10
0.0000
 20
0.0000
 30
0.0000
 40
0.0100
 41
0.0100
  0
VERTEX
  8
SCOTTY_DRD
 10
5.8690
 20
3.2180
 30
0.0000
  0
VERTEX
  8
SCOTTY_DRD
 10
5.8680
 20
3.2180
 30
0.0000
  0
VERTEX
  8
SCOTTY_DRD
 10
5.8680
 20
3.8000
 30
0.0000
  0
VERTEX
  8
SCOTTY_DRD
 10
6.2030
 20
3.8000
 30
0.0000
  0
VERTEX
  8
SCOTTY_DRD
 10
6.2030
 20
3.2180
 30
0.0000
  0
VERTEX
  8
SCOTTY_DRD
 10
5.8690
 20
3.2180
 30
0.0000
  0
SEQEND
  0
POLYLINE
  8
SCOTTY_DRD
 66
1
 10
0.0000
 20
0.0000
 30
0.0000
 40
0.0100
 41
0.0100
  0
VERTEX
  8
SCOTTY_DRD
 10
5.8680
 20
2.6710
 30
0.0000
  0
VERTEX
  8
SCOTTY_DRD
 10
5.8680
 20
0.0000
 30
0.0000
  0
VERTEX
  8
SCOTTY_DRD
 10
6.2030
 20
0.0000
 30
0.0000
  0
VERTEX
  8
SCOTTY_DRD
 10
6.2030
 20
2.6710
 30
0.0000
  0
VERTEX
  8
SCOTTY_DRD
 10
5.8680
 20
2.6710
 30
0.0000
  0
SEQEND
  0
POLYLINE
  8
SCOTTY_DRD
 66
1
 10
0.0000
 20
0.0000
 30
0.0000
 40
0.0100
 41
0.0100
  0
VERTEX
  8
SCOTTY_DRD
 10
3.1950
 20
3.4890
 30
0.0000
  0
VERTEX
  8
SCOTTY_DRD
 10
3.1950
 20
3.8000
 30
0.0000
  0
VERTEX
  8
SCOTTY_DRD
 10
5.3880
 20
3.8000
 30
0.0000
  0
VERTEX
  8
SCOTTY_DRD
 10
5.3880
 20
0.0000
 30
0.0000
  0
VERTEX
  8
SCOTTY_DRD
 10
3.1950
 20
0.0000
 30
0.0000
  0
VERTEX
  8
SCOTTY_DRD
 10
3.1950
 20
3.4890
 30
0.0000
  0
SEQEND
  0
POLYLINE
  8
SCOTTY_DRD
 66
1
 10
0.0000
 20
0.0000
 30
0.0000
 40
0.0100
 41
0.0100
  0
VERTEX
  8
SCOTTY_DRD
 10
0.8150
 20
0.0000
 30
0.0000
  0
VERTEX
  8
SCOTTY_DRD
 10
2.7650
 20
0.0000
 30
0.0000
  0
VERTEX
  8
SCOTTY_DRD
 10
2.7650
 20
3.8000
 30
0.0000
  0
VERTEX
  8
SCOTTY_DRD
 10
0.8150
 20
3.8000
 30
0.0000
  0
VERTEX
  8
SCOTTY_DRD
 10
0.8150
 20
0.0000
 30
0.0000
  0
SEQEND
  0
POLYLINE
  8
SCOTTY_DRD
 66
1
 10
0.0000
 20
0.0000
 30
0.0000
 40
0.0100
 41
0.0100
  0
VERTEX
  8
SCOTTY_DRD
 10
4.6720
 20
0.8190
 30
0.0000
  0
VERTEX
  8
SCOTTY_DRD
 10
4.6220
 20
0.8190
 30
0.0000
  0
SEQEND
  0
POLYLINE
  8
SCOTTY_DRD
 66
1
 10
0.0000
 20
0.0000
 30
0.0000
 40
0.0100
 41
0.0100
  0
VERTEX
  8
SCOTTY_DRD
 10
4.6470
 20
0.8440
 30
0.0000
  0
VERTEX
  8
SCOTTY_DRD
 10
4.6470
 20
0.7940
 30
0.0000
  0
SEQEND
  0
POLYLINE
  8
SCOTTY_DRD
 66
1
 10
0.0000
 20
0.0000
 30
0.0000
 40
0.0100
 41
0.0100
  0
VERTEX
  8
SCOTTY_DRD
 10
4.6710
 20
2.9800
 30
0.0000
  0
VERTEX
  8
SCOTTY_DRD
 10
4.6210
 20
2.9800
 30
0.0000
  0
SEQEND
  0
POLYLINE
  8
SCOTTY_DRD
 66
1
 10
0.0000
 20
0.0000
 30
0.0000
 40
0.0100
 41
0.0100
  0
VERTEX
  8
SCOTTY_DRD
 10
4.6460
 20
3.0050
 30
0.0000
  0
VERTEX
  8
SCOTTY_DRD
 10
4.6460
 20
2.9550
 30
0.0000
  0
SEQEND
  0
POLYLINE
  8
SCOTTY_DRD
 66
1
 10
0.0000
 20
0.0000
 30
0.0000
 40
0.0100
 41
0.0100
  0
VERTEX
  8
SCOTTY_DRD
 10
6.0260
 20
2.8390
 30
0.0000
  0
VERTEX
  8
SCOTTY_DRD
 10
6.0260
 20
2.7890
 30
0.0000
  0
SEQEND
  0
POLYLINE
  8
SCOTTY_DRD
 66
1
 10
0.0000
 20
0.0000
 30
0.0000
 40
0.0100
 41
0.0100
  0
VERTEX
  8
SCOTTY_DRD
 10
6.0760
 20
2.8390
 30
0.0000
  0
VERTEX
  8
SCOTTY_DRD
 10
6.0260
 20
2.8390
 30
0.0000
  0
SEQEND
  0
POLYLINE
  8
SCOTTY_DRD
 66
1
 10
0.0000
 20
0.0000
 30
0.0000
 40
0.0100
 41
0.0100
  0
VERTEX
  8
SCOTTY_DRD
 10
6.0760
 20
2.7890
 30
0.0000
  0
VERTEX
  8
SCOTTY_DRD
 10
6.0760
 20
2.8390
 30
0.0000
  0
SEQEND
  0
POLYLINE
  8
SCOTTY_DRD
 66
1
 10
0.0000
 20
0.0000
 30
0.0000
 40
0.0100
 41
0.0100
  0
VERTEX
  8
SCOTTY_DRD
 10
6.0260
 20
2.7890
 30
0.0000
  0
VERTEX
  8
SCOTTY_DRD
 10
6.0760
 20
2.7890
 30
0.0000
  0
SEQEND
  0
POLYLINE
  8
SCOTTY_DRD
 66
1
 10
0.0000
 20
0.0000
 30
0.0000
 40
0.0100
 41
0.0100
  0
VERTEX
  8
SCOTTY_DRD
 10
6.0760
 20
2.8140
 30
0.0000
  0
VERTEX
  8
SCOTTY_DRD
 10
6.0260
 20
2.8140
 30
0.0000
  0
SEQEND
  0
POLYLINE
  8
SCOTTY_DRD
 66
1
 10
0.0000
 20
0.0000
 30
0.0000
 40
0.0100
 41
0.0100
  0
VERTEX
  8
SCOTTY_DRD
 10
6.0510
 20
2.8390
 30
0.0000
  0
VERTEX
  8
SCOTTY_DRD
 10
6.0510
 20
2.7890
 30
0.0000
  0
SEQEND
  0
POLYLINE
  8
SCOTTY_DRD
 66
1
 10
0.0000
 20
0.0000
 30
0.0000
 40
0.0100
 41
0.0100
  0
VERTEX
  8
SCOTTY_DRD
 10
5.0610
 20
1.9000
 30
0.0000
  0
VERTEX
  8
SCOTTY_DRD
 10
5.0110
 20
1.9000
 30
0.0000
  0
SEQEND
  0
POLYLINE
  8
SCOTTY_DRD
 66
1
 10
0.0000
 20
0.0000
 30
0.0000
 40
0.0100
 41
0.0100
  0
VERTEX
  8
SCOTTY_DRD
 10
5.0360
 20
1.9250
 30
0.0000
  0
VERTEX
  8
SCOTTY_DRD
 10
5.0360
 20
1.8750
 30
0.0000
  0
SEQEND
  0
POLYLINE
  8
SCOTTY_DRD
 66
1
 10
0.0000
 20
0.0000
 30
0.0000
 40
0.0100
 41
0.0100
  0
VERTEX
  8
SCOTTY_DRD
 10
3.4370
 20
1.5000
 30
0.0000
  0
VERTEX
  8
SCOTTY_DRD
 10
3.3870
 20
1.5000
 30
0.0000
  0
SEQEND
  0
POLYLINE
  8
SCOTTY_DRD
 66
1
 10
0.0000
 20
0.0000
 30
0.0000
 40
0.0100
 41
0.0100
  0
VERTEX
  8
SCOTTY_DRD
 10
3.4120
 20
1.5250
 30
0.0000
  0
VERTEX
  8
SCOTTY_DRD
 10
3.4120
 20
1.4750
 30
0.0000
  0
SEQEND
  0
POLYLINE
  8
SCOTTY_DRD
 66
1
 10
0.0000
 20
0.0000
 30
0.0000
 40
0.0100
 41
0.0100
  0
VERTEX
  8
SCOTTY_DRD
 10
3.4370
 20
2.3000
 30
0.0000
  0
VERTEX
  8
SCOTTY_DRD
 10
3.3870
 20
2.3000
 30
0.0000
  0
SEQEND
  0
POLYLINE
  8
SCOTTY_DRD
 66
1
 10
0.0000
 20
0.0000
 30
0.0000
 40
0.0100
 41
0.0100
  0
VERTEX
  8
SCOTTY_DRD
 10
3.4120
 20
2.3250
 30
0.0000
  0
VERTEX
  8
SCOTTY_DRD
 10
3.4120
 20
2.2750
 30
0.0000
  0
SEQEND
  0
POLYLINE
  8
SCOTTY_DRD
 66
1
 10
0.0000
 20
0.0000
 30
0.0000
 40
0.0100
 41
0.0100
  0
VERTEX
  8
SCOTTY_DRD
 10
3.3260
 20
0.1050
 30
0.0000
  0
VERTEX
  8
SCOTTY_DRD
 10
3.2760
 20
0.1050
 30
0.0000
  0
SEQEND
  0
POLYLINE
  8
SCOTTY_DRD
 66
1
 10
0.0000
 20
0.0000
 30
0.0000
 40
0.0100
 41
0.0100
  0
VERTEX
  8
SCOTTY_DRD
 10
3.3010
 20
0.1300
 30
0.0000
  0
VERTEX
  8
SCOTTY_DRD
 10
3.3010
 20
0.0800
 30
0.0000
  0
SEQEND
  0
POLYLINE
  8
SCOTTY_DRD
 66
1
 10
0.0000
 20
0.0000
 30
0.0000
 40
0.0100
 41
0.0100
  0
VERTEX
  8
SCOTTY_DRD
 10
3.3260
 20
3.6950
 30
0.0000
  0
VERTEX
  8
SCOTTY_DRD
 10
3.2760
 20
3.6950
 30
0.0000
  0
SEQEND
  0
POLYLINE
  8
SCOTTY_DRD
 66
1
 10
0.0000
 20
0.0000
 30
0.0000
 40
0.0100
 41
0.0100
  0
VERTEX
  8
SCOTTY_DRD
 10
3.3010
 20
3.7200
 30
0.0000
  0
VERTEX
  8
SCOTTY_DRD
 10
3.3010
 20
3.6700
 30
0.0000
  0
SEQEND
  0
POLYLINE
  8
SCOTTY_DRD
 66
1
 10
0.0000
 20
0.0000
 30
0.0000
 40
0.0100
 41
0.0100
  0
VERTEX
  8
SCOTTY_DRD
 10
6.0630
 20
2.5010
 30
0.0000
  0
VERTEX
  8
SCOTTY_DRD
 10
6.0130
 20
2.5010
 30
0.0000
  0
SEQEND
  0
POLYLINE
  8
SCOTTY_DRD
 66
1
 10
0.0000
 20
0.0000
 30
0.0000
 40
0.0100
 41
0.0100
  0
VERTEX
  8
SCOTTY_DRD
 10
6.0380
 20
2.5260
 30
0.0000
  0
VERTEX
  8
SCOTTY_DRD
 10
6.0380
 20
2.4760
 30
0.0000
  0
SEQEND
  0
POLYLINE
  8
SCOTTY_DRD
 66
1
 10
0.0000
 20
0.0000
 30
0.0000
 40
0.0100
 41
0.0100
  0
VERTEX
  8
SCOTTY_DRD
 10
1.7930
 20
0.8200
 30
0.0000
  0
VERTEX
  8
SCOTTY_DRD
 10
1.7430
 20
0.8200
 30
0.0000
  0
SEQEND
  0
POLYLINE
  8
SCOTTY_DRD
 66
1
 10
0.0000
 20
0.0000
 30
0.0000
 40
0.0100
 41
0.0100
  0
VERTEX
  8
SCOTTY_DRD
 10
1.7680
 20
0.8450
 30
0.0000
  0
VERTEX
  8
SCOTTY_DRD
 10
1.7680
 20
0.7950
 30
0.0000
  0
SEQEND
  0
POLYLINE
  8
SCOTTY_DRD
 66
1
 10
0.0000
 20
0.0000
 30
0.0000
 40
0.0100
 41
0.0100
  0
VERTEX
  8
SCOTTY_DRD
 10
1.7930
 20
2.9800
 30
0.0000
  0
VERTEX
  8
SCOTTY_DRD
 10
1.7430
 20
2.9800
 30
0.0000
  0
SEQEND
  0
POLYLINE
  8
SCOTTY_DRD
 66
1
 10
0.0000
 20
0.0000
 30
0.0000
 40
0.0100
 41
0.0100
  0
VERTEX
  8
SCOTTY_DRD
 10
1.7680
 20
3.0050
 30
0.0000
  0
VERTEX
  8
SCOTTY_DRD
 10
1.7680
 20
2.9550
 30
0.0000
  0
SEQEND
  0
POLYLINE
  8
SCOTTY_DRD
 66
1
 10
0.0000
 20
0.0000
 30
0.0000
 40
0.0100
 41
0.0100
  0
VERTEX
  8
SCOTTY_DRD
 10
2.3060
 20
2.2410
 30
0.0000
  0
VERTEX
  8
SCOTTY_DRD
 10
2.3060
 20
2.1910
 30
0.0000
  0
SEQEND
  0
POLYLINE
  8
SCOTTY_DRD
 66
1
 10
0.0000
 20
0.0000
 30
0.0000
 40
0.0100
 41
0.0100
  0
VERTEX
  8
SCOTTY_DRD
 10
2.3560
 20
2.2410
 30
0.0000
  0
VERTEX
  8
SCOTTY_DRD
 10
2.3060
 20
2.2410
 30
0.0000
  0
SEQEND
  0
POLYLINE
  8
SCOTTY_DRD
 66
1
 10
0.0000
 20
0.0000
 30
0.0000
 40
0.0100
 41
0.0100
  0
VERTEX
  8
SCOTTY_DRD
 10
2.3560
 20
2.1910
 30
0.0000
  0
VERTEX
  8
SCOTTY_DRD
 10
2.3560
 20
2.2410
 30
0.0000
  0
SEQEND
  0
POLYLINE
  8
SCOTTY_DRD
 66
1
 10
0.0000
 20
0.0000
 30
0.0000
 40
0.0100
 41
0.0100
  0
VERTEX
  8
SCOTTY_DRD
 10
2.3060
 20
2.1910
 30
0.0000
  0
VERTEX
  8
SCOTTY_DRD
 10
2.3560
 20
2.1910
 30
0.0000
  0
SEQEND
  0
POLYLINE
  8
SCOTTY_DRD
 66
1
 10
0.0000
 20
0.0000
 30
0.0000
 40
0.0100
 41
0.0100
  0
VERTEX
  8
SCOTTY_DRD
 10
2.3560
 20
2.2410
 30
0.0000
  0
VERTEX
  8
SCOTTY_DRD
 10
2.3060
 20
2.1910
 30
0.0000
  0
SEQEND
  0
POLYLINE
  8
SCOTTY_DRD
 66
1
 10
0.0000
 20
0.0000
 30
0.0000
 40
0.0100
 41
0.0100
  0
VERTEX
  8
SCOTTY_DRD
 10
2.3560
 20
2.1910
 30
0.0000
  0
VERTEX
  8
SCOTTY_DRD
 10
2.3060
 20
2.2410
 30
0.0000
  0
SEQEND
  0
POLYLINE
  8
SCOTTY_DRD
 66
1
 10
0.0000
 20
0.0000
 30
0.0000
 40
0.0100
 41
0.0100
  0
VERTEX
  8
SCOTTY_DRD
 10
2.4060
 20
2.2410
 30
0.0000
  0
VERTEX
  8
SCOTTY_DRD
 10
2.4060
 20
2.1910
 30
0.0000
  0
SEQEND
  0
POLYLINE
  8
SCOTTY_DRD
 66
1
 10
0.0000
 20
0.0000
 30
0.0000
 40
0.0100
 41
0.0100
  0
VERTEX
  8
SCOTTY_DRD
 10
2.4560
 20
2.2410
 30
0.0000
  0
VERTEX
  8
SCOTTY_DRD
 10
2.4060
 20
2.2410
 30
0.0000
  0
SEQEND
  0
POLYLINE
  8
SCOTTY_DRD
 66
1
 10
0.0000
 20
0.0000
 30
0.0000
 40
0.0100
 41
0.0100
  0
VERTEX
  8
SCOTTY_DRD
 10
2.4560
 20
2.1910
 30
0.0000
  0
VERTEX
  8
SCOTTY_DRD
 10
2.4560
 20
2.2410
 30
0.0000
  0
SEQEND
  0
POLYLINE
  8
SCOTTY_DRD
 66
1
 10
0.0000
 20
0.0000
 30
0.0000
 40
0.0100
 41
0.0100
  0
VERTEX
  8
SCOTTY_DRD
 10
2.4060
 20
2.1910
 30
0.0000
  0
VERTEX
  8
SCOTTY_DRD
 10
2.4560
 20
2.1910
 30
0.0000
  0
SEQEND
  0
POLYLINE
  8
SCOTTY_DRD
 66
1
 10
0.0000
 20
0.0000
 30
0.0000
 40
0.0100
 41
0.0100
  0
VERTEX
  8
SCOTTY_DRD
 10
2.4560
 20
2.2410
 30
0.0000
  0
VERTEX
  8
SCOTTY_DRD
 10
2.4060
 20
2.1910
 30
0.0000
  0
SEQEND
  0
POLYLINE
  8
SCOTTY_DRD
 66
1
 10
0.0000
 20
0.0000
 30
0.0000
 40
0.0100
 41
0.0100
  0
VERTEX
  8
SCOTTY_DRD
 10
2.4560
 20
2.1910
 30
0.0000
  0
VERTEX
  8
SCOTTY_DRD
 10
2.4060
 20
2.2410
 30
0.0000
  0
SEQEND
  0
POLYLINE
  8
SCOTTY_DRD
 66
1
 10
0.0000
 20
0.0000
 30
0.0000
 40
0.0100
 41
0.0100
  0
VERTEX
  8
SCOTTY_DRD
 10
2.5060
 20
2.2410
 30
0.0000
  0
VERTEX
  8
SCOTTY_DRD
 10
2.5060
 20
2.1910
 30
0.0000
  0
SEQEND
  0
POLYLINE
  8
SCOTTY_DRD
 66
1
 10
0.0000
 20
0.0000
 30
0.0000
 40
0.0100
 41
0.0100
  0
VERTEX
  8
SCOTTY_DRD
 10
2.5560
 20
2.2410
 30
0.0000
  0
VERTEX
  8
SCOTTY_DRD
 10
2.5060
 20
2.2410
 30
0.0000
  0
SEQEND
  0
POLYLINE
  8
SCOTTY_DRD
 66
1
 10
0.0000
 20
0.0000
 30
0.0000
 40
0.0100
 41
0.0100
  0
VERTEX
  8
SCOTTY_DRD
 10
2.5560
 20
2.1910
 30
0.0000
  0
VERTEX
  8
SCOTTY_DRD
 10
2.5560
 20
2.2410
 30
0.0000
  0
SEQEND
  0
POLYLINE
  8
SCOTTY_DRD
 66
1
 10
0.0000
 20
0.0000
 30
0.0000
 40
0.0100
 41
0.0100
  0
VERTEX
  8
SCOTTY_DRD
 10
2.5060
 20
2.1910
 30
0.0000
  0
VERTEX
  8
SCOTTY_DRD
 10
2.5560
 20
2.1910
 30
0.0000
  0
SEQEND
  0
POLYLINE
  8
SCOTTY_DRD
 66
1
 10
0.0000
 20
0.0000
 30
0.0000
 40
0.0100
 41
0.0100
  0
VERTEX
  8
SCOTTY_DRD
 10
2.5560
 20
2.2410
 30
0.0000
  0
VERTEX
  8
SCOTTY_DRD
 10
2.5060
 20
2.1910
 30
0.0000
  0
SEQEND
  0
POLYLINE
  8
SCOTTY_DRD
 66
1
 10
0.0000
 20
0.0000
 30
0.0000
 40
0.0100
 41
0.0100
  0
VERTEX
  8
SCOTTY_DRD
 10
2.5560
 20
2.1910
 30
0.0000
  0
VERTEX
  8
SCOTTY_DRD
 10
2.5060
 20
2.2410
 30
0.0000
  0
SEQEND
  0
POLYLINE
  8
SCOTTY_DRD
 66
1
 10
0.0000
 20
0.0000
 30
0.0000
 40
0.0100
 41
0.0100
  0
VERTEX
  8
SCOTTY_DRD
 10
0.9520
 20
1.9000
 30
0.0000
  0
VERTEX
  8
SCOTTY_DRD
 10
0.9020
 20
1.9000
 30
0.0000
  0
SEQEND
  0
POLYLINE
  8
SCOTTY_DRD
 66
1
 10
0.0000
 20
0.0000
 30
0.0000
 40
0.0100
 41
0.0100
  0
VERTEX
  8
SCOTTY_DRD
 10
0.9270
 20
1.9250
 30
0.0000
  0
VERTEX
  8
SCOTTY_DRD
 10
0.9270
 20
1.8750
 30
0.0000
  0
SEQEND
  0
POLYLINE
  8
SCOTTY_DRD
 66
1
 10
0.0000
 20
0.0000
 30
0.0000
 40
0.0100
 41
0.0100
  0
VERTEX
  8
SCOTTY_DRD
 10
0.9520
 20
0.1050
 30
0.0000
  0
VERTEX
  8
SCOTTY_DRD
 10
0.9020
 20
0.1050
 30
0.0000
  0
SEQEND
  0
POLYLINE
  8
SCOTTY_DRD
 66
1
 10
0.0000
 20
0.0000
 30
0.0000
 40
0.0100
 41
0.0100
  0
VERTEX
  8
SCOTTY_DRD
 10
0.9270
 20
0.1300
 30
0.0000
  0
VERTEX
  8
SCOTTY_DRD
 10
0.9270
 20
0.0800
 30
0.0000
  0
SEQEND
  0
POLYLINE
  8
SCOTTY_DRD
 66
1
 10
0.0000
 20
0.0000
 30
0.0000
 40
0.0100
 41
0.0100
  0
VERTEX
  8
SCOTTY_DRD
 10
2.6820
 20
0.1050
 30
0.0000
  0
VERTEX
  8
SCOTTY_DRD
 10
2.6320
 20
0.1050
 30
0.0000
  0
SEQEND
  0
POLYLINE
  8
SCOTTY_DRD
 66
1
 10
0.0000
 20
0.0000
 30
0.0000
 40
0.0100
 41
0.0100
  0
VERTEX
  8
SCOTTY_DRD
 10
2.6570
 20
0.1300
 30
0.0000
  0
VERTEX
  8
SCOTTY_DRD
 10
2.6570
 20
0.0800
 30
0.0000
  0
SEQEND
  0
POLYLINE
  8
SCOTTY_DRD
 66
1
 10
0.0000
 20
0.0000
 30
0.0000
 40
0.0100
 41
0.0100
  0
VERTEX
  8
SCOTTY_DRD
 10
2.6820
 20
3.6950
 30
0.0000
  0
VERTEX
  8
SCOTTY_DRD
 10
2.6320
 20
3.6950
 30
0.0000
  0
SEQEND
  0
POLYLINE
  8
SCOTTY_DRD
 66
1
 10
0.0000
 20
0.0000
 30
0.0000
 40
0.0100
 41
0.0100
  0
VERTEX
  8
SCOTTY_DRD
 10
2.6570
 20
3.7200
 30
0.0000
  0
VERTEX
  8
SCOTTY_DRD
 10
2.6570
 20
3.6700
 30
0.0000
  0
SEQEND
  0
POLYLINE
  8
SCOTTY_DRD
 66
1
 10
0.0000
 20
0.0000
 30
0.0000
 40
0.0100
 41
0.0100
  0
VERTEX
  8
SCOTTY_DRD
 10
0.9520
 20
3.6950
 30
0.0000
  0
VERTEX
  8
SCOTTY_DRD
 10
0.9020
 20
3.6950
 30
0.0000
  0
SEQEND
  0
POLYLINE
  8
SCOTTY_DRD
 66
1
 10
0.0000
 20
0.0000
 30
0.0000
 40
0.0100
 41
0.0100
  0
VERTEX
  8
SCOTTY_DRD
 10
0.9270
 20
3.7200
 30
0.0000
  0
VERTEX
  8
SCOTTY_DRD
 10
0.9270
 20
3.6700
 30
0.0000
  0
SEQEND
  0
POLYLINE
  8
SCOTTY_DRD
 66
1
 10
0.0000
 20
0.0000
 30
0.0000
 40
0.0100
 41
0.0100
  0
VERTEX
  8
SCOTTY_DRD
 10
2.6820
 20
1.9000
 30
0.0000
  0
VERTEX
  8
SCOTTY_DRD
 10
2.6320
 20
1.9000
 30
0.0000
  0
SEQEND
  0
POLYLINE
  8
SCOTTY_DRD
 66
1
 10
0.0000
 20
0.0000
 30
0.0000
 40
0.0100
 41
0.0100
  0
VERTEX
  8
SCOTTY_DRD
 10
2.6570
 20
1.9250
 30
0.0000
  0
VERTEX
  8
SCOTTY_DRD
 10
2.6570
 20
1.8750
 30
0.0000
  0
SEQEND
  0
POLYLINE
  8
SCOTTY_DRD
 66
1
 10
0.0000
 20
0.0000
 30
0.0000
 40
0.0100
 41
0.0100
  0
VERTEX
  8
SCOTTY_DRD
 10
6.0130
 20
1.9250
 30
0.0000
  0
VERTEX
  8
SCOTTY_DRD
 10
6.0130
 20
1.8750
 30
0.0000
  0
SEQEND
  0
POLYLINE
  8
SCOTTY_DRD
 66
1
 10
0.0000
 20
0.0000
 30
0.0000
 40
0.0100
 41
0.0100
  0
VERTEX
  8
SCOTTY_DRD
 10
6.0630
 20
1.9250
 30
0.0000
  0
VERTEX
  8
SCOTTY_DRD
 10
6.0130
 20
1.9250
 30
0.0000
  0
SEQEND
  0
POLYLINE
  8
SCOTTY_DRD
 66
1
 10
0.0000
 20
0.0000
 30
0.0000
 40
0.0100
 41
0.0100
  0
VERTEX
  8
SCOTTY_DRD
 10
6.0630
 20
1.8750
 30
0.0000
  0
VERTEX
  8
SCOTTY_DRD
 10
6.0630
 20
1.9250
 30
0.0000
  0
SEQEND
  0
POLYLINE
  8
SCOTTY_DRD
 66
1
 10
0.0000
 20
0.0000
 30
0.0000
 40
0.0100
 41
0.0100
  0
VERTEX
  8
SCOTTY_DRD
 10
6.0130
 20
1.8750
 30
0.0000
  0
VERTEX
  8
SCOTTY_DRD
 10
6.0630
 20
1.8750
 30
0.0000
  0
SEQEND
  0
POLYLINE
  8
SCOTTY_DRD
 66
1
 10
0.0000
 20
0.0000
 30
0.0000
 40
0.0100
 41
0.0100
  0
VERTEX
  8
SCOTTY_DRD
 10
6.0630
 20
1.9250
 30
0.0000
  0
VERTEX
  8
SCOTTY_DRD
 10
6.0130
 20
1.8750
 30
0.0000
  0
SEQEND
  0
POLYLINE
  8
SCOTTY_DRD
 66
1
 10
0.0000
 20
0.0000
 30
0.0000
 40
0.0100
 41
0.0100
  0
VERTEX
  8
SCOTTY_DRD
 10
6.0630
 20
1.8750
 30
0.0000
  0
VERTEX
  8
SCOTTY_DRD
 10
6.0130
 20
1.9250
 30
0.0000
  0
SEQEND
  0
POLYLINE
  8
SCOTTY_DRD
 66
1
 10
0.0000
 20
0.0000
 30
0.0000
 40
0.0100
 41
0.0100
  0
VERTEX
  8
SCOTTY_DRD
 10
2.3360
 20
2.6750
 30
0.0000
  0
VERTEX
  8
SCOTTY_DRD
 10
2.3360
 20
2.6250
 30
0.0000
  0
SEQEND
  0
POLYLINE
  8
SCOTTY_DRD
 66
1
 10
0.0000
 20
0.0000
 30
0.0000
 40
0.0100
 41
0.0100
  0
VERTEX
  8
SCOTTY_DRD
 10
2.3860
 20
2.6750
 30
0.0000
  0
VERTEX
  8
SCOTTY_DRD
 10
2.3360
 20
2.6750
 30
0.0000
  0
SEQEND
  0
POLYLINE
  8
SCOTTY_DRD
 66
1
 10
0.0000
 20
0.0000
 30
0.0000
 40
0.0100
 41
0.0100
  0
VERTEX
  8
SCOTTY_DRD
 10
2.3860
 20
2.6250
 30
0.0000
  0
VERTEX
  8
SCOTTY_DRD
 10
2.3860
 20
2.6750
 30
0.0000
  0
SEQEND
  0
POLYLINE
  8
SCOTTY_DRD
 66
1
 10
0.0000
 20
0.0000
 30
0.0000
 40
0.0100
 41
0.0100
  0
VERTEX
  8
SCOTTY_DRD
 10
2.3360
 20
2.6250
 30
0.0000
  0
VERTEX
  8
SCOTTY_DRD
 10
2.3860
 20
2.6250
 30
0.0000
  0
SEQEND
  0
POLYLINE
  8
SCOTTY_DRD
 66
1
 10
0.0000
 20
0.0000
 30
0.0000
 40
0.0100
 41
0.0100
  0
VERTEX
  8
SCOTTY_DRD
 10
2.3860
 20
2.6750
 30
0.0000
  0
VERTEX
  8
SCOTTY_DRD
 10
2.3360
 20
2.6250
 30
0.0000
  0
SEQEND
  0
POLYLINE
  8
SCOTTY_DRD
 66
1
 10
0.0000
 20
0.0000
 30
0.0000
 40
0.0100
 41
0.0100
  0
VERTEX
  8
SCOTTY_DRD
 10
2.3860
 20
2.6250
 30
0.0000
  0
VERTEX
  8
SCOTTY_DRD
 10
2.3360
 20
2.6750
 30
0.0000
  0
SEQEND
  0
POLYLINE
  8
SCOTTY_DRD
 66
1
 10
0.0000
 20
0.0000
 30
0.0000
 40
0.0100
 41
0.0100
  0
VERTEX
  8
SCOTTY_DRD
 10
4.0570
 20
0.1750
 30
0.0000
  0
VERTEX
  8
SCOTTY_DRD
 10
4.0570
 20
0.1250
 30
0.0000
  0
SEQEND
  0
POLYLINE
  8
SCOTTY_DRD
 66
1
 10
0.0000
 20
0.0000
 30
0.0000
 40
0.0100
 41
0.0100
  0
VERTEX
  8
SCOTTY_DRD
 10
4.1070
 20
0.1750
 30
0.0000
  0
VERTEX
  8
SCOTTY_DRD
 10
4.0570
 20
0.1750
 30
0.0000
  0
SEQEND
  0
POLYLINE
  8
SCOTTY_DRD
 66
1
 10
0.0000
 20
0.0000
 30
0.0000
 40
0.0100
 41
0.0100
  0
VERTEX
  8
SCOTTY_DRD
 10
4.1070
 20
0.1250
 30
0.0000
  0
VERTEX
  8
SCOTTY_DRD
 10
4.1070
 20
0.1750
 30
0.0000
  0
SEQEND
  0
POLYLINE
  8
SCOTTY_DRD
 66
1
 10
0.0000
 20
0.0000
 30
0.0000
 40
0.0100
 41
0.0100
  0
VERTEX
  8
SCOTTY_DRD
 10
4.0570
 20
0.1250
 30
0.0000
  0
VERTEX
  8
SCOTTY_DRD
 10
4.1070
 20
0.1250
 30
0.0000
  0
SEQEND
  0
POLYLINE
  8
SCOTTY_DRD
 66
1
 10
0.0000
 20
0.0000
 30
0.0000
 40
0.0100
 41
0.0100
  0
VERTEX
  8
SCOTTY_DRD
 10
4.1070
 20
0.1750
 30
0.0000
  0
VERTEX
  8
SCOTTY_DRD
 10
4.0570
 20
0.1250
 30
0.0000
  0
SEQEND
  0
POLYLINE
  8
SCOTTY_DRD
 66
1
 10
0.0000
 20
0.0000
 30
0.0000
 40
0.0100
 41
0.0100
  0
VERTEX
  8
SCOTTY_DRD
 10
4.1070
 20
0.1250
 30
0.0000
  0
VERTEX
  8
SCOTTY_DRD
 10
4.0570
 20
0.1750
 30
0.0000
  0
SEQEND
  0
POLYLINE
  8
SCOTTY_DRD
 66
1
 10
0.0000
 20
0.0000
 30
0.0000
 40
0.0100
 41
0.0100
  0
VERTEX
  8
SCOTTY_DRD
 10
4.0570
 20
3.6750
 30
0.0000
  0
VERTEX
  8
SCOTTY_DRD
 10
4.0570
 20
3.6250
 30
0.0000
  0
SEQEND
  0
POLYLINE
  8
SCOTTY_DRD
 66
1
 10
0.0000
 20
0.0000
 30
0.0000
 40
0.0100
 41
0.0100
  0
VERTEX
  8
SCOTTY_DRD
 10
4.1070
 20
3.6750
 30
0.0000
  0
VERTEX
  8
SCOTTY_DRD
 10
4.0570
 20
3.6750
 30
0.0000
  0
SEQEND
  0
POLYLINE
  8
SCOTTY_DRD
 66
1
 10
0.0000
 20
0.0000
 30
0.0000
 40
0.0100
 41
0.0100
  0
VERTEX
  8
SCOTTY_DRD
 10
4.1070
 20
3.6250
 30
0.0000
  0
VERTEX
  8
SCOTTY_DRD
 10
4.1070
 20
3.6750
 30
0.0000
  0
SEQEND
  0
POLYLINE
  8
SCOTTY_DRD
 66
1
 10
0.0000
 20
0.0000
 30
0.0000
 40
0.0100
 41
0.0100
  0
VERTEX
  8
SCOTTY_DRD
 10
4.0570
 20
3.6250
 30
0.0000
  0
VERTEX
  8
SCOTTY_DRD
 10
4.1070
 20
3.6250
 30
0.0000
  0
SEQEND
  0
POLYLINE
  8
SCOTTY_DRD
 66
1
 10
0.0000
 20
0.0000
 30
0.0000
 40
0.0100
 41
0.0100
  0
VERTEX
  8
SCOTTY_DRD
 10
4.1070
 20
3.6750
 30
0.0000
  0
VERTEX
  8
SCOTTY_DRD
 10
4.0570
 20
3.6250
 30
0.0000
  0
SEQEND
  0
POLYLINE
  8
SCOTTY_DRD
 66
1
 10
0.0000
 20
0.0000
 30
0.0000
 40
0.0100
 41
0.0100
  0
VERTEX
  8
SCOTTY_DRD
 10
4.1070
 20
3.6250
 30
0.0000
  0
VERTEX
  8
SCOTTY_DRD
 10
4.0570
 20
3.6750
 30
0.0000
  0
SEQEND
  0
POLYLINE
  8
SCOTTY_DRD
 66
1
 10
0.0000
 20
0.0000
 30
0.0000
 40
0.0100
 41
0.0100
  0
VERTEX
  8
SCOTTY_DRD
 10
2.3360
 20
1.1750
 30
0.0000
  0
VERTEX
  8
SCOTTY_DRD
 10
2.3360
 20
1.1250
 30
0.0000
  0
SEQEND
  0
POLYLINE
  8
SCOTTY_DRD
 66
1
 10
0.0000
 20
0.0000
 30
0.0000
 40
0.0100
 41
0.0100
  0
VERTEX
  8
SCOTTY_DRD
 10
2.3860
 20
1.1750
 30
0.0000
  0
VERTEX
  8
SCOTTY_DRD
 10
2.3360
 20
1.1750
 30
0.0000
  0
SEQEND
  0
POLYLINE
  8
SCOTTY_DRD
 66
1
 10
0.0000
 20
0.0000
 30
0.0000
 40
0.0100
 41
0.0100
  0
VERTEX
  8
SCOTTY_DRD
 10
2.3860
 20
1.1250
 30
0.0000
  0
VERTEX
  8
SCOTTY_DRD
 10
2.3860
 20
1.1750
 30
0.0000
  0
SEQEND
  0
POLYLINE
  8
SCOTTY_DRD
 66
1
 10
0.0000
 20
0.0000
 30
0.0000
 40
0.0100
 41
0.0100
  0
VERTEX
  8
SCOTTY_DRD
 10
2.3360
 20
1.1250
 30
0.0000
  0
VERTEX
  8
SCOTTY_DRD
 10
2.3860
 20
1.1250
 30
0.0000
  0
SEQEND
  0
POLYLINE
  8
SCOTTY_DRD
 66
1
 10
0.0000
 20
0.0000
 30
0.0000
 40
0.0100
 41
0.0100
  0
VERTEX
  8
SCOTTY_DRD
 10
2.3860
 20
1.1750
 30
0.0000
  0
VERTEX
  8
SCOTTY_DRD
 10
2.3360
 20
1.1250
 30
0.0000
  0
SEQEND
  0
POLYLINE
  8
SCOTTY_DRD
 66
1
 10
0.0000
 20
0.0000
 30
0.0000
 40
0.0100
 41
0.0100
  0
VERTEX
  8
SCOTTY_DRD
 10
2.3860
 20
1.1250
 30
0.0000
  0
VERTEX
  8
SCOTTY_DRD
 10
2.3360
 20
1.1750
 30
0.0000
  0
SEQEND
  0
POLYLINE
  8
SCOTTY_DRD
 66
1
 10
0.0000
 20
0.0000
 30
0.0000
 40
0.0100
 41
0.0100
  0
VERTEX
  8
SCOTTY_DRD
 10
2.9800
 20
1.9250
 30
0.0000
  0
VERTEX
  8
SCOTTY_DRD
 10
2.9550
 20
1.9000
 30
0.0000
  0
SEQEND
  0
POLYLINE
  8
SCOTTY_DRD
 66
1
 10
0.0000
 20
0.0000
 30
0.0000
 40
0.0100
 41
0.0100
  0
VERTEX
  8
SCOTTY_DRD
 10
3.0050
 20
1.9000
 30
0.0000
  0
VERTEX
  8
SCOTTY_DRD
 10
2.9800
 20
1.9250
 30
0.0000
  0
SEQEND
  0
POLYLINE
  8
SCOTTY_DRD
 66
1
 10
0.0000
 20
0.0000
 30
0.0000
 40
0.0100
 41
0.0100
  0
VERTEX
  8
SCOTTY_DRD
 10
2.9800
 20
1.8750
 30
0.0000
  0
VERTEX
  8
SCOTTY_DRD
 10
3.0050
 20
1.9000
 30
0.0000
  0
SEQEND
  0
POLYLINE
  8
SCOTTY_DRD
 66
1
 10
0.0000
 20
0.0000
 30
0.0000
 40
0.0100
 41
0.0100
  0
VERTEX
  8
SCOTTY_DRD
 10
2.9550
 20
1.9000
 30
0.0000
  0
VERTEX
  8
SCOTTY_DRD
 10
2.9800
 20
1.8750
 30
0.0000
  0
SEQEND
  0
POLYLINE
  8
SCOTTY_DRD
 66
1
 10
0.0000
 20
0.0000
 30
0.0000
 40
0.0100
 41
0.0100
  0
VERTEX
  8
SCOTTY_DRD
 10
6.0630
 20
3.6190
 30
0.0000
  0
VERTEX
  8
SCOTTY_DRD
 10
6.0130
 20
3.6190
 30
0.0000
  0
SEQEND
  0
POLYLINE
  8
SCOTTY_DRD
 66
1
 10
0.0000
 20
0.0000
 30
0.0000
 40
0.0100
 41
0.0100
  0
VERTEX
  8
SCOTTY_DRD
 10
6.0380
 20
3.6440
 30
0.0000
  0
VERTEX
  8
SCOTTY_DRD
 10
6.0380
 20
3.5940
 30
0.0000
  0
SEQEND
  0
POLYLINE
  8
SCOTTY_DRD
 66
1
 10
0.0000
 20
0.0000
 30
0.0000
 40
0.0100
 41
0.0100
  0
VERTEX
  8
SCOTTY_DRD
 10
2.9302
 20
3.7550
 30
0.0000
  0
VERTEX
  8
SCOTTY_DRD
 10
2.9302
 20
3.6550
 30
0.0000
  0
SEQEND
  0
POLYLINE
  8
SCOTTY_DRD
 66
1
 10
0.0000
 20
0.0000
 30
0.0000
 40
0.0100
 41
0.0100
  0
VERTEX
  8
SCOTTY_DRD
 10
3.0302
 20
3.7550
 30
0.0000
  0
VERTEX
  8
SCOTTY_DRD
 10
2.9302
 20
3.7550
 30
0.0000
  0
SEQEND
  0
POLYLINE
  8
SCOTTY_DRD
 66
1
 10
0.0000
 20
0.0000
 30
0.0000
 40
0.0100
 41
0.0100
  0
VERTEX
  8
SCOTTY_DRD
 10
3.0302
 20
3.6550
 30
0.0000
  0
VERTEX
  8
SCOTTY_DRD
 10
3.0302
 20
3.7550
 30
0.0000
  0
SEQEND
  0
POLYLINE
  8
SCOTTY_DRD
 66
1
 10
0.0000
 20
0.0000
 30
0.0000
 40
0.0100
 41
0.0100
  0
VERTEX
  8
SCOTTY_DRD
 10
2.9302
 20
3.6550
 30
0.0000
  0
VERTEX
  8
SCOTTY_DRD
 10
3.0302
 20
3.6550
 30
0.0000
  0
SEQEND
  0
POLYLINE
  8
SCOTTY_DRD
 66
1
 10
0.0000
 20
0.0000
 30
0.0000
 40
0.0100
 41
0.0100
  0
VERTEX
  8
SCOTTY_DRD
 10
3.0302
 20
3.7050
 30
0.0000
  0
VERTEX
  8
SCOTTY_DRD
 10
2.9302
 20
3.7050
 30
0.0000
  0
SEQEND
  0
POLYLINE
  8
SCOTTY_DRD
 66
1
 10
0.0000
 20
0.0000
 30
0.0000
 40
0.0100
 41
0.0100
  0
VERTEX
  8
SCOTTY_DRD
 10
2.9802
 20
3.7550
 30
0.0000
  0
VERTEX
  8
SCOTTY_DRD
 10
2.9802
 20
3.6550
 30
0.0000
  0
SEQEND
  0
POLYLINE
  8
SCOTTY_DRD
 66
1
 10
0.0000
 20
0.0000
 30
0.0000
 40
0.0100
 41
0.0100
  0
VERTEX
  8
SCOTTY_DRD
 10
2.9302
 20
2.3050
 30
0.0000
  0
VERTEX
  8
SCOTTY_DRD
 10
2.9302
 20
2.2050
 30
0.0000
  0
SEQEND
  0
POLYLINE
  8
SCOTTY_DRD
 66
1
 10
0.0000
 20
0.0000
 30
0.0000
 40
0.0100
 41
0.0100
  0
VERTEX
  8
SCOTTY_DRD
 10
3.0302
 20
2.3050
 30
0.0000
  0
VERTEX
  8
SCOTTY_DRD
 10
2.9302
 20
2.3050
 30
0.0000
  0
SEQEND
  0
POLYLINE
  8
SCOTTY_DRD
 66
1
 10
0.0000
 20
0.0000
 30
0.0000
 40
0.0100
 41
0.0100
  0
VERTEX
  8
SCOTTY_DRD
 10
3.0302
 20
2.2050
 30
0.0000
  0
VERTEX
  8
SCOTTY_DRD
 10
3.0302
 20
2.3050
 30
0.0000
  0
SEQEND
  0
POLYLINE
  8
SCOTTY_DRD
 66
1
 10
0.0000
 20
0.0000
 30
0.0000
 40
0.0100
 41
0.0100
  0
VERTEX
  8
SCOTTY_DRD
 10
2.9302
 20
2.2050
 30
0.0000
  0
VERTEX
  8
SCOTTY_DRD
 10
3.0302
 20
2.2050
 30
0.0000
  0
SEQEND
  0
POLYLINE
  8
SCOTTY_DRD
 66
1
 10
0.0000
 20
0.0000
 30
0.0000
 40
0.0100
 41
0.0100
  0
VERTEX
  8
SCOTTY_DRD
 10
3.0302
 20
2.2550
 30
0.0000
  0
VERTEX
  8
SCOTTY_DRD
 10
2.9302
 20
2.2550
 30
0.0000
  0
SEQEND
  0
POLYLINE
  8
SCOTTY_DRD
 66
1
 10
0.0000
 20
0.0000
 30
0.0000
 40
0.0100
 41
0.0100
  0
VERTEX
  8
SCOTTY_DRD
 10
2.9802
 20
2.3050
 30
0.0000
  0
VERTEX
  8
SCOTTY_DRD
 10
2.9802
 20
2.2050
 30
0.0000
  0
SEQEND
  0
POLYLINE
  8
SCOTTY_DRD
 66
1
 10
0.0000
 20
0.0000
 30
0.0000
 40
0.0100
 41
0.0100
  0
VERTEX
  8
SCOTTY_DRD
 10
6.0630
 20
0.9510
 30
0.0000
  0
VERTEX
  8
SCOTTY_DRD
 10
6.0130
 20
0.9510
 30
0.0000
  0
SEQEND
  0
POLYLINE
  8
SCOTTY_DRD
 66
1
 10
0.0000
 20
0.0000
 30
0.0000
 40
0.0100
 41
0.0100
  0
VERTEX
  8
SCOTTY_DRD
 10
6.0380
 20
0.9760
 30
0.0000
  0
VERTEX
  8
SCOTTY_DRD
 10
6.0380
 20
0.9260
 30
0.0000
  0
SEQEND
  0
POLYLINE
  8
SCOTTY_DRD
 66
1
 10
0.0000
 20
0.0000
 30
0.0000
 40
0.0100
 41
0.0100
  0
VERTEX
  8
SCOTTY_DRD
 10
6.1380
 20
1.0510
 30
0.0000
  0
VERTEX
  8
SCOTTY_DRD
 10
6.0880
 20
1.0010
 30
0.0000
  0
SEQEND
  0
POLYLINE
  8
SCOTTY_DRD
 66
1
 10
0.0000
 20
0.0000
 30
0.0000
 40
0.0100
 41
0.0100
  0
VERTEX
  8
SCOTTY_DRD
 10
6.1380
 20
1.0010
 30
0.0000
  0
VERTEX
  8
SCOTTY_DRD
 10
6.0880
 20
1.0510
 30
0.0000
  0
SEQEND
  0
POLYLINE
  8
SCOTTY_DRD
 66
1
 10
0.0000
 20
0.0000
 30
0.0000
 40
0.0100
 41
0.0100
  0
VERTEX
  8
SCOTTY_DRD
 10
6.0630
 20
0.1050
 30
0.0000
  0
VERTEX
  8
SCOTTY_DRD
 10
6.0130
 20
0.1050
 30
0.0000
  0
SEQEND
  0
POLYLINE
  8
SCOTTY_DRD
 66
1
 10
0.0000
 20
0.0000
 30
0.0000
 40
0.0100
 41
0.0100
  0
VERTEX
  8
SCOTTY_DRD
 10
6.0380
 20
0.1300
 30
0.0000
  0
VERTEX
  8
SCOTTY_DRD
 10
6.0380
 20
0.0800
 30
0.0000
  0
SEQEND
  0
POLYLINE
  8
SCOTTY_DRD
 66
1
 10
0.0000
 20
0.0000
 30
0.0000
 40
0.0100
 41
0.0100
  0
VERTEX
  8
SCOTTY_DRD
 10
2.9297
 20
0.1550
 30
0.0000
  0
VERTEX
  8
SCOTTY_DRD
 10
2.9297
 20
0.0550
 30
0.0000
  0
SEQEND
  0
POLYLINE
  8
SCOTTY_DRD
 66
1
 10
0.0000
 20
0.0000
 30
0.0000
 40
0.0100
 41
0.0100
  0
VERTEX
  8
SCOTTY_DRD
 10
3.0297
 20
0.1550
 30
0.0000
  0
VERTEX
  8
SCOTTY_DRD
 10
2.9297
 20
0.1550
 30
0.0000
  0
SEQEND
  0
POLYLINE
  8
SCOTTY_DRD
 66
1
 10
0.0000
 20
0.0000
 30
0.0000
 40
0.0100
 41
0.0100
  0
VERTEX
  8
SCOTTY_DRD
 10
3.0297
 20
0.0550
 30
0.0000
  0
VERTEX
  8
SCOTTY_DRD
 10
3.0297
 20
0.1550
 30
0.0000
  0
SEQEND
  0
POLYLINE
  8
SCOTTY_DRD
 66
1
 10
0.0000
 20
0.0000
 30
0.0000
 40
0.0100
 41
0.0100
  0
VERTEX
  8
SCOTTY_DRD
 10
2.9297
 20
0.0550
 30
0.0000
  0
VERTEX
  8
SCOTTY_DRD
 10
3.0297
 20
0.0550
 30
0.0000
  0
SEQEND
  0
POLYLINE
  8
SCOTTY_DRD
 66
1
 10
0.0000
 20
0.0000
 30
0.0000
 40
0.0100
 41
0.0100
  0
VERTEX
  8
SCOTTY_DRD
 10
3.0297
 20
0.1050
 30
0.0000
  0
VERTEX
  8
SCOTTY_DRD
 10
2.9297
 20
0.1050
 30
0.0000
  0
SEQEND
  0
POLYLINE
  8
SCOTTY_DRD
 66
1
 10
0.0000
 20
0.0000
 30
0.0000
 40
0.0100
 41
0.0100
  0
VERTEX
  8
SCOTTY_DRD
 10
2.9797
 20
0.1550
 30
0.0000
  0
VERTEX
  8
SCOTTY_DRD
 10
2.9797
 20
0.0550
 30
0.0000
  0
SEQEND
  0
POLYLINE
  8
SCOTTY_DRD
 66
1
 10
0.0000
 20
0.0000
 30
0.0000
 40
0.0100
 41
0.0100
  0
VERTEX
  8
SCOTTY_DRD
 10
2.9297
 20
1.6050
 30
0.0000
  0
VERTEX
  8
SCOTTY_DRD
 10
2.9297
 20
1.5050
 30
0.0000
  0
SEQEND
  0
POLYLINE
  8
SCOTTY_DRD
 66
1
 10
0.0000
 20
0.0000
 30
0.0000
 40
0.0100
 41
0.0100
  0
VERTEX
  8
SCOTTY_DRD
 10
3.0297
 20
1.6050
 30
0.0000
  0
VERTEX
  8
SCOTTY_DRD
 10
2.9297
 20
1.6050
 30
0.0000
  0
SEQEND
  0
POLYLINE
  8
SCOTTY_DRD
 66
1
 10
0.0000
 20
0.0000
 30
0.0000
 40
0.0100
 41
0.0100
  0
VERTEX
  8
SCOTTY_DRD
 10
3.0297
 20
1.5050
 30
0.0000
  0
VERTEX
  8
SCOTTY_DRD
 10
3.0297
 20
1.6050
 30
0.0000
  0
SEQEND
  0
POLYLINE
  8
SCOTTY_DRD
 66
1
 10
0.0000
 20
0.0000
 30
0.0000
 40
0.0100
 41
0.0100
  0
VERTEX
  8
SCOTTY_DRD
 10
2.9297
 20
1.5050
 30
0.0000
  0
VERTEX
  8
SCOTTY_DRD
 10
3.0297
 20
1.5050
 30
0.0000
  0
SEQEND
  0
POLYLINE
  8
SCOTTY_DRD
 66
1
 10
0.0000
 20
0.0000
 30
0.0000
 40
0.0100
 41
0.0100
  0
VERTEX
  8
SCOTTY_DRD
 10
3.0297
 20
1.5550
 30
0.0000
  0
VERTEX
  8
SCOTTY_DRD
 10
2.9297
 20
1.5550
 30
0.0000
  0
SEQEND
  0
POLYLINE
  8
SCOTTY_DRD
 66
1
 10
0.0000
 20
0.0000
 30
0.0000
 40
0.0100
 41
0.0100
  0
VERTEX
  8
SCOTTY_DRD
 10
2.9797
 20
1.6050
 30
0.0000
  0
VERTEX
  8
SCOTTY_DRD
 10
2.9797
 20
1.5050
 30
0.0000
  0
SEQEND
  0
POLYLINE
  8
SCOTTY_DRD
 66
1
 10
0.0000
 20
0.0000
 30
0.0000
 40
0.0100
 41
0.0100
  0
VERTEX
  8
SCOTTY_DRD
 10
5.3100
 20
0.1050
 30
0.0000
  0
VERTEX
  8
SCOTTY_DRD
 10
5.2600
 20
0.1050
 30
0.0000
  0
SEQEND
  0
POLYLINE
  8
SCOTTY_DRD
 66
1
 10
0.0000
 20
0.0000
 30
0.0000
 40
0.0100
 41
0.0100
  0
VERTEX
  8
SCOTTY_DRD
 10
5.2850
 20
0.1300
 30
0.0000
  0
VERTEX
  8
SCOTTY_DRD
 10
5.2850
 20
0.0800
 30
0.0000
  0
SEQEND
  0
POLYLINE
  8
SCOTTY_DRD
 66
1
 10
0.0000
 20
0.0000
 30
0.0000
 40
0.0100
 41
0.0100
  0
VERTEX
  8
SCOTTY_DRD
 10
5.3100
 20
3.6950
 30
0.0000
  0
VERTEX
  8
SCOTTY_DRD
 10
5.2600
 20
3.6950
 30
0.0000
  0
SEQEND
  0
POLYLINE
  8
SCOTTY_DRD
 66
1
 10
0.0000
 20
0.0000
 30
0.0000
 40
0.0100
 41
0.0100
  0
VERTEX
  8
SCOTTY_DRD
 10
5.2850
 20
3.7200
 30
0.0000
  0
VERTEX
  8
SCOTTY_DRD
 10
5.2850
 20
3.6700
 30
0.0000
  0
SEQEND
  0
POLYLINE
  8
SCOTTY_GND
 66
1
 10
0.0000
 20
0.0000
 30
0.0000
 40
0.0100
 41
0.0100
  0
VERTEX
  8
SCOTTY_GND
 10
0.8150
 20
0.0000
 30
0.0000
  0
VERTEX
  8
SCOTTY_GND
 10
2.7650
 20
0.0000
 30
0.0000
  0
VERTEX
  8
SCOTTY_GND
 10
2.7650
 20
3.8000
 30
0.0000
  0
VERTEX
  8
SCOTTY_GND
 10
0.8150
 20
3.8000
 30
0.0000
  0
VERTEX
  8
SCOTTY_GND
 10
0.8150
 20
0.0000
 30
0.0000
  0
SEQEND
  0
POLYLINE
  8
SCOTTY_GND
 66
1
 10
0.0000
 20
0.0000
 30
0.0000
 40
0.0100
 41
0.0100
  0
VERTEX
  8
SCOTTY_GND
 10
0.2750
 20
3.2525
 30
0.0000
 42
0.4142136
  0
VERTEX
  8
SCOTTY_GND
 10
0.2875
 20
3.2650
 30
0.0000
 42
0.0000
  0
SEQEND
  0
POLYLINE
  8
SCOTTY_GND
 66
1
 10
0.0000
 20
0.0000
 30
0.0000
 40
0.0100
 41
0.0100
  0
VERTEX
  8
SCOTTY_GND
 10
0.2625
 20
3.2650
 30
0.0000
 42
0.4142136
  0
VERTEX
  8
SCOTTY_GND
 10
0.2750
 20
3.2525
 30
0.0000
 42
0.0000
  0
SEQEND
  0
POLYLINE
  8
SCOTTY_GND
 66
1
 10
0.0000
 20
0.0000
 30
0.0000
 40
0.0100
 41
0.0100
  0
VERTEX
  8
SCOTTY_GND
 10
0.2750
 20
3.2775
 30
0.0000
 42
0.4142136
  0
VERTEX
  8
SCOTTY_GND
 10
0.2625
 20
3.2650
 30
0.0000
 42
0.0000
  0
SEQEND
  0
POLYLINE
  8
SCOTTY_GND
 66
1
 10
0.0000
 20
0.0000
 30
0.0000
 40
0.0100
 41
0.0100
  0
VERTEX
  8
SCOTTY_GND
 10
0.2875
 20
3.2650
 30
0.0000
 42
0.4142136
  0
VERTEX
  8
SCOTTY_GND
 10
0.2750
 20
3.2775
 30
0.0000
 42
0.0000
  0
SEQEND
  0
POLYLINE
  8
SCOTTY_GND
 66
1
 10
0.0000
 20
0.0000
 30
0.0000
 40
0.0100
 41
0.0100
  0
VERTEX
  8
SCOTTY_GND
 10
0.2250
 20
3.2525
 30
0.0000
 42
0.4142136
  0
VERTEX
  8
SCOTTY_GND
 10
0.2375
 20
3.2650
 30
0.0000
 42
0.0000
  0
SEQEND
  0
POLYLINE
  8
SCOTTY_GND
 66
1
 10
0.0000
 20
0.0000
 30
0.0000
 40
0.0100
 41
0.0100
  0
VERTEX
  8
SCOTTY_GND
 10
0.2125
 20
3.2650
 30
0.0000
 42
0.4142136
  0
VERTEX
  8
SCOTTY_GND
 10
0.2250
 20
3.2525
 30
0.0000
 42
0.0000
  0
SEQEND
  0
POLYLINE
  8
SCOTTY_GND
 66
1
 10
0.0000
 20
0.0000
 30
0.0000
 40
0.0100
 41
0.0100
  0
VERTEX
  8
SCOTTY_GND
 10
0.2250
 20
3.2775
 30
0.0000
 42
0.4142136
  0
VERTEX
  8
SCOTTY_GND
 10
0.2125
 20
3.2650
 30
0.0000
 42
0.0000
  0
SEQEND
  0
POLYLINE
  8
SCOTTY_GND
 66
1
 10
0.0000
 20
0.0000
 30
0.0000
 40
0.0100
 41
0.0100
  0
VERTEX
  8
SCOTTY_GND
 10
0.2375
 20
3.2650
 30
0.0000
 42
0.4142136
  0
VERTEX
  8
SCOTTY_GND
 10
0.2250
 20
3.2775
 30
0.0000
 42
0.0000
  0
SEQEND
  0
POLYLINE
  8
SCOTTY_GND
 66
1
 10
0.0000
 20
0.0000
 30
0.0000
 40
0.0100
 41
0.0100
  0
VERTEX
  8
SCOTTY_GND
 10
0.2250
 20
3.3025
 30
0.0000
 42
0.4142136
  0
VERTEX
  8
SCOTTY_GND
 10
0.2375
 20
3.3150
 30
0.0000
 42
0.0000
  0
SEQEND
  0
POLYLINE
  8
SCOTTY_GND
 66
1
 10
0.0000
 20
0.0000
 30
0.0000
 40
0.0100
 41
0.0100
  0
VERTEX
  8
SCOTTY_GND
 10
0.2125
 20
3.3150
 30
0.0000
 42
0.4142136
  0
VERTEX
  8
SCOTTY_GND
 10
0.2250
 20
3.3025
 30
0.0000
 42
0.0000
  0
SEQEND
  0
POLYLINE
  8
SCOTTY_GND
 66
1
 10
0.0000
 20
0.0000
 30
0.0000
 40
0.0100
 41
0.0100
  0
VERTEX
  8
SCOTTY_GND
 10
0.2250
 20
3.3275
 30
0.0000
 42
0.4142136
  0
VERTEX
  8
SCOTTY_GND
 10
0.2125
 20
3.3150
 30
0.0000
 42
0.0000
  0
SEQEND
  0
POLYLINE
  8
SCOTTY_GND
 66
1
 10
0.0000
 20
0.0000
 30
0.0000
 40
0.0100
 41
0.0100
  0
VERTEX
  8
SCOTTY_GND
 10
0.2375
 20
3.3150
 30
0.0000
 42
0.4142136
  0
VERTEX
  8
SCOTTY_GND
 10
0.2250
 20
3.3275
 30
0.0000
 42
0.0000
  0
SEQEND
  0
POLYLINE
  8
SCOTTY_GND
 66
1
 10
0.0000
 20
0.0000
 30
0.0000
 40
0.0100
 41
0.0100
  0
VERTEX
  8
SCOTTY_GND
 10
0.2750
 20
3.3025
 30
0.0000
 42
0.4142136
  0
VERTEX
  8
SCOTTY_GND
 10
0.2875
 20
3.3150
 30
0.0000
 42
0.0000
  0
SEQEND
  0
POLYLINE
  8
SCOTTY_GND
 66
1
 10
0.0000
 20
0.0000
 30
0.0000
 40
0.0100
 41
0.0100
  0
VERTEX
  8
SCOTTY_GND
 10
0.2625
 20
3.3150
 30
0.0000
 42
0.4142136
  0
VERTEX
  8
SCOTTY_GND
 10
0.2750
 20
3.3025
 30
0.0000
 42
0.0000
  0
SEQEND
  0
POLYLINE
  8
SCOTTY_GND
 66
1
 10
0.0000
 20
0.0000
 30
0.0000
 40
0.0100
 41
0.0100
  0
VERTEX
  8
SCOTTY_GND
 10
0.2750
 20
3.3275
 30
0.0000
 42
0.4142136
  0
VERTEX
  8
SCOTTY_GND
 10
0.2625
 20
3.3150
 30
0.0000
 42
0.0000
  0
SEQEND
  0
POLYLINE
  8
SCOTTY_GND
 66
1
 10
0.0000
 20
0.0000
 30
0.0000
 40
0.0100
 41
0.0100
  0
VERTEX
  8
SCOTTY_GND
 10
0.2875
 20
3.3150
 30
0.0000
 42
0.4142136
  0
VERTEX
  8
SCOTTY_GND
 10
0.2750
 20
3.3275
 30
0.0000
 42
0.0000
  0
SEQEND
  0
POLYLINE
  8
SCOTTY_GND
 66
1
 10
0.0000
 20
0.0000
 30
0.0000
 40
0.0100
 41
0.0100
  0
VERTEX
  8
SCOTTY_GND
 10
0.3000
 20
3.2775
 30
0.0000
 42
0.4142136
  0
VERTEX
  8
SCOTTY_GND
 10
0.3125
 20
3.2900
 30
0.0000
 42
0.0000
  0
SEQEND
  0
POLYLINE
  8
SCOTTY_GND
 66
1
 10
0.0000
 20
0.0000
 30
0.0000
 40
0.0100
 41
0.0100
  0
VERTEX
  8
SCOTTY_GND
 10
0.2875
 20
3.2900
 30
0.0000
 42
0.4142136
  0
VERTEX
  8
SCOTTY_GND
 10
0.3000
 20
3.2775
 30
0.0000
 42
0.0000
  0
SEQEND
  0
POLYLINE
  8
SCOTTY_GND
 66
1
 10
0.0000
 20
0.0000
 30
0.0000
 40
0.0100
 41
0.0100
  0
VERTEX
  8
SCOTTY_GND
 10
0.3000
 20
3.3025
 30
0.0000
 42
0.4142136
  0
VERTEX
  8
SCOTTY_GND
 10
0.2875
 20
3.2900
 30
0.0000
 42
0.0000
  0
SEQEND
  0
POLYLINE
  8
SCOTTY_GND
 66
1
 10
0.0000
 20
0.0000
 30
0.0000
 40
0.0100
 41
0.0100
  0
VERTEX
  8
SCOTTY_GND
 10
0.3125
 20
3.2900
 30
0.0000
 42
0.4142136
  0
VERTEX
  8
SCOTTY_GND
 10
0.3000
 20
3.3025
 30
0.0000
 42
0.0000
  0
SEQEND
  0
POLYLINE
  8
SCOTTY_GND
 66
1
 10
0.0000
 20
0.0000
 30
0.0000
 40
0.0100
 41
0.0100
  0
VERTEX
  8
SCOTTY_GND
 10
0.2500
 20
3.2775
 30
0.0000
 42
0.4142136
  0
VERTEX
  8
SCOTTY_GND
 10
0.2625
 20
3.2900
 30
0.0000
 42
0.0000
  0
SEQEND
  0
POLYLINE
  8
SCOTTY_GND
 66
1
 10
0.0000
 20
0.0000
 30
0.0000
 40
0.0100
 41
0.0100
  0
VERTEX
  8
SCOTTY_GND
 10
0.2375
 20
3.2900
 30
0.0000
 42
0.4142136
  0
VERTEX
  8
SCOTTY_GND
 10
0.2500
 20
3.2775
 30
0.0000
 42
0.0000
  0
SEQEND
  0
POLYLINE
  8
SCOTTY_GND
 66
1
 10
0.0000
 20
0.0000
 30
0.0000
 40
0.0100
 41
0.0100
  0
VERTEX
  8
SCOTTY_GND
 10
0.2500
 20
3.3025
 30
0.0000
 42
0.4142136
  0
VERTEX
  8
SCOTTY_GND
 10
0.2375
 20
3.2900
 30
0.0000
 42
0.0000
  0
SEQEND
  0
POLYLINE
  8
SCOTTY_GND
 66
1
 10
0.0000
 20
0.0000
 30
0.0000
 40
0.0100
 41
0.0100
  0
VERTEX
  8
SCOTTY_GND
 10
0.2625
 20
3.2900
 30
0.0000
 42
0.4142136
  0
VERTEX
  8
SCOTTY_GND
 10
0.2500
 20
3.3025
 30
0.0000
 42
0.0000
  0
SEQEND
  0
POLYLINE
  8
SCOTTY_GND
 66
1
 10
0.0000
 20
0.0000
 30
0.0000
 40
0.0100
 41
0.0100
  0
VERTEX
  8
SCOTTY_GND
 10
0.3250
 20
3.3025
 30
0.0000
 42
0.4142136
  0
VERTEX
  8
SCOTTY_GND
 10
0.3375
 20
3.3150
 30
0.0000
 42
0.0000
  0
SEQEND
  0
POLYLINE
  8
SCOTTY_GND
 66
1
 10
0.0000
 20
0.0000
 30
0.0000
 40
0.0100
 41
0.0100
  0
VERTEX
  8
SCOTTY_GND
 10
0.3125
 20
3.3150
 30
0.0000
 42
0.4142136
  0
VERTEX
  8
SCOTTY_GND
 10
0.3250
 20
3.3025
 30
0.0000
 42
0.0000
  0
SEQEND
  0
POLYLINE
  8
SCOTTY_GND
 66
1
 10
0.0000
 20
0.0000
 30
0.0000
 40
0.0100
 41
0.0100
  0
VERTEX
  8
SCOTTY_GND
 10
0.3250
 20
3.3275
 30
0.0000
 42
0.4142136
  0
VERTEX
  8
SCOTTY_GND
 10
0.3125
 20
3.3150
 30
0.0000
 42
0.0000
  0
SEQEND
  0
POLYLINE
  8
SCOTTY_GND
 66
1
 10
0.0000
 20
0.0000
 30
0.0000
 40
0.0100
 41
0.0100
  0
VERTEX
  8
SCOTTY_GND
 10
0.3375
 20
3.3150
 30
0.0000
 42
0.4142136
  0
VERTEX
  8
SCOTTY_GND
 10
0.3250
 20
3.3275
 30
0.0000
 42
0.0000
  0
SEQEND
  0
POLYLINE
  8
SCOTTY_GND
 66
1
 10
0.0000
 20
0.0000
 30
0.0000
 40
0.0100
 41
0.0100
  0
VERTEX
  8
SCOTTY_GND
 10
0.3250
 20
0.4725
 30
0.0000
 42
0.4142136
  0
VERTEX
  8
SCOTTY_GND
 10
0.3375
 20
0.4850
 30
0.0000
 42
0.0000
  0
SEQEND
  0
POLYLINE
  8
SCOTTY_GND
 66
1
 10
0.0000
 20
0.0000
 30
0.0000
 40
0.0100
 41
0.0100
  0
VERTEX
  8
SCOTTY_GND
 10
0.3125
 20
0.4850
 30
0.0000
 42
0.4142136
  0
VERTEX
  8
SCOTTY_GND
 10
0.3250
 20
0.4725
 30
0.0000
 42
0.0000
  0
SEQEND
  0
POLYLINE
  8
SCOTTY_GND
 66
1
 10
0.0000
 20
0.0000
 30
0.0000
 40
0.0100
 41
0.0100
  0
VERTEX
  8
SCOTTY_GND
 10
0.3250
 20
0.4975
 30
0.0000
 42
0.4142136
  0
VERTEX
  8
SCOTTY_GND
 10
0.3125
 20
0.4850
 30
0.0000
 42
0.0000
  0
SEQEND
  0
POLYLINE
  8
SCOTTY_GND
 66
1
 10
0.0000
 20
0.0000
 30
0.0000
 40
0.0100
 41
0.0100
  0
VERTEX
  8
SCOTTY_GND
 10
0.3375
 20
0.4850
 30
0.0000
 42
0.4142136
  0
VERTEX
  8
SCOTTY_GND
 10
0.3250
 20
0.4975
 30
0.0000
 42
0.0000
  0
SEQEND
  0
POLYLINE
  8
SCOTTY_GND
 66
1
 10
0.0000
 20
0.0000
 30
0.0000
 40
0.0100
 41
0.0100
  0
VERTEX
  8
SCOTTY_GND
 10
0.2750
 20
0.4725
 30
0.0000
 42
0.4142136
  0
VERTEX
  8
SCOTTY_GND
 10
0.2875
 20
0.4850
 30
0.0000
 42
0.0000
  0
SEQEND
  0
POLYLINE
  8
SCOTTY_GND
 66
1
 10
0.0000
 20
0.0000
 30
0.0000
 40
0.0100
 41
0.0100
  0
VERTEX
  8
SCOTTY_GND
 10
0.2625
 20
0.4850
 30
0.0000
 42
0.4142136
  0
VERTEX
  8
SCOTTY_GND
 10
0.2750
 20
0.4725
 30
0.0000
 42
0.0000
  0
SEQEND
  0
POLYLINE
  8
SCOTTY_GND
 66
1
 10
0.0000
 20
0.0000
 30
0.0000
 40
0.0100
 41
0.0100
  0
VERTEX
  8
SCOTTY_GND
 10
0.2750
 20
0.4975
 30
0.0000
 42
0.4142136
  0
VERTEX
  8
SCOTTY_GND
 10
0.2625
 20
0.4850
 30
0.0000
 42
0.0000
  0
SEQEND
  0
POLYLINE
  8
SCOTTY_GND
 66
1
 10
0.0000
 20
0.0000
 30
0.0000
 40
0.0100
 41
0.0100
  0
VERTEX
  8
SCOTTY_GND
 10
0.2875
 20
0.4850
 30
0.0000
 42
0.4142136
  0
VERTEX
  8
SCOTTY_GND
 10
0.2750
 20
0.4975
 30
0.0000
 42
0.0000
  0
SEQEND
  0
POLYLINE
  8
SCOTTY_GND
 66
1
 10
0.0000
 20
0.0000
 30
0.0000
 40
0.0100
 41
0.0100
  0
VERTEX
  8
SCOTTY_GND
 10
0.2250
 20
0.4725
 30
0.0000
 42
0.4142136
  0
VERTEX
  8
SCOTTY_GND
 10
0.2375
 20
0.4850
 30
0.0000
 42
0.0000
  0
SEQEND
  0
POLYLINE
  8
SCOTTY_GND
 66
1
 10
0.0000
 20
0.0000
 30
0.0000
 40
0.0100
 41
0.0100
  0
VERTEX
  8
SCOTTY_GND
 10
0.2125
 20
0.4850
 30
0.0000
 42
0.4142136
  0
VERTEX
  8
SCOTTY_GND
 10
0.2250
 20
0.4725
 30
0.0000
 42
0.0000
  0
SEQEND
  0
POLYLINE
  8
SCOTTY_GND
 66
1
 10
0.0000
 20
0.0000
 30
0.0000
 40
0.0100
 41
0.0100
  0
VERTEX
  8
SCOTTY_GND
 10
0.2250
 20
0.4975
 30
0.0000
 42
0.4142136
  0
VERTEX
  8
SCOTTY_GND
 10
0.2125
 20
0.4850
 30
0.0000
 42
0.0000
  0
SEQEND
  0
POLYLINE
  8
SCOTTY_GND
 66
1
 10
0.0000
 20
0.0000
 30
0.0000
 40
0.0100
 41
0.0100
  0
VERTEX
  8
SCOTTY_GND
 10
0.2375
 20
0.4850
 30
0.0000
 42
0.4142136
  0
VERTEX
  8
SCOTTY_GND
 10
0.2250
 20
0.4975
 30
0.0000
 42
0.0000
  0
SEQEND
  0
POLYLINE
  8
SCOTTY_GND
 66
1
 10
0.0000
 20
0.0000
 30
0.0000
 40
0.0100
 41
0.0100
  0
VERTEX
  8
SCOTTY_GND
 10
0.2250
 20
0.5225
 30
0.0000
 42
0.4142136
  0
VERTEX
  8
SCOTTY_GND
 10
0.2375
 20
0.5350
 30
0.0000
 42
0.0000
  0
SEQEND
  0
POLYLINE
  8
SCOTTY_GND
 66
1
 10
0.0000
 20
0.0000
 30
0.0000
 40
0.0100
 41
0.0100
  0
VERTEX
  8
SCOTTY_GND
 10
0.2125
 20
0.5350
 30
0.0000
 42
0.4142136
  0
VERTEX
  8
SCOTTY_GND
 10
0.2250
 20
0.5225
 30
0.0000
 42
0.0000
  0
SEQEND
  0
POLYLINE
  8
SCOTTY_GND
 66
1
 10
0.0000
 20
0.0000
 30
0.0000
 40
0.0100
 41
0.0100
  0
VERTEX
  8
SCOTTY_GND
 10
0.2250
 20
0.5475
 30
0.0000
 42
0.4142136
  0
VERTEX
  8
SCOTTY_GND
 10
0.2125
 20
0.5350
 30
0.0000
 42
0.0000
  0
SEQEND
  0
POLYLINE
  8
SCOTTY_GND
 66
1
 10
0.0000
 20
0.0000
 30
0.0000
 40
0.0100
 41
0.0100
  0
VERTEX
  8
SCOTTY_GND
 10
0.2375
 20
0.5350
 30
0.0000
 42
0.4142136
  0
VERTEX
  8
SCOTTY_GND
 10
0.2250
 20
0.5475
 30
0.0000
 42
0.0000
  0
SEQEND
  0
POLYLINE
  8
SCOTTY_GND
 66
1
 10
0.0000
 20
0.0000
 30
0.0000
 40
0.0100
 41
0.0100
  0
VERTEX
  8
SCOTTY_GND
 10
0.2750
 20
0.5225
 30
0.0000
 42
0.4142136
  0
VERTEX
  8
SCOTTY_GND
 10
0.2875
 20
0.5350
 30
0.0000
 42
0.0000
  0
SEQEND
  0
POLYLINE
  8
SCOTTY_GND
 66
1
 10
0.0000
 20
0.0000
 30
0.0000
 40
0.0100
 41
0.0100
  0
VERTEX
  8
SCOTTY_GND
 10
0.2625
 20
0.5350
 30
0.0000
 42
0.4142136
  0
VERTEX
  8
SCOTTY_GND
 10
0.2750
 20
0.5225
 30
0.0000
 42
0.0000
  0
SEQEND
  0
POLYLINE
  8
SCOTTY_GND
 66
1
 10
0.0000
 20
0.0000
 30
0.0000
 40
0.0100
 41
0.0100
  0
VERTEX
  8
SCOTTY_GND
 10
0.2750
 20
0.5475
 30
0.0000
 42
0.4142136
  0
VERTEX
  8
SCOTTY_GND
 10
0.2625
 20
0.5350
 30
0.0000
 42
0.0000
  0
SEQEND
  0
POLYLINE
  8
SCOTTY_GND
 66
1
 10
0.0000
 20
0.0000
 30
0.0000
 40
0.0100
 41
0.0100
  0
VERTEX
  8
SCOTTY_GND
 10
0.2875
 20
0.5350
 30
0.0000
 42
0.4142136
  0
VERTEX
  8
SCOTTY_GND
 10
0.2750
 20
0.5475
 30
0.0000
 42
0.0000
  0
SEQEND
  0
POLYLINE
  8
SCOTTY_GND
 66
1
 10
0.0000
 20
0.0000
 30
0.0000
 40
0.0100
 41
0.0100
  0
VERTEX
  8
SCOTTY_GND
 10
0.3000
 20
0.4975
 30
0.0000
 42
0.4142136
  0
VERTEX
  8
SCOTTY_GND
 10
0.3125
 20
0.5100
 30
0.0000
 42
0.0000
  0
SEQEND
  0
POLYLINE
  8
SCOTTY_GND
 66
1
 10
0.0000
 20
0.0000
 30
0.0000
 40
0.0100
 41
0.0100
  0
VERTEX
  8
SCOTTY_GND
 10
0.2875
 20
0.5100
 30
0.0000
 42
0.4142136
  0
VERTEX
  8
SCOTTY_GND
 10
0.3000
 20
0.4975
 30
0.0000
 42
0.0000
  0
SEQEND
  0
POLYLINE
  8
SCOTTY_GND
 66
1
 10
0.0000
 20
0.0000
 30
0.0000
 40
0.0100
 41
0.0100
  0
VERTEX
  8
SCOTTY_GND
 10
0.3000
 20
0.5225
 30
0.0000
 42
0.4142136
  0
VERTEX
  8
SCOTTY_GND
 10
0.2875
 20
0.5100
 30
0.0000
 42
0.0000
  0
SEQEND
  0
POLYLINE
  8
SCOTTY_GND
 66
1
 10
0.0000
 20
0.0000
 30
0.0000
 40
0.0100
 41
0.0100
  0
VERTEX
  8
SCOTTY_GND
 10
0.3125
 20
0.5100
 30
0.0000
 42
0.4142136
  0
VERTEX
  8
SCOTTY_GND
 10
0.3000
 20
0.5225
 30
0.0000
 42
0.0000
  0
SEQEND
  0
POLYLINE
  8
SCOTTY_GND
 66
1
 10
0.0000
 20
0.0000
 30
0.0000
 40
0.0100
 41
0.0100
  0
VERTEX
  8
SCOTTY_GND
 10
0.2500
 20
0.4975
 30
0.0000
 42
0.4142136
  0
VERTEX
  8
SCOTTY_GND
 10
0.2625
 20
0.5100
 30
0.0000
 42
0.0000
  0
SEQEND
  0
POLYLINE
  8
SCOTTY_GND
 66
1
 10
0.0000
 20
0.0000
 30
0.0000
 40
0.0100
 41
0.0100
  0
VERTEX
  8
SCOTTY_GND
 10
0.2375
 20
0.5100
 30
0.0000
 42
0.4142136
  0
VERTEX
  8
SCOTTY_GND
 10
0.2500
 20
0.4975
 30
0.0000
 42
0.0000
  0
SEQEND
  0
POLYLINE
  8
SCOTTY_GND
 66
1
 10
0.0000
 20
0.0000
 30
0.0000
 40
0.0100
 41
0.0100
  0
VERTEX
  8
SCOTTY_GND
 10
0.2500
 20
0.5225
 30
0.0000
 42
0.4142136
  0
VERTEX
  8
SCOTTY_GND
 10
0.2375
 20
0.5100
 30
0.0000
 42
0.0000
  0
SEQEND
  0
POLYLINE
  8
SCOTTY_GND
 66
1
 10
0.0000
 20
0.0000
 30
0.0000
 40
0.0100
 41
0.0100
  0
VERTEX
  8
SCOTTY_GND
 10
0.2625
 20
0.5100
 30
0.0000
 42
0.4142136
  0
VERTEX
  8
SCOTTY_GND
 10
0.2500
 20
0.5225
 30
0.0000
 42
0.0000
  0
SEQEND
  0
POLYLINE
  8
SCOTTY_GND
 66
1
 10
0.0000
 20
0.0000
 30
0.0000
 40
0.0100
 41
0.0100
  0
VERTEX
  8
SCOTTY_GND
 10
0.3250
 20
0.5225
 30
0.0000
 42
0.4142136
  0
VERTEX
  8
SCOTTY_GND
 10
0.3375
 20
0.5350
 30
0.0000
 42
0.0000
  0
SEQEND
  0
POLYLINE
  8
SCOTTY_GND
 66
1
 10
0.0000
 20
0.0000
 30
0.0000
 40
0.0100
 41
0.0100
  0
VERTEX
  8
SCOTTY_GND
 10
0.3125
 20
0.5350
 30
0.0000
 42
0.4142136
  0
VERTEX
  8
SCOTTY_GND
 10
0.3250
 20
0.5225
 30
0.0000
 42
0.0000
  0
SEQEND
  0
POLYLINE
  8
SCOTTY_GND
 66
1
 10
0.0000
 20
0.0000
 30
0.0000
 40
0.0100
 41
0.0100
  0
VERTEX
  8
SCOTTY_GND
 10
0.3250
 20
0.5475
 30
0.0000
 42
0.4142136
  0
VERTEX
  8
SCOTTY_GND
 10
0.3125
 20
0.5350
 30
0.0000
 42
0.0000
  0
SEQEND
  0
POLYLINE
  8
SCOTTY_GND
 66
1
 10
0.0000
 20
0.0000
 30
0.0000
 40
0.0100
 41
0.0100
  0
VERTEX
  8
SCOTTY_GND
 10
0.3375
 20
0.5350
 30
0.0000
 42
0.4142136
  0
VERTEX
  8
SCOTTY_GND
 10
0.3250
 20
0.5475
 30
0.0000
 42
0.0000
  0
SEQEND
  0
POLYLINE
  8
SCOTTY_GND
 66
1
 10
0.0000
 20
0.0000
 30
0.0000
 40
0.0100
 41
0.0100
  0
VERTEX
  8
SCOTTY_GND
 10
0.7000
 20
1.0775
 30
0.0000
 42
0.4142136
  0
VERTEX
  8
SCOTTY_GND
 10
0.7005
 20
1.0780
 30
0.0000
 42
0.0000
  0
SEQEND
  0
POLYLINE
  8
SCOTTY_GND
 66
1
 10
0.0000
 20
0.0000
 30
0.0000
 40
0.0100
 41
0.0100
  0
VERTEX
  8
SCOTTY_GND
 10
0.6995
 20
1.0780
 30
0.0000
 42
0.4142136
  0
VERTEX
  8
SCOTTY_GND
 10
0.7000
 20
1.0775
 30
0.0000
 42
0.0000
  0
SEQEND
  0
POLYLINE
  8
SCOTTY_GND
 66
1
 10
0.0000
 20
0.0000
 30
0.0000
 40
0.0100
 41
0.0100
  0
VERTEX
  8
SCOTTY_GND
 10
0.7000
 20
1.0785
 30
0.0000
 42
0.4142136
  0
VERTEX
  8
SCOTTY_GND
 10
0.6995
 20
1.0780
 30
0.0000
 42
0.0000
  0
SEQEND
  0
POLYLINE
  8
SCOTTY_GND
 66
1
 10
0.0000
 20
0.0000
 30
0.0000
 40
0.0100
 41
0.0100
  0
VERTEX
  8
SCOTTY_GND
 10
0.7005
 20
1.0780
 30
0.0000
 42
0.4142136
  0
VERTEX
  8
SCOTTY_GND
 10
0.7000
 20
1.0785
 30
0.0000
 42
0.0000
  0
SEQEND
  0
POLYLINE
  8
SCOTTY_GND
 66
1
 10
0.0000
 20
0.0000
 30
0.0000
 40
0.0100
 41
0.0100
  0
VERTEX
  8
SCOTTY_GND
 10
0.4500
 20
1.0775
 30
0.0000
 42
0.4142136
  0
VERTEX
  8
SCOTTY_GND
 10
0.4505
 20
1.0780
 30
0.0000
 42
0.0000
  0
SEQEND
  0
POLYLINE
  8
SCOTTY_GND
 66
1
 10
0.0000
 20
0.0000
 30
0.0000
 40
0.0100
 41
0.0100
  0
VERTEX
  8
SCOTTY_GND
 10
0.4495
 20
1.0780
 30
0.0000
 42
0.4142136
  0
VERTEX
  8
SCOTTY_GND
 10
0.4500
 20
1.0775
 30
0.0000
 42
0.0000
  0
SEQEND
  0
POLYLINE
  8
SCOTTY_GND
 66
1
 10
0.0000
 20
0.0000
 30
0.0000
 40
0.0100
 41
0.0100
  0
VERTEX
  8
SCOTTY_GND
 10
0.4500
 20
1.0785
 30
0.0000
 42
0.4142136
  0
VERTEX
  8
SCOTTY_GND
 10
0.4495
 20
1.0780
 30
0.0000
 42
0.0000
  0
SEQEND
  0
POLYLINE
  8
SCOTTY_GND
 66
1
 10
0.0000
 20
0.0000
 30
0.0000
 40
0.0100
 41
0.0100
  0
VERTEX
  8
SCOTTY_GND
 10
0.4505
 20
1.0780
 30
0.0000
 42
0.4142136
  0
VERTEX
  8
SCOTTY_GND
 10
0.4500
 20
1.0785
 30
0.0000
 42
0.0000
  0
SEQEND
  0
POLYLINE
  8
SCOTTY_GND
 66
1
 10
0.0000
 20
0.0000
 30
0.0000
 40
0.0100
 41
0.0100
  0
VERTEX
  8
SCOTTY_GND
 10
0.7000
 20
1.8525
 30
0.0000
 42
0.4142136
  0
VERTEX
  8
SCOTTY_GND
 10
0.7005
 20
1.8530
 30
0.0000
 42
0.0000
  0
SEQEND
  0
POLYLINE
  8
SCOTTY_GND
 66
1
 10
0.0000
 20
0.0000
 30
0.0000
 40
0.0100
 41
0.0100
  0
VERTEX
  8
SCOTTY_GND
 10
0.6995
 20
1.8530
 30
0.0000
 42
0.4142136
  0
VERTEX
  8
SCOTTY_GND
 10
0.7000
 20
1.8525
 30
0.0000
 42
0.0000
  0
SEQEND
  0
POLYLINE
  8
SCOTTY_GND
 66
1
 10
0.0000
 20
0.0000
 30
0.0000
 40
0.0100
 41
0.0100
  0
VERTEX
  8
SCOTTY_GND
 10
0.7000
 20
1.8535
 30
0.0000
 42
0.4142136
  0
VERTEX
  8
SCOTTY_GND
 10
0.6995
 20
1.8530
 30
0.0000
 42
0.0000
  0
SEQEND
  0
POLYLINE
  8
SCOTTY_GND
 66
1
 10
0.0000
 20
0.0000
 30
0.0000
 40
0.0100
 41
0.0100
  0
VERTEX
  8
SCOTTY_GND
 10
0.7005
 20
1.8530
 30
0.0000
 42
0.4142136
  0
VERTEX
  8
SCOTTY_GND
 10
0.7000
 20
1.8535
 30
0.0000
 42
0.0000
  0
SEQEND
  0
POLYLINE
  8
SCOTTY_GND
 66
1
 10
0.0000
 20
0.0000
 30
0.0000
 40
0.0100
 41
0.0100
  0
VERTEX
  8
SCOTTY_GND
 10
0.4500
 20
1.8525
 30
0.0000
 42
0.4142136
  0
VERTEX
  8
SCOTTY_GND
 10
0.4505
 20
1.8530
 30
0.0000
 42
0.0000
  0
SEQEND
  0
POLYLINE
  8
SCOTTY_GND
 66
1
 10
0.0000
 20
0.0000
 30
0.0000
 40
0.0100
 41
0.0100
  0
VERTEX
  8
SCOTTY_GND
 10
0.4495
 20
1.8530
 30
0.0000
 42
0.4142136
  0
VERTEX
  8
SCOTTY_GND
 10
0.4500
 20
1.8525
 30
0.0000
 42
0.0000
  0
SEQEND
  0
POLYLINE
  8
SCOTTY_GND
 66
1
 10
0.0000
 20
0.0000
 30
0.0000
 40
0.0100
 41
0.0100
  0
VERTEX
  8
SCOTTY_GND
 10
0.4500
 20
1.8535
 30
0.0000
 42
0.4142136
  0
VERTEX
  8
SCOTTY_GND
 10
0.4495
 20
1.8530
 30
0.0000
 42
0.0000
  0
SEQEND
  0
POLYLINE
  8
SCOTTY_GND
 66
1
 10
0.0000
 20
0.0000
 30
0.0000
 40
0.0100
 41
0.0100
  0
VERTEX
  8
SCOTTY_GND
 10
0.4505
 20
1.8530
 30
0.0000
 42
0.4142136
  0
VERTEX
  8
SCOTTY_GND
 10
0.4500
 20
1.8535
 30
0.0000
 42
0.0000
  0
SEQEND
  0
POLYLINE
  8
SCOTTY_GND
 66
1
 10
0.0000
 20
0.0000
 30
0.0000
 40
0.0100
 41
0.0100
  0
VERTEX
  8
SCOTTY_GND
 10
0.4500
 20
2.6275
 30
0.0000
 42
0.4142136
  0
VERTEX
  8
SCOTTY_GND
 10
0.4505
 20
2.6280
 30
0.0000
 42
0.0000
  0
SEQEND
  0
POLYLINE
  8
SCOTTY_GND
 66
1
 10
0.0000
 20
0.0000
 30
0.0000
 40
0.0100
 41
0.0100
  0
VERTEX
  8
SCOTTY_GND
 10
0.4495
 20
2.6280
 30
0.0000
 42
0.4142136
  0
VERTEX
  8
SCOTTY_GND
 10
0.4500
 20
2.6275
 30
0.0000
 42
0.0000
  0
SEQEND
  0
POLYLINE
  8
SCOTTY_GND
 66
1
 10
0.0000
 20
0.0000
 30
0.0000
 40
0.0100
 41
0.0100
  0
VERTEX
  8
SCOTTY_GND
 10
0.4500
 20
2.6285
 30
0.0000
 42
0.4142136
  0
VERTEX
  8
SCOTTY_GND
 10
0.4495
 20
2.6280
 30
0.0000
 42
0.0000
  0
SEQEND
  0
POLYLINE
  8
SCOTTY_GND
 66
1
 10
0.0000
 20
0.0000
 30
0.0000
 40
0.0100
 41
0.0100
  0
VERTEX
  8
SCOTTY_GND
 10
0.4505
 20
2.6280
 30
0.0000
 42
0.4142136
  0
VERTEX
  8
SCOTTY_GND
 10
0.4500
 20
2.6285
 30
0.0000
 42
0.0000
  0
SEQEND
  0
POLYLINE
  8
SCOTTY_GND
 66
1
 10
0.0000
 20
0.0000
 30
0.0000
 40
0.0100
 41
0.0100
  0
VERTEX
  8
SCOTTY_GND
 10
0.7000
 20
2.6275
 30
0.0000
 42
0.4142136
  0
VERTEX
  8
SCOTTY_GND
 10
0.7005
 20
2.6280
 30
0.0000
 42
0.0000
  0
SEQEND
  0
POLYLINE
  8
SCOTTY_GND
 66
1
 10
0.0000
 20
0.0000
 30
0.0000
 40
0.0100
 41
0.0100
  0
VERTEX
  8
SCOTTY_GND
 10
0.6995
 20
2.6280
 30
0.0000
 42
0.4142136
  0
VERTEX
  8
SCOTTY_GND
 10
0.7000
 20
2.6275
 30
0.0000
 42
0.0000
  0
SEQEND
  0
POLYLINE
  8
SCOTTY_GND
 66
1
 10
0.0000
 20
0.0000
 30
0.0000
 40
0.0100
 41
0.0100
  0
VERTEX
  8
SCOTTY_GND
 10
0.7000
 20
2.6285
 30
0.0000
 42
0.4142136
  0
VERTEX
  8
SCOTTY_GND
 10
0.6995
 20
2.6280
 30
0.0000
 42
0.0000
  0
SEQEND
  0
POLYLINE
  8
SCOTTY_GND
 66
1
 10
0.0000
 20
0.0000
 30
0.0000
 40
0.0100
 41
0.0100
  0
VERTEX
  8
SCOTTY_GND
 10
0.7005
 20
2.6280
 30
0.0000
 42
0.4142136
  0
VERTEX
  8
SCOTTY_GND
 10
0.7000
 20
2.6285
 30
0.0000
 42
0.0000
  0
SEQEND
  0
POLYLINE
  8
SCOTTY_GND
 66
1
 10
0.0000
 20
0.0000
 30
0.0000
 40
0.0100
 41
0.0100
  0
VERTEX
  8
SCOTTY_GND
 10
0.4500
 20
3.4025
 30
0.0000
 42
0.4142136
  0
VERTEX
  8
SCOTTY_GND
 10
0.4505
 20
3.4030
 30
0.0000
 42
0.0000
  0
SEQEND
  0
POLYLINE
  8
SCOTTY_GND
 66
1
 10
0.0000
 20
0.0000
 30
0.0000
 40
0.0100
 41
0.0100
  0
VERTEX
  8
SCOTTY_GND
 10
0.4495
 20
3.4030
 30
0.0000
 42
0.4142136
  0
VERTEX
  8
SCOTTY_GND
 10
0.4500
 20
3.4025
 30
0.0000
 42
0.0000
  0
SEQEND
  0
POLYLINE
  8
SCOTTY_GND
 66
1
 10
0.0000
 20
0.0000
 30
0.0000
 40
0.0100
 41
0.0100
  0
VERTEX
  8
SCOTTY_GND
 10
0.4500
 20
3.4035
 30
0.0000
 42
0.4142136
  0
VERTEX
  8
SCOTTY_GND
 10
0.4495
 20
3.4030
 30
0.0000
 42
0.0000
  0
SEQEND
  0
POLYLINE
  8
SCOTTY_GND
 66
1
 10
0.0000
 20
0.0000
 30
0.0000
 40
0.0100
 41
0.0100
  0
VERTEX
  8
SCOTTY_GND
 10
0.4505
 20
3.4030
 30
0.0000
 42
0.4142136
  0
VERTEX
  8
SCOTTY_GND
 10
0.4500
 20
3.4035
 30
0.0000
 42
0.0000
  0
SEQEND
  0
POLYLINE
  8
SCOTTY_GND
 66
1
 10
0.0000
 20
0.0000
 30
0.0000
 40
0.0100
 41
0.0100
  0
VERTEX
  8
SCOTTY_GND
 10
0.7000
 20
3.4025
 30
0.0000
 42
0.4142136
  0
VERTEX
  8
SCOTTY_GND
 10
0.7005
 20
3.4030
 30
0.0000
 42
0.0000
  0
SEQEND
  0
POLYLINE
  8
SCOTTY_GND
 66
1
 10
0.0000
 20
0.0000
 30
0.0000
 40
0.0100
 41
0.0100
  0
VERTEX
  8
SCOTTY_GND
 10
0.6995
 20
3.4030
 30
0.0000
 42
0.4142136
  0
VERTEX
  8
SCOTTY_GND
 10
0.7000
 20
3.4025
 30
0.0000
 42
0.0000
  0
SEQEND
  0
POLYLINE
  8
SCOTTY_GND
 66
1
 10
0.0000
 20
0.0000
 30
0.0000
 40
0.0100
 41
0.0100
  0
VERTEX
  8
SCOTTY_GND
 10
0.7000
 20
3.4035
 30
0.0000
 42
0.4142136
  0
VERTEX
  8
SCOTTY_GND
 10
0.6995
 20
3.4030
 30
0.0000
 42
0.0000
  0
SEQEND
  0
POLYLINE
  8
SCOTTY_GND
 66
1
 10
0.0000
 20
0.0000
 30
0.0000
 40
0.0100
 41
0.0100
  0
VERTEX
  8
SCOTTY_GND
 10
0.7005
 20
3.4030
 30
0.0000
 42
0.4142136
  0
VERTEX
  8
SCOTTY_GND
 10
0.7000
 20
3.4035
 30
0.0000
 42
0.0000
  0
SEQEND
  0
POLYLINE
  8
SCOTTY_GND
 66
1
 10
0.0000
 20
0.0000
 30
0.0000
 40
0.0100
 41
0.0100
  0
VERTEX
  8
SCOTTY_GND
 10
0.4500
 20
0.3025
 30
0.0000
 42
0.4142136
  0
VERTEX
  8
SCOTTY_GND
 10
0.4505
 20
0.3030
 30
0.0000
 42
0.0000
  0
SEQEND
  0
POLYLINE
  8
SCOTTY_GND
 66
1
 10
0.0000
 20
0.0000
 30
0.0000
 40
0.0100
 41
0.0100
  0
VERTEX
  8
SCOTTY_GND
 10
0.4495
 20
0.3030
 30
0.0000
 42
0.4142136
  0
VERTEX
  8
SCOTTY_GND
 10
0.4500
 20
0.3025
 30
0.0000
 42
0.0000
  0
SEQEND
  0
POLYLINE
  8
SCOTTY_GND
 66
1
 10
0.0000
 20
0.0000
 30
0.0000
 40
0.0100
 41
0.0100
  0
VERTEX
  8
SCOTTY_GND
 10
0.4500
 20
0.3035
 30
0.0000
 42
0.4142136
  0
VERTEX
  8
SCOTTY_GND
 10
0.4495
 20
0.3030
 30
0.0000
 42
0.0000
  0
SEQEND
  0
POLYLINE
  8
SCOTTY_GND
 66
1
 10
0.0000
 20
0.0000
 30
0.0000
 40
0.0100
 41
0.0100
  0
VERTEX
  8
SCOTTY_GND
 10
0.4505
 20
0.3030
 30
0.0000
 42
0.4142136
  0
VERTEX
  8
SCOTTY_GND
 10
0.4500
 20
0.3035
 30
0.0000
 42
0.0000
  0
SEQEND
  0
POLYLINE
  8
SCOTTY_GND
 66
1
 10
0.0000
 20
0.0000
 30
0.0000
 40
0.0100
 41
0.0100
  0
VERTEX
  8
SCOTTY_GND
 10
0.7000
 20
0.3025
 30
0.0000
 42
0.4142136
  0
VERTEX
  8
SCOTTY_GND
 10
0.7005
 20
0.3030
 30
0.0000
 42
0.0000
  0
SEQEND
  0
POLYLINE
  8
SCOTTY_GND
 66
1
 10
0.0000
 20
0.0000
 30
0.0000
 40
0.0100
 41
0.0100
  0
VERTEX
  8
SCOTTY_GND
 10
0.6995
 20
0.3030
 30
0.0000
 42
0.4142136
  0
VERTEX
  8
SCOTTY_GND
 10
0.7000
 20
0.3025
 30
0.0000
 42
0.0000
  0
SEQEND
  0
POLYLINE
  8
SCOTTY_GND
 66
1
 10
0.0000
 20
0.0000
 30
0.0000
 40
0.0100
 41
0.0100
  0
VERTEX
  8
SCOTTY_GND
 10
0.7000
 20
0.3035
 30
0.0000
 42
0.4142136
  0
VERTEX
  8
SCOTTY_GND
 10
0.6995
 20
0.3030
 30
0.0000
 42
0.0000
  0
SEQEND
  0
POLYLINE
  8
SCOTTY_GND
 66
1
 10
0.0000
 20
0.0000
 30
0.0000
 40
0.0100
 41
0.0100
  0
VERTEX
  8
SCOTTY_GND
 10
0.7005
 20
0.3030
 30
0.0000
 42
0.4142136
  0
VERTEX
  8
SCOTTY_GND
 10
0.7000
 20
0.3035
 30
0.0000
 42
0.0000
  0
SEQEND
  0
POLYLINE
  8
SCOTTY_GND
 66
1
 10
0.0000
 20
0.0000
 30
0.0000
 40
0.0100
 41
0.0100
  0
VERTEX
  8
SCOTTY_GND
 10
0.8250
 20
0.4725
 30
0.0000
 42
0.4142136
  0
VERTEX
  8
SCOTTY_GND
 10
0.8375
 20
0.4850
 30
0.0000
 42
0.0000
  0
SEQEND
  0
POLYLINE
  8
SCOTTY_GND
 66
1
 10
0.0000
 20
0.0000
 30
0.0000
 40
0.0100
 41
0.0100
  0
VERTEX
  8
SCOTTY_GND
 10
0.8125
 20
0.4850
 30
0.0000
 42
0.4142136
  0
VERTEX
  8
SCOTTY_GND
 10
0.8250
 20
0.4725
 30
0.0000
 42
0.0000
  0
SEQEND
  0
POLYLINE
  8
SCOTTY_GND
 66
1
 10
0.0000
 20
0.0000
 30
0.0000
 40
0.0100
 41
0.0100
  0
VERTEX
  8
SCOTTY_GND
 10
0.8250
 20
0.4975
 30
0.0000
 42
0.4142136
  0
VERTEX
  8
SCOTTY_GND
 10
0.8125
 20
0.4850
 30
0.0000
 42
0.0000
  0
SEQEND
  0
POLYLINE
  8
SCOTTY_GND
 66
1
 10
0.0000
 20
0.0000
 30
0.0000
 40
0.0100
 41
0.0100
  0
VERTEX
  8
SCOTTY_GND
 10
0.8375
 20
0.4850
 30
0.0000
 42
0.4142136
  0
VERTEX
  8
SCOTTY_GND
 10
0.8250
 20
0.4975
 30
0.0000
 42
0.0000
  0
SEQEND
  0
POLYLINE
  8
SCOTTY_GND
 66
1
 10
0.0000
 20
0.0000
 30
0.0000
 40
0.0100
 41
0.0100
  0
VERTEX
  8
SCOTTY_GND
 10
0.8750
 20
0.4725
 30
0.0000
 42
0.4142136
  0
VERTEX
  8
SCOTTY_GND
 10
0.8875
 20
0.4850
 30
0.0000
 42
0.0000
  0
SEQEND
  0
POLYLINE
  8
SCOTTY_GND
 66
1
 10
0.0000
 20
0.0000
 30
0.0000
 40
0.0100
 41
0.0100
  0
VERTEX
  8
SCOTTY_GND
 10
0.8625
 20
0.4850
 30
0.0000
 42
0.4142136
  0
VERTEX
  8
SCOTTY_GND
 10
0.8750
 20
0.4725
 30
0.0000
 42
0.0000
  0
SEQEND
  0
POLYLINE
  8
SCOTTY_GND
 66
1
 10
0.0000
 20
0.0000
 30
0.0000
 40
0.0100
 41
0.0100
  0
VERTEX
  8
SCOTTY_GND
 10
0.8750
 20
0.4975
 30
0.0000
 42
0.4142136
  0
VERTEX
  8
SCOTTY_GND
 10
0.8625
 20
0.4850
 30
0.0000
 42
0.0000
  0
SEQEND
  0
POLYLINE
  8
SCOTTY_GND
 66
1
 10
0.0000
 20
0.0000
 30
0.0000
 40
0.0100
 41
0.0100
  0
VERTEX
  8
SCOTTY_GND
 10
0.8875
 20
0.4850
 30
0.0000
 42
0.4142136
  0
VERTEX
  8
SCOTTY_GND
 10
0.8750
 20
0.4975
 30
0.0000
 42
0.0000
  0
SEQEND
  0
POLYLINE
  8
SCOTTY_GND
 66
1
 10
0.0000
 20
0.0000
 30
0.0000
 40
0.0100
 41
0.0100
  0
VERTEX
  8
SCOTTY_GND
 10
0.9250
 20
0.4725
 30
0.0000
 42
0.4142136
  0
VERTEX
  8
SCOTTY_GND
 10
0.9375
 20
0.4850
 30
0.0000
 42
0.0000
  0
SEQEND
  0
POLYLINE
  8
SCOTTY_GND
 66
1
 10
0.0000
 20
0.0000
 30
0.0000
 40
0.0100
 41
0.0100
  0
VERTEX
  8
SCOTTY_GND
 10
0.9125
 20
0.4850
 30
0.0000
 42
0.4142136
  0
VERTEX
  8
SCOTTY_GND
 10
0.9250
 20
0.4725
 30
0.0000
 42
0.0000
  0
SEQEND
  0
POLYLINE
  8
SCOTTY_GND
 66
1
 10
0.0000
 20
0.0000
 30
0.0000
 40
0.0100
 41
0.0100
  0
VERTEX
  8
SCOTTY_GND
 10
0.9250
 20
0.4975
 30
0.0000
 42
0.4142136
  0
VERTEX
  8
SCOTTY_GND
 10
0.9125
 20
0.4850
 30
0.0000
 42
0.0000
  0
SEQEND
  0
POLYLINE
  8
SCOTTY_GND
 66
1
 10
0.0000
 20
0.0000
 30
0.0000
 40
0.0100
 41
0.0100
  0
VERTEX
  8
SCOTTY_GND
 10
0.9375
 20
0.4850
 30
0.0000
 42
0.4142136
  0
VERTEX
  8
SCOTTY_GND
 10
0.9250
 20
0.4975
 30
0.0000
 42
0.0000
  0
SEQEND
  0
POLYLINE
  8
SCOTTY_GND
 66
1
 10
0.0000
 20
0.0000
 30
0.0000
 40
0.0100
 41
0.0100
  0
VERTEX
  8
SCOTTY_GND
 10
0.9250
 20
0.5225
 30
0.0000
 42
0.4142136
  0
VERTEX
  8
SCOTTY_GND
 10
0.9375
 20
0.5350
 30
0.0000
 42
0.0000
  0
SEQEND
  0
POLYLINE
  8
SCOTTY_GND
 66
1
 10
0.0000
 20
0.0000
 30
0.0000
 40
0.0100
 41
0.0100
  0
VERTEX
  8
SCOTTY_GND
 10
0.9125
 20
0.5350
 30
0.0000
 42
0.4142136
  0
VERTEX
  8
SCOTTY_GND
 10
0.9250
 20
0.5225
 30
0.0000
 42
0.0000
  0
SEQEND
  0
POLYLINE
  8
SCOTTY_GND
 66
1
 10
0.0000
 20
0.0000
 30
0.0000
 40
0.0100
 41
0.0100
  0
VERTEX
  8
SCOTTY_GND
 10
0.9250
 20
0.5475
 30
0.0000
 42
0.4142136
  0
VERTEX
  8
SCOTTY_GND
 10
0.9125
 20
0.5350
 30
0.0000
 42
0.0000
  0
SEQEND
  0
POLYLINE
  8
SCOTTY_GND
 66
1
 10
0.0000
 20
0.0000
 30
0.0000
 40
0.0100
 41
0.0100
  0
VERTEX
  8
SCOTTY_GND
 10
0.9375
 20
0.5350
 30
0.0000
 42
0.4142136
  0
VERTEX
  8
SCOTTY_GND
 10
0.9250
 20
0.5475
 30
0.0000
 42
0.0000
  0
SEQEND
  0
POLYLINE
  8
SCOTTY_GND
 66
1
 10
0.0000
 20
0.0000
 30
0.0000
 40
0.0100
 41
0.0100
  0
VERTEX
  8
SCOTTY_GND
 10
0.8750
 20
0.5225
 30
0.0000
 42
0.4142136
  0
VERTEX
  8
SCOTTY_GND
 10
0.8875
 20
0.5350
 30
0.0000
 42
0.0000
  0
SEQEND
  0
POLYLINE
  8
SCOTTY_GND
 66
1
 10
0.0000
 20
0.0000
 30
0.0000
 40
0.0100
 41
0.0100
  0
VERTEX
  8
SCOTTY_GND
 10
0.8625
 20
0.5350
 30
0.0000
 42
0.4142136
  0
VERTEX
  8
SCOTTY_GND
 10
0.8750
 20
0.5225
 30
0.0000
 42
0.0000
  0
SEQEND
  0
POLYLINE
  8
SCOTTY_GND
 66
1
 10
0.0000
 20
0.0000
 30
0.0000
 40
0.0100
 41
0.0100
  0
VERTEX
  8
SCOTTY_GND
 10
0.8750
 20
0.5475
 30
0.0000
 42
0.4142136
  0
VERTEX
  8
SCOTTY_GND
 10
0.8625
 20
0.5350
 30
0.0000
 42
0.0000
  0
SEQEND
  0
POLYLINE
  8
SCOTTY_GND
 66
1
 10
0.0000
 20
0.0000
 30
0.0000
 40
0.0100
 41
0.0100
  0
VERTEX
  8
SCOTTY_GND
 10
0.8875
 20
0.5350
 30
0.0000
 42
0.4142136
  0
VERTEX
  8
SCOTTY_GND
 10
0.8750
 20
0.5475
 30
0.0000
 42
0.0000
  0
SEQEND
  0
POLYLINE
  8
SCOTTY_GND
 66
1
 10
0.0000
 20
0.0000
 30
0.0000
 40
0.0100
 41
0.0100
  0
VERTEX
  8
SCOTTY_GND
 10
0.8500
 20
0.4975
 30
0.0000
 42
0.4142136
  0
VERTEX
  8
SCOTTY_GND
 10
0.8625
 20
0.5100
 30
0.0000
 42
0.0000
  0
SEQEND
  0
POLYLINE
  8
SCOTTY_GND
 66
1
 10
0.0000
 20
0.0000
 30
0.0000
 40
0.0100
 41
0.0100
  0
VERTEX
  8
SCOTTY_GND
 10
0.8375
 20
0.5100
 30
0.0000
 42
0.4142136
  0
VERTEX
  8
SCOTTY_GND
 10
0.8500
 20
0.4975
 30
0.0000
 42
0.0000
  0
SEQEND
  0
POLYLINE
  8
SCOTTY_GND
 66
1
 10
0.0000
 20
0.0000
 30
0.0000
 40
0.0100
 41
0.0100
  0
VERTEX
  8
SCOTTY_GND
 10
0.8500
 20
0.5225
 30
0.0000
 42
0.4142136
  0
VERTEX
  8
SCOTTY_GND
 10
0.8375
 20
0.5100
 30
0.0000
 42
0.0000
  0
SEQEND
  0
POLYLINE
  8
SCOTTY_GND
 66
1
 10
0.0000
 20
0.0000
 30
0.0000
 40
0.0100
 41
0.0100
  0
VERTEX
  8
SCOTTY_GND
 10
0.8625
 20
0.5100
 30
0.0000
 42
0.4142136
  0
VERTEX
  8
SCOTTY_GND
 10
0.8500
 20
0.5225
 30
0.0000
 42
0.0000
  0
SEQEND
  0
POLYLINE
  8
SCOTTY_GND
 66
1
 10
0.0000
 20
0.0000
 30
0.0000
 40
0.0100
 41
0.0100
  0
VERTEX
  8
SCOTTY_GND
 10
0.9000
 20
0.4975
 30
0.0000
 42
0.4142136
  0
VERTEX
  8
SCOTTY_GND
 10
0.9125
 20
0.5100
 30
0.0000
 42
0.0000
  0
SEQEND
  0
POLYLINE
  8
SCOTTY_GND
 66
1
 10
0.0000
 20
0.0000
 30
0.0000
 40
0.0100
 41
0.0100
  0
VERTEX
  8
SCOTTY_GND
 10
0.8875
 20
0.5100
 30
0.0000
 42
0.4142136
  0
VERTEX
  8
SCOTTY_GND
 10
0.9000
 20
0.4975
 30
0.0000
 42
0.0000
  0
SEQEND
  0
POLYLINE
  8
SCOTTY_GND
 66
1
 10
0.0000
 20
0.0000
 30
0.0000
 40
0.0100
 41
0.0100
  0
VERTEX
  8
SCOTTY_GND
 10
0.9000
 20
0.5225
 30
0.0000
 42
0.4142136
  0
VERTEX
  8
SCOTTY_GND
 10
0.8875
 20
0.5100
 30
0.0000
 42
0.0000
  0
SEQEND
  0
POLYLINE
  8
SCOTTY_GND
 66
1
 10
0.0000
 20
0.0000
 30
0.0000
 40
0.0100
 41
0.0100
  0
VERTEX
  8
SCOTTY_GND
 10
0.9125
 20
0.5100
 30
0.0000
 42
0.4142136
  0
VERTEX
  8
SCOTTY_GND
 10
0.9000
 20
0.5225
 30
0.0000
 42
0.0000
  0
SEQEND
  0
POLYLINE
  8
SCOTTY_GND
 66
1
 10
0.0000
 20
0.0000
 30
0.0000
 40
0.0100
 41
0.0100
  0
VERTEX
  8
SCOTTY_GND
 10
0.8250
 20
0.5225
 30
0.0000
 42
0.4142136
  0
VERTEX
  8
SCOTTY_GND
 10
0.8375
 20
0.5350
 30
0.0000
 42
0.0000
  0
SEQEND
  0
POLYLINE
  8
SCOTTY_GND
 66
1
 10
0.0000
 20
0.0000
 30
0.0000
 40
0.0100
 41
0.0100
  0
VERTEX
  8
SCOTTY_GND
 10
0.8125
 20
0.5350
 30
0.0000
 42
0.4142136
  0
VERTEX
  8
SCOTTY_GND
 10
0.8250
 20
0.5225
 30
0.0000
 42
0.0000
  0
SEQEND
  0
POLYLINE
  8
SCOTTY_GND
 66
1
 10
0.0000
 20
0.0000
 30
0.0000
 40
0.0100
 41
0.0100
  0
VERTEX
  8
SCOTTY_GND
 10
0.8250
 20
0.5475
 30
0.0000
 42
0.4142136
  0
VERTEX
  8
SCOTTY_GND
 10
0.8125
 20
0.5350
 30
0.0000
 42
0.0000
  0
SEQEND
  0
POLYLINE
  8
SCOTTY_GND
 66
1
 10
0.0000
 20
0.0000
 30
0.0000
 40
0.0100
 41
0.0100
  0
VERTEX
  8
SCOTTY_GND
 10
0.8375
 20
0.5350
 30
0.0000
 42
0.4142136
  0
VERTEX
  8
SCOTTY_GND
 10
0.8250
 20
0.5475
 30
0.0000
 42
0.0000
  0
SEQEND
  0
POLYLINE
  8
SCOTTY_GND
 66
1
 10
0.0000
 20
0.0000
 30
0.0000
 40
0.0100
 41
0.0100
  0
VERTEX
  8
SCOTTY_GND
 10
0.8250
 20
3.2525
 30
0.0000
 42
0.4142136
  0
VERTEX
  8
SCOTTY_GND
 10
0.8375
 20
3.2650
 30
0.0000
 42
0.0000
  0
SEQEND
  0
POLYLINE
  8
SCOTTY_GND
 66
1
 10
0.0000
 20
0.0000
 30
0.0000
 40
0.0100
 41
0.0100
  0
VERTEX
  8
SCOTTY_GND
 10
0.8125
 20
3.2650
 30
0.0000
 42
0.4142136
  0
VERTEX
  8
SCOTTY_GND
 10
0.8250
 20
3.2525
 30
0.0000
 42
0.0000
  0
SEQEND
  0
POLYLINE
  8
SCOTTY_GND
 66
1
 10
0.0000
 20
0.0000
 30
0.0000
 40
0.0100
 41
0.0100
  0
VERTEX
  8
SCOTTY_GND
 10
0.8250
 20
3.2775
 30
0.0000
 42
0.4142136
  0
VERTEX
  8
SCOTTY_GND
 10
0.8125
 20
3.2650
 30
0.0000
 42
0.0000
  0
SEQEND
  0
POLYLINE
  8
SCOTTY_GND
 66
1
 10
0.0000
 20
0.0000
 30
0.0000
 40
0.0100
 41
0.0100
  0
VERTEX
  8
SCOTTY_GND
 10
0.8375
 20
3.2650
 30
0.0000
 42
0.4142136
  0
VERTEX
  8
SCOTTY_GND
 10
0.8250
 20
3.2775
 30
0.0000
 42
0.0000
  0
SEQEND
  0
POLYLINE
  8
SCOTTY_GND
 66
1
 10
0.0000
 20
0.0000
 30
0.0000
 40
0.0100
 41
0.0100
  0
VERTEX
  8
SCOTTY_GND
 10
0.8750
 20
3.2525
 30
0.0000
 42
0.4142136
  0
VERTEX
  8
SCOTTY_GND
 10
0.8875
 20
3.2650
 30
0.0000
 42
0.0000
  0
SEQEND
  0
POLYLINE
  8
SCOTTY_GND
 66
1
 10
0.0000
 20
0.0000
 30
0.0000
 40
0.0100
 41
0.0100
  0
VERTEX
  8
SCOTTY_GND
 10
0.8625
 20
3.2650
 30
0.0000
 42
0.4142136
  0
VERTEX
  8
SCOTTY_GND
 10
0.8750
 20
3.2525
 30
0.0000
 42
0.0000
  0
SEQEND
  0
POLYLINE
  8
SCOTTY_GND
 66
1
 10
0.0000
 20
0.0000
 30
0.0000
 40
0.0100
 41
0.0100
  0
VERTEX
  8
SCOTTY_GND
 10
0.8750
 20
3.2775
 30
0.0000
 42
0.4142136
  0
VERTEX
  8
SCOTTY_GND
 10
0.8625
 20
3.2650
 30
0.0000
 42
0.0000
  0
SEQEND
  0
POLYLINE
  8
SCOTTY_GND
 66
1
 10
0.0000
 20
0.0000
 30
0.0000
 40
0.0100
 41
0.0100
  0
VERTEX
  8
SCOTTY_GND
 10
0.8875
 20
3.2650
 30
0.0000
 42
0.4142136
  0
VERTEX
  8
SCOTTY_GND
 10
0.8750
 20
3.2775
 30
0.0000
 42
0.0000
  0
SEQEND
  0
POLYLINE
  8
SCOTTY_GND
 66
1
 10
0.0000
 20
0.0000
 30
0.0000
 40
0.0100
 41
0.0100
  0
VERTEX
  8
SCOTTY_GND
 10
0.9250
 20
3.2525
 30
0.0000
 42
0.4142136
  0
VERTEX
  8
SCOTTY_GND
 10
0.9375
 20
3.2650
 30
0.0000
 42
0.0000
  0
SEQEND
  0
POLYLINE
  8
SCOTTY_GND
 66
1
 10
0.0000
 20
0.0000
 30
0.0000
 40
0.0100
 41
0.0100
  0
VERTEX
  8
SCOTTY_GND
 10
0.9125
 20
3.2650
 30
0.0000
 42
0.4142136
  0
VERTEX
  8
SCOTTY_GND
 10
0.9250
 20
3.2525
 30
0.0000
 42
0.0000
  0
SEQEND
  0
POLYLINE
  8
SCOTTY_GND
 66
1
 10
0.0000
 20
0.0000
 30
0.0000
 40
0.0100
 41
0.0100
  0
VERTEX
  8
SCOTTY_GND
 10
0.9250
 20
3.2775
 30
0.0000
 42
0.4142136
  0
VERTEX
  8
SCOTTY_GND
 10
0.9125
 20
3.2650
 30
0.0000
 42
0.0000
  0
SEQEND
  0
POLYLINE
  8
SCOTTY_GND
 66
1
 10
0.0000
 20
0.0000
 30
0.0000
 40
0.0100
 41
0.0100
  0
VERTEX
  8
SCOTTY_GND
 10
0.9375
 20
3.2650
 30
0.0000
 42
0.4142136
  0
VERTEX
  8
SCOTTY_GND
 10
0.9250
 20
3.2775
 30
0.0000
 42
0.0000
  0
SEQEND
  0
POLYLINE
  8
SCOTTY_GND
 66
1
 10
0.0000
 20
0.0000
 30
0.0000
 40
0.0100
 41
0.0100
  0
VERTEX
  8
SCOTTY_GND
 10
0.9250
 20
3.3025
 30
0.0000
 42
0.4142136
  0
VERTEX
  8
SCOTTY_GND
 10
0.9375
 20
3.3150
 30
0.0000
 42
0.0000
  0
SEQEND
  0
POLYLINE
  8
SCOTTY_GND
 66
1
 10
0.0000
 20
0.0000
 30
0.0000
 40
0.0100
 41
0.0100
  0
VERTEX
  8
SCOTTY_GND
 10
0.9125
 20
3.3150
 30
0.0000
 42
0.4142136
  0
VERTEX
  8
SCOTTY_GND
 10
0.9250
 20
3.3025
 30
0.0000
 42
0.0000
  0
SEQEND
  0
POLYLINE
  8
SCOTTY_GND
 66
1
 10
0.0000
 20
0.0000
 30
0.0000
 40
0.0100
 41
0.0100
  0
VERTEX
  8
SCOTTY_GND
 10
0.9250
 20
3.3275
 30
0.0000
 42
0.4142136
  0
VERTEX
  8
SCOTTY_GND
 10
0.9125
 20
3.3150
 30
0.0000
 42
0.0000
  0
SEQEND
  0
POLYLINE
  8
SCOTTY_GND
 66
1
 10
0.0000
 20
0.0000
 30
0.0000
 40
0.0100
 41
0.0100
  0
VERTEX
  8
SCOTTY_GND
 10
0.9375
 20
3.3150
 30
0.0000
 42
0.4142136
  0
VERTEX
  8
SCOTTY_GND
 10
0.9250
 20
3.3275
 30
0.0000
 42
0.0000
  0
SEQEND
  0
POLYLINE
  8
SCOTTY_GND
 66
1
 10
0.0000
 20
0.0000
 30
0.0000
 40
0.0100
 41
0.0100
  0
VERTEX
  8
SCOTTY_GND
 10
0.8750
 20
3.3025
 30
0.0000
 42
0.4142136
  0
VERTEX
  8
SCOTTY_GND
 10
0.8875
 20
3.3150
 30
0.0000
 42
0.0000
  0
SEQEND
  0
POLYLINE
  8
SCOTTY_GND
 66
1
 10
0.0000
 20
0.0000
 30
0.0000
 40
0.0100
 41
0.0100
  0
VERTEX
  8
SCOTTY_GND
 10
0.8625
 20
3.3150
 30
0.0000
 42
0.4142136
  0
VERTEX
  8
SCOTTY_GND
 10
0.8750
 20
3.3025
 30
0.0000
 42
0.0000
  0
SEQEND
  0
POLYLINE
  8
SCOTTY_GND
 66
1
 10
0.0000
 20
0.0000
 30
0.0000
 40
0.0100
 41
0.0100
  0
VERTEX
  8
SCOTTY_GND
 10
0.8750
 20
3.3275
 30
0.0000
 42
0.4142136
  0
VERTEX
  8
SCOTTY_GND
 10
0.8625
 20
3.3150
 30
0.0000
 42
0.0000
  0
SEQEND
  0
POLYLINE
  8
SCOTTY_GND
 66
1
 10
0.0000
 20
0.0000
 30
0.0000
 40
0.0100
 41
0.0100
  0
VERTEX
  8
SCOTTY_GND
 10
0.8875
 20
3.3150
 30
0.0000
 42
0.4142136
  0
VERTEX
  8
SCOTTY_GND
 10
0.8750
 20
3.3275
 30
0.0000
 42
0.0000
  0
SEQEND
  0
POLYLINE
  8
SCOTTY_GND
 66
1
 10
0.0000
 20
0.0000
 30
0.0000
 40
0.0100
 41
0.0100
  0
VERTEX
  8
SCOTTY_GND
 10
0.8500
 20
3.2775
 30
0.0000
 42
0.4142136
  0
VERTEX
  8
SCOTTY_GND
 10
0.8625
 20
3.2900
 30
0.0000
 42
0.0000
  0
SEQEND
  0
POLYLINE
  8
SCOTTY_GND
 66
1
 10
0.0000
 20
0.0000
 30
0.0000
 40
0.0100
 41
0.0100
  0
VERTEX
  8
SCOTTY_GND
 10
0.8375
 20
3.2900
 30
0.0000
 42
0.4142136
  0
VERTEX
  8
SCOTTY_GND
 10
0.8500
 20
3.2775
 30
0.0000
 42
0.0000
  0
SEQEND
  0
POLYLINE
  8
SCOTTY_GND
 66
1
 10
0.0000
 20
0.0000
 30
0.0000
 40
0.0100
 41
0.0100
  0
VERTEX
  8
SCOTTY_GND
 10
0.8500
 20
3.3025
 30
0.0000
 42
0.4142136
  0
VERTEX
  8
SCOTTY_GND
 10
0.8375
 20
3.2900
 30
0.0000
 42
0.0000
  0
SEQEND
  0
POLYLINE
  8
SCOTTY_GND
 66
1
 10
0.0000
 20
0.0000
 30
0.0000
 40
0.0100
 41
0.0100
  0
VERTEX
  8
SCOTTY_GND
 10
0.8625
 20
3.2900
 30
0.0000
 42
0.4142136
  0
VERTEX
  8
SCOTTY_GND
 10
0.8500
 20
3.3025
 30
0.0000
 42
0.0000
  0
SEQEND
  0
POLYLINE
  8
SCOTTY_GND
 66
1
 10
0.0000
 20
0.0000
 30
0.0000
 40
0.0100
 41
0.0100
  0
VERTEX
  8
SCOTTY_GND
 10
0.9000
 20
3.2775
 30
0.0000
 42
0.4142136
  0
VERTEX
  8
SCOTTY_GND
 10
0.9125
 20
3.2900
 30
0.0000
 42
0.0000
  0
SEQEND
  0
POLYLINE
  8
SCOTTY_GND
 66
1
 10
0.0000
 20
0.0000
 30
0.0000
 40
0.0100
 41
0.0100
  0
VERTEX
  8
SCOTTY_GND
 10
0.8875
 20
3.2900
 30
0.0000
 42
0.4142136
  0
VERTEX
  8
SCOTTY_GND
 10
0.9000
 20
3.2775
 30
0.0000
 42
0.0000
  0
SEQEND
  0
POLYLINE
  8
SCOTTY_GND
 66
1
 10
0.0000
 20
0.0000
 30
0.0000
 40
0.0100
 41
0.0100
  0
VERTEX
  8
SCOTTY_GND
 10
0.9000
 20
3.3025
 30
0.0000
 42
0.4142136
  0
VERTEX
  8
SCOTTY_GND
 10
0.8875
 20
3.2900
 30
0.0000
 42
0.0000
  0
SEQEND
  0
POLYLINE
  8
SCOTTY_GND
 66
1
 10
0.0000
 20
0.0000
 30
0.0000
 40
0.0100
 41
0.0100
  0
VERTEX
  8
SCOTTY_GND
 10
0.9125
 20
3.2900
 30
0.0000
 42
0.4142136
  0
VERTEX
  8
SCOTTY_GND
 10
0.9000
 20
3.3025
 30
0.0000
 42
0.0000
  0
SEQEND
  0
POLYLINE
  8
SCOTTY_GND
 66
1
 10
0.0000
 20
0.0000
 30
0.0000
 40
0.0100
 41
0.0100
  0
VERTEX
  8
SCOTTY_GND
 10
0.8250
 20
3.3025
 30
0.0000
 42
0.4142136
  0
VERTEX
  8
SCOTTY_GND
 10
0.8375
 20
3.3150
 30
0.0000
 42
0.0000
  0
SEQEND
  0
POLYLINE
  8
SCOTTY_GND
 66
1
 10
0.0000
 20
0.0000
 30
0.0000
 40
0.0100
 41
0.0100
  0
VERTEX
  8
SCOTTY_GND
 10
0.8125
 20
3.3150
 30
0.0000
 42
0.4142136
  0
VERTEX
  8
SCOTTY_GND
 10
0.8250
 20
3.3025
 30
0.0000
 42
0.0000
  0
SEQEND
  0
POLYLINE
  8
SCOTTY_GND
 66
1
 10
0.0000
 20
0.0000
 30
0.0000
 40
0.0100
 41
0.0100
  0
VERTEX
  8
SCOTTY_GND
 10
0.8250
 20
3.3275
 30
0.0000
 42
0.4142136
  0
VERTEX
  8
SCOTTY_GND
 10
0.8125
 20
3.3150
 30
0.0000
 42
0.0000
  0
SEQEND
  0
POLYLINE
  8
SCOTTY_GND
 66
1
 10
0.0000
 20
0.0000
 30
0.0000
 40
0.0100
 41
0.0100
  0
VERTEX
  8
SCOTTY_GND
 10
0.8375
 20
3.3150
 30
0.0000
 42
0.4142136
  0
VERTEX
  8
SCOTTY_GND
 10
0.8250
 20
3.3275
 30
0.0000
 42
0.0000
  0
SEQEND
  0
POLYLINE
  8
SCOTTY_GND
 66
1
 10
0.0000
 20
0.0000
 30
0.0000
 40
0.0100
 41
0.0100
  0
VERTEX
  8
SCOTTY_GND
 10
5.8780
 20
0.4725
 30
0.0000
 42
0.4142136
  0
VERTEX
  8
SCOTTY_GND
 10
5.8905
 20
0.4850
 30
0.0000
 42
0.0000
  0
SEQEND
  0
POLYLINE
  8
SCOTTY_GND
 66
1
 10
0.0000
 20
0.0000
 30
0.0000
 40
0.0100
 41
0.0100
  0
VERTEX
  8
SCOTTY_GND
 10
5.8655
 20
0.4850
 30
0.0000
 42
0.4142136
  0
VERTEX
  8
SCOTTY_GND
 10
5.8780
 20
0.4725
 30
0.0000
 42
0.0000
  0
SEQEND
  0
POLYLINE
  8
SCOTTY_GND
 66
1
 10
0.0000
 20
0.0000
 30
0.0000
 40
0.0100
 41
0.0100
  0
VERTEX
  8
SCOTTY_GND
 10
5.8780
 20
0.4975
 30
0.0000
 42
0.4142136
  0
VERTEX
  8
SCOTTY_GND
 10
5.8655
 20
0.4850
 30
0.0000
 42
0.0000
  0
SEQEND
  0
POLYLINE
  8
SCOTTY_GND
 66
1
 10
0.0000
 20
0.0000
 30
0.0000
 40
0.0100
 41
0.0100
  0
VERTEX
  8
SCOTTY_GND
 10
5.8905
 20
0.4850
 30
0.0000
 42
0.4142136
  0
VERTEX
  8
SCOTTY_GND
 10
5.8780
 20
0.4975
 30
0.0000
 42
0.0000
  0
SEQEND
  0
POLYLINE
  8
SCOTTY_GND
 66
1
 10
0.0000
 20
0.0000
 30
0.0000
 40
0.0100
 41
0.0100
  0
VERTEX
  8
SCOTTY_GND
 10
5.9280
 20
0.4725
 30
0.0000
 42
0.4142136
  0
VERTEX
  8
SCOTTY_GND
 10
5.9405
 20
0.4850
 30
0.0000
 42
0.0000
  0
SEQEND
  0
POLYLINE
  8
SCOTTY_GND
 66
1
 10
0.0000
 20
0.0000
 30
0.0000
 40
0.0100
 41
0.0100
  0
VERTEX
  8
SCOTTY_GND
 10
5.9155
 20
0.4850
 30
0.0000
 42
0.4142136
  0
VERTEX
  8
SCOTTY_GND
 10
5.9280
 20
0.4725
 30
0.0000
 42
0.0000
  0
SEQEND
  0
POLYLINE
  8
SCOTTY_GND
 66
1
 10
0.0000
 20
0.0000
 30
0.0000
 40
0.0100
 41
0.0100
  0
VERTEX
  8
SCOTTY_GND
 10
5.9280
 20
0.4975
 30
0.0000
 42
0.4142136
  0
VERTEX
  8
SCOTTY_GND
 10
5.9155
 20
0.4850
 30
0.0000
 42
0.0000
  0
SEQEND
  0
POLYLINE
  8
SCOTTY_GND
 66
1
 10
0.0000
 20
0.0000
 30
0.0000
 40
0.0100
 41
0.0100
  0
VERTEX
  8
SCOTTY_GND
 10
5.9405
 20
0.4850
 30
0.0000
 42
0.4142136
  0
VERTEX
  8
SCOTTY_GND
 10
5.9280
 20
0.4975
 30
0.0000
 42
0.0000
  0
SEQEND
  0
POLYLINE
  8
SCOTTY_GND
 66
1
 10
0.0000
 20
0.0000
 30
0.0000
 40
0.0100
 41
0.0100
  0
VERTEX
  8
SCOTTY_GND
 10
5.9780
 20
0.4725
 30
0.0000
 42
0.4142136
  0
VERTEX
  8
SCOTTY_GND
 10
5.9905
 20
0.4850
 30
0.0000
 42
0.0000
  0
SEQEND
  0
POLYLINE
  8
SCOTTY_GND
 66
1
 10
0.0000
 20
0.0000
 30
0.0000
 40
0.0100
 41
0.0100
  0
VERTEX
  8
SCOTTY_GND
 10
5.9655
 20
0.4850
 30
0.0000
 42
0.4142136
  0
VERTEX
  8
SCOTTY_GND
 10
5.9780
 20
0.4725
 30
0.0000
 42
0.0000
  0
SEQEND
  0
POLYLINE
  8
SCOTTY_GND
 66
1
 10
0.0000
 20
0.0000
 30
0.0000
 40
0.0100
 41
0.0100
  0
VERTEX
  8
SCOTTY_GND
 10
5.9780
 20
0.4975
 30
0.0000
 42
0.4142136
  0
VERTEX
  8
SCOTTY_GND
 10
5.9655
 20
0.4850
 30
0.0000
 42
0.0000
  0
SEQEND
  0
POLYLINE
  8
SCOTTY_GND
 66
1
 10
0.0000
 20
0.0000
 30
0.0000
 40
0.0100
 41
0.0100
  0
VERTEX
  8
SCOTTY_GND
 10
5.9905
 20
0.4850
 30
0.0000
 42
0.4142136
  0
VERTEX
  8
SCOTTY_GND
 10
5.9780
 20
0.4975
 30
0.0000
 42
0.0000
  0
SEQEND
  0
POLYLINE
  8
SCOTTY_GND
 66
1
 10
0.0000
 20
0.0000
 30
0.0000
 40
0.0100
 41
0.0100
  0
VERTEX
  8
SCOTTY_GND
 10
5.9780
 20
0.5225
 30
0.0000
 42
0.4142136
  0
VERTEX
  8
SCOTTY_GND
 10
5.9905
 20
0.5350
 30
0.0000
 42
0.0000
  0
SEQEND
  0
POLYLINE
  8
SCOTTY_GND
 66
1
 10
0.0000
 20
0.0000
 30
0.0000
 40
0.0100
 41
0.0100
  0
VERTEX
  8
SCOTTY_GND
 10
5.9655
 20
0.5350
 30
0.0000
 42
0.4142136
  0
VERTEX
  8
SCOTTY_GND
 10
5.9780
 20
0.5225
 30
0.0000
 42
0.0000
  0
SEQEND
  0
POLYLINE
  8
SCOTTY_GND
 66
1
 10
0.0000
 20
0.0000
 30
0.0000
 40
0.0100
 41
0.0100
  0
VERTEX
  8
SCOTTY_GND
 10
5.9780
 20
0.5475
 30
0.0000
 42
0.4142136
  0
VERTEX
  8
SCOTTY_GND
 10
5.9655
 20
0.5350
 30
0.0000
 42
0.0000
  0
SEQEND
  0
POLYLINE
  8
SCOTTY_GND
 66
1
 10
0.0000
 20
0.0000
 30
0.0000
 40
0.0100
 41
0.0100
  0
VERTEX
  8
SCOTTY_GND
 10
5.9905
 20
0.5350
 30
0.0000
 42
0.4142136
  0
VERTEX
  8
SCOTTY_GND
 10
5.9780
 20
0.5475
 30
0.0000
 42
0.0000
  0
SEQEND
  0
POLYLINE
  8
SCOTTY_GND
 66
1
 10
0.0000
 20
0.0000
 30
0.0000
 40
0.0100
 41
0.0100
  0
VERTEX
  8
SCOTTY_GND
 10
5.9280
 20
0.5225
 30
0.0000
 42
0.4142136
  0
VERTEX
  8
SCOTTY_GND
 10
5.9405
 20
0.5350
 30
0.0000
 42
0.0000
  0
SEQEND
  0
POLYLINE
  8
SCOTTY_GND
 66
1
 10
0.0000
 20
0.0000
 30
0.0000
 40
0.0100
 41
0.0100
  0
VERTEX
  8
SCOTTY_GND
 10
5.9155
 20
0.5350
 30
0.0000
 42
0.4142136
  0
VERTEX
  8
SCOTTY_GND
 10
5.9280
 20
0.5225
 30
0.0000
 42
0.0000
  0
SEQEND
  0
POLYLINE
  8
SCOTTY_GND
 66
1
 10
0.0000
 20
0.0000
 30
0.0000
 40
0.0100
 41
0.0100
  0
VERTEX
  8
SCOTTY_GND
 10
5.9280
 20
0.5475
 30
0.0000
 42
0.4142136
  0
VERTEX
  8
SCOTTY_GND
 10
5.9155
 20
0.5350
 30
0.0000
 42
0.0000
  0
SEQEND
  0
POLYLINE
  8
SCOTTY_GND
 66
1
 10
0.0000
 20
0.0000
 30
0.0000
 40
0.0100
 41
0.0100
  0
VERTEX
  8
SCOTTY_GND
 10
5.9405
 20
0.5350
 30
0.0000
 42
0.4142136
  0
VERTEX
  8
SCOTTY_GND
 10
5.9280
 20
0.5475
 30
0.0000
 42
0.0000
  0
SEQEND
  0
POLYLINE
  8
SCOTTY_GND
 66
1
 10
0.0000
 20
0.0000
 30
0.0000
 40
0.0100
 41
0.0100
  0
VERTEX
  8
SCOTTY_GND
 10
5.9030
 20
0.4975
 30
0.0000
 42
0.4142136
  0
VERTEX
  8
SCOTTY_GND
 10
5.9155
 20
0.5100
 30
0.0000
 42
0.0000
  0
SEQEND
  0
POLYLINE
  8
SCOTTY_GND
 66
1
 10
0.0000
 20
0.0000
 30
0.0000
 40
0.0100
 41
0.0100
  0
VERTEX
  8
SCOTTY_GND
 10
5.8905
 20
0.5100
 30
0.0000
 42
0.4142136
  0
VERTEX
  8
SCOTTY_GND
 10
5.9030
 20
0.4975
 30
0.0000
 42
0.0000
  0
SEQEND
  0
POLYLINE
  8
SCOTTY_GND
 66
1
 10
0.0000
 20
0.0000
 30
0.0000
 40
0.0100
 41
0.0100
  0
VERTEX
  8
SCOTTY_GND
 10
5.9030
 20
0.5225
 30
0.0000
 42
0.4142136
  0
VERTEX
  8
SCOTTY_GND
 10
5.8905
 20
0.5100
 30
0.0000
 42
0.0000
  0
SEQEND
  0
POLYLINE
  8
SCOTTY_GND
 66
1
 10
0.0000
 20
0.0000
 30
0.0000
 40
0.0100
 41
0.0100
  0
VERTEX
  8
SCOTTY_GND
 10
5.9155
 20
0.5100
 30
0.0000
 42
0.4142136
  0
VERTEX
  8
SCOTTY_GND
 10
5.9030
 20
0.5225
 30
0.0000
 42
0.0000
  0
SEQEND
  0
POLYLINE
  8
SCOTTY_GND
 66
1
 10
0.0000
 20
0.0000
 30
0.0000
 40
0.0100
 41
0.0100
  0
VERTEX
  8
SCOTTY_GND
 10
5.9530
 20
0.4975
 30
0.0000
 42
0.4142136
  0
VERTEX
  8
SCOTTY_GND
 10
5.9655
 20
0.5100
 30
0.0000
 42
0.0000
  0
SEQEND
  0
POLYLINE
  8
SCOTTY_GND
 66
1
 10
0.0000
 20
0.0000
 30
0.0000
 40
0.0100
 41
0.0100
  0
VERTEX
  8
SCOTTY_GND
 10
5.9405
 20
0.5100
 30
0.0000
 42
0.4142136
  0
VERTEX
  8
SCOTTY_GND
 10
5.9530
 20
0.4975
 30
0.0000
 42
0.0000
  0
SEQEND
  0
POLYLINE
  8
SCOTTY_GND
 66
1
 10
0.0000
 20
0.0000
 30
0.0000
 40
0.0100
 41
0.0100
  0
VERTEX
  8
SCOTTY_GND
 10
5.9530
 20
0.5225
 30
0.0000
 42
0.4142136
  0
VERTEX
  8
SCOTTY_GND
 10
5.9405
 20
0.5100
 30
0.0000
 42
0.0000
  0
SEQEND
  0
POLYLINE
  8
SCOTTY_GND
 66
1
 10
0.0000
 20
0.0000
 30
0.0000
 40
0.0100
 41
0.0100
  0
VERTEX
  8
SCOTTY_GND
 10
5.9655
 20
0.5100
 30
0.0000
 42
0.4142136
  0
VERTEX
  8
SCOTTY_GND
 10
5.9530
 20
0.5225
 30
0.0000
 42
0.0000
  0
SEQEND
  0
POLYLINE
  8
SCOTTY_GND
 66
1
 10
0.0000
 20
0.0000
 30
0.0000
 40
0.0100
 41
0.0100
  0
VERTEX
  8
SCOTTY_GND
 10
5.8780
 20
0.5225
 30
0.0000
 42
0.4142136
  0
VERTEX
  8
SCOTTY_GND
 10
5.8905
 20
0.5350
 30
0.0000
 42
0.0000
  0
SEQEND
  0
POLYLINE
  8
SCOTTY_GND
 66
1
 10
0.0000
 20
0.0000
 30
0.0000
 40
0.0100
 41
0.0100
  0
VERTEX
  8
SCOTTY_GND
 10
5.8655
 20
0.5350
 30
0.0000
 42
0.4142136
  0
VERTEX
  8
SCOTTY_GND
 10
5.8780
 20
0.5225
 30
0.0000
 42
0.0000
  0
SEQEND
  0
POLYLINE
  8
SCOTTY_GND
 66
1
 10
0.0000
 20
0.0000
 30
0.0000
 40
0.0100
 41
0.0100
  0
VERTEX
  8
SCOTTY_GND
 10
5.8780
 20
0.5475
 30
0.0000
 42
0.4142136
  0
VERTEX
  8
SCOTTY_GND
 10
5.8655
 20
0.5350
 30
0.0000
 42
0.0000
  0
SEQEND
  0
POLYLINE
  8
SCOTTY_GND
 66
1
 10
0.0000
 20
0.0000
 30
0.0000
 40
0.0100
 41
0.0100
  0
VERTEX
  8
SCOTTY_GND
 10
5.8905
 20
0.5350
 30
0.0000
 42
0.4142136
  0
VERTEX
  8
SCOTTY_GND
 10
5.8780
 20
0.5475
 30
0.0000
 42
0.0000
  0
SEQEND
  0
POLYLINE
  8
SCOTTY_GND
 66
1
 10
0.0000
 20
0.0000
 30
0.0000
 40
0.0100
 41
0.0100
  0
VERTEX
  8
SCOTTY_GND
 10
5.8780
 20
3.2525
 30
0.0000
 42
0.4142136
  0
VERTEX
  8
SCOTTY_GND
 10
5.8905
 20
3.2650
 30
0.0000
 42
0.0000
  0
SEQEND
  0
POLYLINE
  8
SCOTTY_GND
 66
1
 10
0.0000
 20
0.0000
 30
0.0000
 40
0.0100
 41
0.0100
  0
VERTEX
  8
SCOTTY_GND
 10
5.8655
 20
3.2650
 30
0.0000
 42
0.4142136
  0
VERTEX
  8
SCOTTY_GND
 10
5.8780
 20
3.2525
 30
0.0000
 42
0.0000
  0
SEQEND
  0
POLYLINE
  8
SCOTTY_GND
 66
1
 10
0.0000
 20
0.0000
 30
0.0000
 40
0.0100
 41
0.0100
  0
VERTEX
  8
SCOTTY_GND
 10
5.8780
 20
3.2775
 30
0.0000
 42
0.4142136
  0
VERTEX
  8
SCOTTY_GND
 10
5.8655
 20
3.2650
 30
0.0000
 42
0.0000
  0
SEQEND
  0
POLYLINE
  8
SCOTTY_GND
 66
1
 10
0.0000
 20
0.0000
 30
0.0000
 40
0.0100
 41
0.0100
  0
VERTEX
  8
SCOTTY_GND
 10
5.8905
 20
3.2650
 30
0.0000
 42
0.4142136
  0
VERTEX
  8
SCOTTY_GND
 10
5.8780
 20
3.2775
 30
0.0000
 42
0.0000
  0
SEQEND
  0
POLYLINE
  8
SCOTTY_GND
 66
1
 10
0.0000
 20
0.0000
 30
0.0000
 40
0.0100
 41
0.0100
  0
VERTEX
  8
SCOTTY_GND
 10
5.9280
 20
3.2525
 30
0.0000
 42
0.4142136
  0
VERTEX
  8
SCOTTY_GND
 10
5.9405
 20
3.2650
 30
0.0000
 42
0.0000
  0
SEQEND
  0
POLYLINE
  8
SCOTTY_GND
 66
1
 10
0.0000
 20
0.0000
 30
0.0000
 40
0.0100
 41
0.0100
  0
VERTEX
  8
SCOTTY_GND
 10
5.9155
 20
3.2650
 30
0.0000
 42
0.4142136
  0
VERTEX
  8
SCOTTY_GND
 10
5.9280
 20
3.2525
 30
0.0000
 42
0.0000
  0
SEQEND
  0
POLYLINE
  8
SCOTTY_GND
 66
1
 10
0.0000
 20
0.0000
 30
0.0000
 40
0.0100
 41
0.0100
  0
VERTEX
  8
SCOTTY_GND
 10
5.9280
 20
3.2775
 30
0.0000
 42
0.4142136
  0
VERTEX
  8
SCOTTY_GND
 10
5.9155
 20
3.2650
 30
0.0000
 42
0.0000
  0
SEQEND
  0
POLYLINE
  8
SCOTTY_GND
 66
1
 10
0.0000
 20
0.0000
 30
0.0000
 40
0.0100
 41
0.0100
  0
VERTEX
  8
SCOTTY_GND
 10
5.9405
 20
3.2650
 30
0.0000
 42
0.4142136
  0
VERTEX
  8
SCOTTY_GND
 10
5.9280
 20
3.2775
 30
0.0000
 42
0.0000
  0
SEQEND
  0
POLYLINE
  8
SCOTTY_GND
 66
1
 10
0.0000
 20
0.0000
 30
0.0000
 40
0.0100
 41
0.0100
  0
VERTEX
  8
SCOTTY_GND
 10
5.9780
 20
3.2525
 30
0.0000
 42
0.4142136
  0
VERTEX
  8
SCOTTY_GND
 10
5.9905
 20
3.2650
 30
0.0000
 42
0.0000
  0
SEQEND
  0
POLYLINE
  8
SCOTTY_GND
 66
1
 10
0.0000
 20
0.0000
 30
0.0000
 40
0.0100
 41
0.0100
  0
VERTEX
  8
SCOTTY_GND
 10
5.9655
 20
3.2650
 30
0.0000
 42
0.4142136
  0
VERTEX
  8
SCOTTY_GND
 10
5.9780
 20
3.2525
 30
0.0000
 42
0.0000
  0
SEQEND
  0
POLYLINE
  8
SCOTTY_GND
 66
1
 10
0.0000
 20
0.0000
 30
0.0000
 40
0.0100
 41
0.0100
  0
VERTEX
  8
SCOTTY_GND
 10
5.9780
 20
3.2775
 30
0.0000
 42
0.4142136
  0
VERTEX
  8
SCOTTY_GND
 10
5.9655
 20
3.2650
 30
0.0000
 42
0.0000
  0
SEQEND
  0
POLYLINE
  8
SCOTTY_GND
 66
1
 10
0.0000
 20
0.0000
 30
0.0000
 40
0.0100
 41
0.0100
  0
VERTEX
  8
SCOTTY_GND
 10
5.9905
 20
3.2650
 30
0.0000
 42
0.4142136
  0
VERTEX
  8
SCOTTY_GND
 10
5.9780
 20
3.2775
 30
0.0000
 42
0.0000
  0
SEQEND
  0
POLYLINE
  8
SCOTTY_GND
 66
1
 10
0.0000
 20
0.0000
 30
0.0000
 40
0.0100
 41
0.0100
  0
VERTEX
  8
SCOTTY_GND
 10
5.9780
 20
3.3025
 30
0.0000
 42
0.4142136
  0
VERTEX
  8
SCOTTY_GND
 10
5.9905
 20
3.3150
 30
0.0000
 42
0.0000
  0
SEQEND
  0
POLYLINE
  8
SCOTTY_GND
 66
1
 10
0.0000
 20
0.0000
 30
0.0000
 40
0.0100
 41
0.0100
  0
VERTEX
  8
SCOTTY_GND
 10
5.9655
 20
3.3150
 30
0.0000
 42
0.4142136
  0
VERTEX
  8
SCOTTY_GND
 10
5.9780
 20
3.3025
 30
0.0000
 42
0.0000
  0
SEQEND
  0
POLYLINE
  8
SCOTTY_GND
 66
1
 10
0.0000
 20
0.0000
 30
0.0000
 40
0.0100
 41
0.0100
  0
VERTEX
  8
SCOTTY_GND
 10
5.9780
 20
3.3275
 30
0.0000
 42
0.4142136
  0
VERTEX
  8
SCOTTY_GND
 10
5.9655
 20
3.3150
 30
0.0000
 42
0.0000
  0
SEQEND
  0
POLYLINE
  8
SCOTTY_GND
 66
1
 10
0.0000
 20
0.0000
 30
0.0000
 40
0.0100
 41
0.0100
  0
VERTEX
  8
SCOTTY_GND
 10
5.9905
 20
3.3150
 30
0.0000
 42
0.4142136
  0
VERTEX
  8
SCOTTY_GND
 10
5.9780
 20
3.3275
 30
0.0000
 42
0.0000
  0
SEQEND
  0
POLYLINE
  8
SCOTTY_GND
 66
1
 10
0.0000
 20
0.0000
 30
0.0000
 40
0.0100
 41
0.0100
  0
VERTEX
  8
SCOTTY_GND
 10
5.9280
 20
3.3025
 30
0.0000
 42
0.4142136
  0
VERTEX
  8
SCOTTY_GND
 10
5.9405
 20
3.3150
 30
0.0000
 42
0.0000
  0
SEQEND
  0
POLYLINE
  8
SCOTTY_GND
 66
1
 10
0.0000
 20
0.0000
 30
0.0000
 40
0.0100
 41
0.0100
  0
VERTEX
  8
SCOTTY_GND
 10
5.9155
 20
3.3150
 30
0.0000
 42
0.4142136
  0
VERTEX
  8
SCOTTY_GND
 10
5.9280
 20
3.3025
 30
0.0000
 42
0.0000
  0
SEQEND
  0
POLYLINE
  8
SCOTTY_GND
 66
1
 10
0.0000
 20
0.0000
 30
0.0000
 40
0.0100
 41
0.0100
  0
VERTEX
  8
SCOTTY_GND
 10
5.9280
 20
3.3275
 30
0.0000
 42
0.4142136
  0
VERTEX
  8
SCOTTY_GND
 10
5.9155
 20
3.3150
 30
0.0000
 42
0.0000
  0
SEQEND
  0
POLYLINE
  8
SCOTTY_GND
 66
1
 10
0.0000
 20
0.0000
 30
0.0000
 40
0.0100
 41
0.0100
  0
VERTEX
  8
SCOTTY_GND
 10
5.9405
 20
3.3150
 30
0.0000
 42
0.4142136
  0
VERTEX
  8
SCOTTY_GND
 10
5.9280
 20
3.3275
 30
0.0000
 42
0.0000
  0
SEQEND
  0
POLYLINE
  8
SCOTTY_GND
 66
1
 10
0.0000
 20
0.0000
 30
0.0000
 40
0.0100
 41
0.0100
  0
VERTEX
  8
SCOTTY_GND
 10
5.9030
 20
3.2775
 30
0.0000
 42
0.4142136
  0
VERTEX
  8
SCOTTY_GND
 10
5.9155
 20
3.2900
 30
0.0000
 42
0.0000
  0
SEQEND
  0
POLYLINE
  8
SCOTTY_GND
 66
1
 10
0.0000
 20
0.0000
 30
0.0000
 40
0.0100
 41
0.0100
  0
VERTEX
  8
SCOTTY_GND
 10
5.8905
 20
3.2900
 30
0.0000
 42
0.4142136
  0
VERTEX
  8
SCOTTY_GND
 10
5.9030
 20
3.2775
 30
0.0000
 42
0.0000
  0
SEQEND
  0
POLYLINE
  8
SCOTTY_GND
 66
1
 10
0.0000
 20
0.0000
 30
0.0000
 40
0.0100
 41
0.0100
  0
VERTEX
  8
SCOTTY_GND
 10
5.9030
 20
3.3025
 30
0.0000
 42
0.4142136
  0
VERTEX
  8
SCOTTY_GND
 10
5.8905
 20
3.2900
 30
0.0000
 42
0.0000
  0
SEQEND
  0
POLYLINE
  8
SCOTTY_GND
 66
1
 10
0.0000
 20
0.0000
 30
0.0000
 40
0.0100
 41
0.0100
  0
VERTEX
  8
SCOTTY_GND
 10
5.9155
 20
3.2900
 30
0.0000
 42
0.4142136
  0
VERTEX
  8
SCOTTY_GND
 10
5.9030
 20
3.3025
 30
0.0000
 42
0.0000
  0
SEQEND
  0
POLYLINE
  8
SCOTTY_GND
 66
1
 10
0.0000
 20
0.0000
 30
0.0000
 40
0.0100
 41
0.0100
  0
VERTEX
  8
SCOTTY_GND
 10
5.9530
 20
3.2775
 30
0.0000
 42
0.4142136
  0
VERTEX
  8
SCOTTY_GND
 10
5.9655
 20
3.2900
 30
0.0000
 42
0.0000
  0
SEQEND
  0
POLYLINE
  8
SCOTTY_GND
 66
1
 10
0.0000
 20
0.0000
 30
0.0000
 40
0.0100
 41
0.0100
  0
VERTEX
  8
SCOTTY_GND
 10
5.9405
 20
3.2900
 30
0.0000
 42
0.4142136
  0
VERTEX
  8
SCOTTY_GND
 10
5.9530
 20
3.2775
 30
0.0000
 42
0.0000
  0
SEQEND
  0
POLYLINE
  8
SCOTTY_GND
 66
1
 10
0.0000
 20
0.0000
 30
0.0000
 40
0.0100
 41
0.0100
  0
VERTEX
  8
SCOTTY_GND
 10
5.9530
 20
3.3025
 30
0.0000
 42
0.4142136
  0
VERTEX
  8
SCOTTY_GND
 10
5.9405
 20
3.2900
 30
0.0000
 42
0.0000
  0
SEQEND
  0
POLYLINE
  8
SCOTTY_GND
 66
1
 10
0.0000
 20
0.0000
 30
0.0000
 40
0.0100
 41
0.0100
  0
VERTEX
  8
SCOTTY_GND
 10
5.9655
 20
3.2900
 30
0.0000
 42
0.4142136
  0
VERTEX
  8
SCOTTY_GND
 10
5.9530
 20
3.3025
 30
0.0000
 42
0.0000
  0
SEQEND
  0
POLYLINE
  8
SCOTTY_GND
 66
1
 10
0.0000
 20
0.0000
 30
0.0000
 40
0.0100
 41
0.0100
  0
VERTEX
  8
SCOTTY_GND
 10
5.8780
 20
3.3025
 30
0.0000
 42
0.4142136
  0
VERTEX
  8
SCOTTY_GND
 10
5.8905
 20
3.3150
 30
0.0000
 42
0.0000
  0
SEQEND
  0
POLYLINE
  8
SCOTTY_GND
 66
1
 10
0.0000
 20
0.0000
 30
0.0000
 40
0.0100
 41
0.0100
  0
VERTEX
  8
SCOTTY_GND
 10
5.8655
 20
3.3150
 30
0.0000
 42
0.4142136
  0
VERTEX
  8
SCOTTY_GND
 10
5.8780
 20
3.3025
 30
0.0000
 42
0.0000
  0
SEQEND
  0
POLYLINE
  8
SCOTTY_GND
 66
1
 10
0.0000
 20
0.0000
 30
0.0000
 40
0.0100
 41
0.0100
  0
VERTEX
  8
SCOTTY_GND
 10
5.8780
 20
3.3275
 30
0.0000
 42
0.4142136
  0
VERTEX
  8
SCOTTY_GND
 10
5.8655
 20
3.3150
 30
0.0000
 42
0.0000
  0
SEQEND
  0
POLYLINE
  8
SCOTTY_GND
 66
1
 10
0.0000
 20
0.0000
 30
0.0000
 40
0.0100
 41
0.0100
  0
VERTEX
  8
SCOTTY_GND
 10
5.8905
 20
3.3150
 30
0.0000
 42
0.4142136
  0
VERTEX
  8
SCOTTY_GND
 10
5.8780
 20
3.3275
 30
0.0000
 42
0.0000
  0
SEQEND
  0
POLYLINE
  8
SCOTTY_GND
 66
1
 10
0.0000
 20
0.0000
 30
0.0000
 40
0.0100
 41
0.0100
  0
VERTEX
  8
SCOTTY_GND
 10
5.3780
 20
3.2525
 30
0.0000
 42
0.4142136
  0
VERTEX
  8
SCOTTY_GND
 10
5.3905
 20
3.2650
 30
0.0000
 42
0.0000
  0
SEQEND
  0
POLYLINE
  8
SCOTTY_GND
 66
1
 10
0.0000
 20
0.0000
 30
0.0000
 40
0.0100
 41
0.0100
  0
VERTEX
  8
SCOTTY_GND
 10
5.3655
 20
3.2650
 30
0.0000
 42
0.4142136
  0
VERTEX
  8
SCOTTY_GND
 10
5.3780
 20
3.2525
 30
0.0000
 42
0.0000
  0
SEQEND
  0
POLYLINE
  8
SCOTTY_GND
 66
1
 10
0.0000
 20
0.0000
 30
0.0000
 40
0.0100
 41
0.0100
  0
VERTEX
  8
SCOTTY_GND
 10
5.3780
 20
3.2775
 30
0.0000
 42
0.4142136
  0
VERTEX
  8
SCOTTY_GND
 10
5.3655
 20
3.2650
 30
0.0000
 42
0.0000
  0
SEQEND
  0
POLYLINE
  8
SCOTTY_GND
 66
1
 10
0.0000
 20
0.0000
 30
0.0000
 40
0.0100
 41
0.0100
  0
VERTEX
  8
SCOTTY_GND
 10
5.3905
 20
3.2650
 30
0.0000
 42
0.4142136
  0
VERTEX
  8
SCOTTY_GND
 10
5.3780
 20
3.2775
 30
0.0000
 42
0.0000
  0
SEQEND
  0
POLYLINE
  8
SCOTTY_GND
 66
1
 10
0.0000
 20
0.0000
 30
0.0000
 40
0.0100
 41
0.0100
  0
VERTEX
  8
SCOTTY_GND
 10
5.3280
 20
3.2525
 30
0.0000
 42
0.4142136
  0
VERTEX
  8
SCOTTY_GND
 10
5.3405
 20
3.2650
 30
0.0000
 42
0.0000
  0
SEQEND
  0
POLYLINE
  8
SCOTTY_GND
 66
1
 10
0.0000
 20
0.0000
 30
0.0000
 40
0.0100
 41
0.0100
  0
VERTEX
  8
SCOTTY_GND
 10
5.3155
 20
3.2650
 30
0.0000
 42
0.4142136
  0
VERTEX
  8
SCOTTY_GND
 10
5.3280
 20
3.2525
 30
0.0000
 42
0.0000
  0
SEQEND
  0
POLYLINE
  8
SCOTTY_GND
 66
1
 10
0.0000
 20
0.0000
 30
0.0000
 40
0.0100
 41
0.0100
  0
VERTEX
  8
SCOTTY_GND
 10
5.3280
 20
3.2775
 30
0.0000
 42
0.4142136
  0
VERTEX
  8
SCOTTY_GND
 10
5.3155
 20
3.2650
 30
0.0000
 42
0.0000
  0
SEQEND
  0
POLYLINE
  8
SCOTTY_GND
 66
1
 10
0.0000
 20
0.0000
 30
0.0000
 40
0.0100
 41
0.0100
  0
VERTEX
  8
SCOTTY_GND
 10
5.3405
 20
3.2650
 30
0.0000
 42
0.4142136
  0
VERTEX
  8
SCOTTY_GND
 10
5.3280
 20
3.2775
 30
0.0000
 42
0.0000
  0
SEQEND
  0
POLYLINE
  8
SCOTTY_GND
 66
1
 10
0.0000
 20
0.0000
 30
0.0000
 40
0.0100
 41
0.0100
  0
VERTEX
  8
SCOTTY_GND
 10
5.2780
 20
3.2525
 30
0.0000
 42
0.4142136
  0
VERTEX
  8
SCOTTY_GND
 10
5.2905
 20
3.2650
 30
0.0000
 42
0.0000
  0
SEQEND
  0
POLYLINE
  8
SCOTTY_GND
 66
1
 10
0.0000
 20
0.0000
 30
0.0000
 40
0.0100
 41
0.0100
  0
VERTEX
  8
SCOTTY_GND
 10
5.2655
 20
3.2650
 30
0.0000
 42
0.4142136
  0
VERTEX
  8
SCOTTY_GND
 10
5.2780
 20
3.2525
 30
0.0000
 42
0.0000
  0
SEQEND
  0
POLYLINE
  8
SCOTTY_GND
 66
1
 10
0.0000
 20
0.0000
 30
0.0000
 40
0.0100
 41
0.0100
  0
VERTEX
  8
SCOTTY_GND
 10
5.2780
 20
3.2775
 30
0.0000
 42
0.4142136
  0
VERTEX
  8
SCOTTY_GND
 10
5.2655
 20
3.2650
 30
0.0000
 42
0.0000
  0
SEQEND
  0
POLYLINE
  8
SCOTTY_GND
 66
1
 10
0.0000
 20
0.0000
 30
0.0000
 40
0.0100
 41
0.0100
  0
VERTEX
  8
SCOTTY_GND
 10
5.2905
 20
3.2650
 30
0.0000
 42
0.4142136
  0
VERTEX
  8
SCOTTY_GND
 10
5.2780
 20
3.2775
 30
0.0000
 42
0.0000
  0
SEQEND
  0
POLYLINE
  8
SCOTTY_GND
 66
1
 10
0.0000
 20
0.0000
 30
0.0000
 40
0.0100
 41
0.0100
  0
VERTEX
  8
SCOTTY_GND
 10
5.2780
 20
3.3025
 30
0.0000
 42
0.4142136
  0
VERTEX
  8
SCOTTY_GND
 10
5.2905
 20
3.3150
 30
0.0000
 42
0.0000
  0
SEQEND
  0
POLYLINE
  8
SCOTTY_GND
 66
1
 10
0.0000
 20
0.0000
 30
0.0000
 40
0.0100
 41
0.0100
  0
VERTEX
  8
SCOTTY_GND
 10
5.2655
 20
3.3150
 30
0.0000
 42
0.4142136
  0
VERTEX
  8
SCOTTY_GND
 10
5.2780
 20
3.3025
 30
0.0000
 42
0.0000
  0
SEQEND
  0
POLYLINE
  8
SCOTTY_GND
 66
1
 10
0.0000
 20
0.0000
 30
0.0000
 40
0.0100
 41
0.0100
  0
VERTEX
  8
SCOTTY_GND
 10
5.2780
 20
3.3275
 30
0.0000
 42
0.4142136
  0
VERTEX
  8
SCOTTY_GND
 10
5.2655
 20
3.3150
 30
0.0000
 42
0.0000
  0
SEQEND
  0
POLYLINE
  8
SCOTTY_GND
 66
1
 10
0.0000
 20
0.0000
 30
0.0000
 40
0.0100
 41
0.0100
  0
VERTEX
  8
SCOTTY_GND
 10
5.2905
 20
3.3150
 30
0.0000
 42
0.4142136
  0
VERTEX
  8
SCOTTY_GND
 10
5.2780
 20
3.3275
 30
0.0000
 42
0.0000
  0
SEQEND
  0
POLYLINE
  8
SCOTTY_GND
 66
1
 10
0.0000
 20
0.0000
 30
0.0000
 40
0.0100
 41
0.0100
  0
VERTEX
  8
SCOTTY_GND
 10
5.3280
 20
3.3025
 30
0.0000
 42
0.4142136
  0
VERTEX
  8
SCOTTY_GND
 10
5.3405
 20
3.3150
 30
0.0000
 42
0.0000
  0
SEQEND
  0
POLYLINE
  8
SCOTTY_GND
 66
1
 10
0.0000
 20
0.0000
 30
0.0000
 40
0.0100
 41
0.0100
  0
VERTEX
  8
SCOTTY_GND
 10
5.3155
 20
3.3150
 30
0.0000
 42
0.4142136
  0
VERTEX
  8
SCOTTY_GND
 10
5.3280
 20
3.3025
 30
0.0000
 42
0.0000
  0
SEQEND
  0
POLYLINE
  8
SCOTTY_GND
 66
1
 10
0.0000
 20
0.0000
 30
0.0000
 40
0.0100
 41
0.0100
  0
VERTEX
  8
SCOTTY_GND
 10
5.3280
 20
3.3275
 30
0.0000
 42
0.4142136
  0
VERTEX
  8
SCOTTY_GND
 10
5.3155
 20
3.3150
 30
0.0000
 42
0.0000
  0
SEQEND
  0
POLYLINE
  8
SCOTTY_GND
 66
1
 10
0.0000
 20
0.0000
 30
0.0000
 40
0.0100
 41
0.0100
  0
VERTEX
  8
SCOTTY_GND
 10
5.3405
 20
3.3150
 30
0.0000
 42
0.4142136
  0
VERTEX
  8
SCOTTY_GND
 10
5.3280
 20
3.3275
 30
0.0000
 42
0.0000
  0
SEQEND
  0
POLYLINE
  8
SCOTTY_GND
 66
1
 10
0.0000
 20
0.0000
 30
0.0000
 40
0.0100
 41
0.0100
  0
VERTEX
  8
SCOTTY_GND
 10
5.3530
 20
3.2775
 30
0.0000
 42
0.4142136
  0
VERTEX
  8
SCOTTY_GND
 10
5.3655
 20
3.2900
 30
0.0000
 42
0.0000
  0
SEQEND
  0
POLYLINE
  8
SCOTTY_GND
 66
1
 10
0.0000
 20
0.0000
 30
0.0000
 40
0.0100
 41
0.0100
  0
VERTEX
  8
SCOTTY_GND
 10
5.3405
 20
3.2900
 30
0.0000
 42
0.4142136
  0
VERTEX
  8
SCOTTY_GND
 10
5.3530
 20
3.2775
 30
0.0000
 42
0.0000
  0
SEQEND
  0
POLYLINE
  8
SCOTTY_GND
 66
1
 10
0.0000
 20
0.0000
 30
0.0000
 40
0.0100
 41
0.0100
  0
VERTEX
  8
SCOTTY_GND
 10
5.3530
 20
3.3025
 30
0.0000
 42
0.4142136
  0
VERTEX
  8
SCOTTY_GND
 10
5.3405
 20
3.2900
 30
0.0000
 42
0.0000
  0
SEQEND
  0
POLYLINE
  8
SCOTTY_GND
 66
1
 10
0.0000
 20
0.0000
 30
0.0000
 40
0.0100
 41
0.0100
  0
VERTEX
  8
SCOTTY_GND
 10
5.3655
 20
3.2900
 30
0.0000
 42
0.4142136
  0
VERTEX
  8
SCOTTY_GND
 10
5.3530
 20
3.3025
 30
0.0000
 42
0.0000
  0
SEQEND
  0
POLYLINE
  8
SCOTTY_GND
 66
1
 10
0.0000
 20
0.0000
 30
0.0000
 40
0.0100
 41
0.0100
  0
VERTEX
  8
SCOTTY_GND
 10
5.3030
 20
3.2775
 30
0.0000
 42
0.4142136
  0
VERTEX
  8
SCOTTY_GND
 10
5.3155
 20
3.2900
 30
0.0000
 42
0.0000
  0
SEQEND
  0
POLYLINE
  8
SCOTTY_GND
 66
1
 10
0.0000
 20
0.0000
 30
0.0000
 40
0.0100
 41
0.0100
  0
VERTEX
  8
SCOTTY_GND
 10
5.2905
 20
3.2900
 30
0.0000
 42
0.4142136
  0
VERTEX
  8
SCOTTY_GND
 10
5.3030
 20
3.2775
 30
0.0000
 42
0.0000
  0
SEQEND
  0
POLYLINE
  8
SCOTTY_GND
 66
1
 10
0.0000
 20
0.0000
 30
0.0000
 40
0.0100
 41
0.0100
  0
VERTEX
  8
SCOTTY_GND
 10
5.3030
 20
3.3025
 30
0.0000
 42
0.4142136
  0
VERTEX
  8
SCOTTY_GND
 10
5.2905
 20
3.2900
 30
0.0000
 42
0.0000
  0
SEQEND
  0
POLYLINE
  8
SCOTTY_GND
 66
1
 10
0.0000
 20
0.0000
 30
0.0000
 40
0.0100
 41
0.0100
  0
VERTEX
  8
SCOTTY_GND
 10
5.3155
 20
3.2900
 30
0.0000
 42
0.4142136
  0
VERTEX
  8
SCOTTY_GND
 10
5.3030
 20
3.3025
 30
0.0000
 42
0.0000
  0
SEQEND
  0
POLYLINE
  8
SCOTTY_GND
 66
1
 10
0.0000
 20
0.0000
 30
0.0000
 40
0.0100
 41
0.0100
  0
VERTEX
  8
SCOTTY_GND
 10
5.3780
 20
3.3025
 30
0.0000
 42
0.4142136
  0
VERTEX
  8
SCOTTY_GND
 10
5.3905
 20
3.3150
 30
0.0000
 42
0.0000
  0
SEQEND
  0
POLYLINE
  8
SCOTTY_GND
 66
1
 10
0.0000
 20
0.0000
 30
0.0000
 40
0.0100
 41
0.0100
  0
VERTEX
  8
SCOTTY_GND
 10
5.3655
 20
3.3150
 30
0.0000
 42
0.4142136
  0
VERTEX
  8
SCOTTY_GND
 10
5.3780
 20
3.3025
 30
0.0000
 42
0.0000
  0
SEQEND
  0
POLYLINE
  8
SCOTTY_GND
 66
1
 10
0.0000
 20
0.0000
 30
0.0000
 40
0.0100
 41
0.0100
  0
VERTEX
  8
SCOTTY_GND
 10
5.3780
 20
3.3275
 30
0.0000
 42
0.4142136
  0
VERTEX
  8
SCOTTY_GND
 10
5.3655
 20
3.3150
 30
0.0000
 42
0.0000
  0
SEQEND
  0
POLYLINE
  8
SCOTTY_GND
 66
1
 10
0.0000
 20
0.0000
 30
0.0000
 40
0.0100
 41
0.0100
  0
VERTEX
  8
SCOTTY_GND
 10
5.3905
 20
3.3150
 30
0.0000
 42
0.4142136
  0
VERTEX
  8
SCOTTY_GND
 10
5.3780
 20
3.3275
 30
0.0000
 42
0.0000
  0
SEQEND
  0
POLYLINE
  8
SCOTTY_GND
 66
1
 10
0.0000
 20
0.0000
 30
0.0000
 40
0.0100
 41
0.0100
  0
VERTEX
  8
SCOTTY_GND
 10
5.3780
 20
0.4725
 30
0.0000
 42
0.4142136
  0
VERTEX
  8
SCOTTY_GND
 10
5.3905
 20
0.4850
 30
0.0000
 42
0.0000
  0
SEQEND
  0
POLYLINE
  8
SCOTTY_GND
 66
1
 10
0.0000
 20
0.0000
 30
0.0000
 40
0.0100
 41
0.0100
  0
VERTEX
  8
SCOTTY_GND
 10
5.3655
 20
0.4850
 30
0.0000
 42
0.4142136
  0
VERTEX
  8
SCOTTY_GND
 10
5.3780
 20
0.4725
 30
0.0000
 42
0.0000
  0
SEQEND
  0
POLYLINE
  8
SCOTTY_GND
 66
1
 10
0.0000
 20
0.0000
 30
0.0000
 40
0.0100
 41
0.0100
  0
VERTEX
  8
SCOTTY_GND
 10
5.3780
 20
0.4975
 30
0.0000
 42
0.4142136
  0
VERTEX
  8
SCOTTY_GND
 10
5.3655
 20
0.4850
 30
0.0000
 42
0.0000
  0
SEQEND
  0
POLYLINE
  8
SCOTTY_GND
 66
1
 10
0.0000
 20
0.0000
 30
0.0000
 40
0.0100
 41
0.0100
  0
VERTEX
  8
SCOTTY_GND
 10
5.3905
 20
0.4850
 30
0.0000
 42
0.4142136
  0
VERTEX
  8
SCOTTY_GND
 10
5.3780
 20
0.4975
 30
0.0000
 42
0.0000
  0
SEQEND
  0
POLYLINE
  8
SCOTTY_GND
 66
1
 10
0.0000
 20
0.0000
 30
0.0000
 40
0.0100
 41
0.0100
  0
VERTEX
  8
SCOTTY_GND
 10
5.3280
 20
0.4725
 30
0.0000
 42
0.4142136
  0
VERTEX
  8
SCOTTY_GND
 10
5.3405
 20
0.4850
 30
0.0000
 42
0.0000
  0
SEQEND
  0
POLYLINE
  8
SCOTTY_GND
 66
1
 10
0.0000
 20
0.0000
 30
0.0000
 40
0.0100
 41
0.0100
  0
VERTEX
  8
SCOTTY_GND
 10
5.3155
 20
0.4850
 30
0.0000
 42
0.4142136
  0
VERTEX
  8
SCOTTY_GND
 10
5.3280
 20
0.4725
 30
0.0000
 42
0.0000
  0
SEQEND
  0
POLYLINE
  8
SCOTTY_GND
 66
1
 10
0.0000
 20
0.0000
 30
0.0000
 40
0.0100
 41
0.0100
  0
VERTEX
  8
SCOTTY_GND
 10
5.3280
 20
0.4975
 30
0.0000
 42
0.4142136
  0
VERTEX
  8
SCOTTY_GND
 10
5.3155
 20
0.4850
 30
0.0000
 42
0.0000
  0
SEQEND
  0
POLYLINE
  8
SCOTTY_GND
 66
1
 10
0.0000
 20
0.0000
 30
0.0000
 40
0.0100
 41
0.0100
  0
VERTEX
  8
SCOTTY_GND
 10
5.3405
 20
0.4850
 30
0.0000
 42
0.4142136
  0
VERTEX
  8
SCOTTY_GND
 10
5.3280
 20
0.4975
 30
0.0000
 42
0.0000
  0
SEQEND
  0
POLYLINE
  8
SCOTTY_GND
 66
1
 10
0.0000
 20
0.0000
 30
0.0000
 40
0.0100
 41
0.0100
  0
VERTEX
  8
SCOTTY_GND
 10
5.2780
 20
0.4725
 30
0.0000
 42
0.4142136
  0
VERTEX
  8
SCOTTY_GND
 10
5.2905
 20
0.4850
 30
0.0000
 42
0.0000
  0
SEQEND
  0
POLYLINE
  8
SCOTTY_GND
 66
1
 10
0.0000
 20
0.0000
 30
0.0000
 40
0.0100
 41
0.0100
  0
VERTEX
  8
SCOTTY_GND
 10
5.2655
 20
0.4850
 30
0.0000
 42
0.4142136
  0
VERTEX
  8
SCOTTY_GND
 10
5.2780
 20
0.4725
 30
0.0000
 42
0.0000
  0
SEQEND
  0
POLYLINE
  8
SCOTTY_GND
 66
1
 10
0.0000
 20
0.0000
 30
0.0000
 40
0.0100
 41
0.0100
  0
VERTEX
  8
SCOTTY_GND
 10
5.2780
 20
0.4975
 30
0.0000
 42
0.4142136
  0
VERTEX
  8
SCOTTY_GND
 10
5.2655
 20
0.4850
 30
0.0000
 42
0.0000
  0
SEQEND
  0
POLYLINE
  8
SCOTTY_GND
 66
1
 10
0.0000
 20
0.0000
 30
0.0000
 40
0.0100
 41
0.0100
  0
VERTEX
  8
SCOTTY_GND
 10
5.2905
 20
0.4850
 30
0.0000
 42
0.4142136
  0
VERTEX
  8
SCOTTY_GND
 10
5.2780
 20
0.4975
 30
0.0000
 42
0.0000
  0
SEQEND
  0
POLYLINE
  8
SCOTTY_GND
 66
1
 10
0.0000
 20
0.0000
 30
0.0000
 40
0.0100
 41
0.0100
  0
VERTEX
  8
SCOTTY_GND
 10
5.2780
 20
0.5225
 30
0.0000
 42
0.4142136
  0
VERTEX
  8
SCOTTY_GND
 10
5.2905
 20
0.5350
 30
0.0000
 42
0.0000
  0
SEQEND
  0
POLYLINE
  8
SCOTTY_GND
 66
1
 10
0.0000
 20
0.0000
 30
0.0000
 40
0.0100
 41
0.0100
  0
VERTEX
  8
SCOTTY_GND
 10
5.2655
 20
0.5350
 30
0.0000
 42
0.4142136
  0
VERTEX
  8
SCOTTY_GND
 10
5.2780
 20
0.5225
 30
0.0000
 42
0.0000
  0
SEQEND
  0
POLYLINE
  8
SCOTTY_GND
 66
1
 10
0.0000
 20
0.0000
 30
0.0000
 40
0.0100
 41
0.0100
  0
VERTEX
  8
SCOTTY_GND
 10
5.2780
 20
0.5475
 30
0.0000
 42
0.4142136
  0
VERTEX
  8
SCOTTY_GND
 10
5.2655
 20
0.5350
 30
0.0000
 42
0.0000
  0
SEQEND
  0
POLYLINE
  8
SCOTTY_GND
 66
1
 10
0.0000
 20
0.0000
 30
0.0000
 40
0.0100
 41
0.0100
  0
VERTEX
  8
SCOTTY_GND
 10
5.2905
 20
0.5350
 30
0.0000
 42
0.4142136
  0
VERTEX
  8
SCOTTY_GND
 10
5.2780
 20
0.5475
 30
0.0000
 42
0.0000
  0
SEQEND
  0
POLYLINE
  8
SCOTTY_GND
 66
1
 10
0.0000
 20
0.0000
 30
0.0000
 40
0.0100
 41
0.0100
  0
VERTEX
  8
SCOTTY_GND
 10
5.3280
 20
0.5225
 30
0.0000
 42
0.4142136
  0
VERTEX
  8
SCOTTY_GND
 10
5.3405
 20
0.5350
 30
0.0000
 42
0.0000
  0
SEQEND
  0
POLYLINE
  8
SCOTTY_GND
 66
1
 10
0.0000
 20
0.0000
 30
0.0000
 40
0.0100
 41
0.0100
  0
VERTEX
  8
SCOTTY_GND
 10
5.3155
 20
0.5350
 30
0.0000
 42
0.4142136
  0
VERTEX
  8
SCOTTY_GND
 10
5.3280
 20
0.5225
 30
0.0000
 42
0.0000
  0
SEQEND
  0
POLYLINE
  8
SCOTTY_GND
 66
1
 10
0.0000
 20
0.0000
 30
0.0000
 40
0.0100
 41
0.0100
  0
VERTEX
  8
SCOTTY_GND
 10
5.3280
 20
0.5475
 30
0.0000
 42
0.4142136
  0
VERTEX
  8
SCOTTY_GND
 10
5.3155
 20
0.5350
 30
0.0000
 42
0.0000
  0
SEQEND
  0
POLYLINE
  8
SCOTTY_GND
 66
1
 10
0.0000
 20
0.0000
 30
0.0000
 40
0.0100
 41
0.0100
  0
VERTEX
  8
SCOTTY_GND
 10
5.3405
 20
0.5350
 30
0.0000
 42
0.4142136
  0
VERTEX
  8
SCOTTY_GND
 10
5.3280
 20
0.5475
 30
0.0000
 42
0.0000
  0
SEQEND
  0
POLYLINE
  8
SCOTTY_GND
 66
1
 10
0.0000
 20
0.0000
 30
0.0000
 40
0.0100
 41
0.0100
  0
VERTEX
  8
SCOTTY_GND
 10
5.3530
 20
0.4975
 30
0.0000
 42
0.4142136
  0
VERTEX
  8
SCOTTY_GND
 10
5.3655
 20
0.5100
 30
0.0000
 42
0.0000
  0
SEQEND
  0
POLYLINE
  8
SCOTTY_GND
 66
1
 10
0.0000
 20
0.0000
 30
0.0000
 40
0.0100
 41
0.0100
  0
VERTEX
  8
SCOTTY_GND
 10
5.3405
 20
0.5100
 30
0.0000
 42
0.4142136
  0
VERTEX
  8
SCOTTY_GND
 10
5.3530
 20
0.4975
 30
0.0000
 42
0.0000
  0
SEQEND
  0
POLYLINE
  8
SCOTTY_GND
 66
1
 10
0.0000
 20
0.0000
 30
0.0000
 40
0.0100
 41
0.0100
  0
VERTEX
  8
SCOTTY_GND
 10
5.3530
 20
0.5225
 30
0.0000
 42
0.4142136
  0
VERTEX
  8
SCOTTY_GND
 10
5.3405
 20
0.5100
 30
0.0000
 42
0.0000
  0
SEQEND
  0
POLYLINE
  8
SCOTTY_GND
 66
1
 10
0.0000
 20
0.0000
 30
0.0000
 40
0.0100
 41
0.0100
  0
VERTEX
  8
SCOTTY_GND
 10
5.3655
 20
0.5100
 30
0.0000
 42
0.4142136
  0
VERTEX
  8
SCOTTY_GND
 10
5.3530
 20
0.5225
 30
0.0000
 42
0.0000
  0
SEQEND
  0
POLYLINE
  8
SCOTTY_GND
 66
1
 10
0.0000
 20
0.0000
 30
0.0000
 40
0.0100
 41
0.0100
  0
VERTEX
  8
SCOTTY_GND
 10
5.3030
 20
0.4975
 30
0.0000
 42
0.4142136
  0
VERTEX
  8
SCOTTY_GND
 10
5.3155
 20
0.5100
 30
0.0000
 42
0.0000
  0
SEQEND
  0
POLYLINE
  8
SCOTTY_GND
 66
1
 10
0.0000
 20
0.0000
 30
0.0000
 40
0.0100
 41
0.0100
  0
VERTEX
  8
SCOTTY_GND
 10
5.2905
 20
0.5100
 30
0.0000
 42
0.4142136
  0
VERTEX
  8
SCOTTY_GND
 10
5.3030
 20
0.4975
 30
0.0000
 42
0.0000
  0
SEQEND
  0
POLYLINE
  8
SCOTTY_GND
 66
1
 10
0.0000
 20
0.0000
 30
0.0000
 40
0.0100
 41
0.0100
  0
VERTEX
  8
SCOTTY_GND
 10
5.3030
 20
0.5225
 30
0.0000
 42
0.4142136
  0
VERTEX
  8
SCOTTY_GND
 10
5.2905
 20
0.5100
 30
0.0000
 42
0.0000
  0
SEQEND
  0
POLYLINE
  8
SCOTTY_GND
 66
1
 10
0.0000
 20
0.0000
 30
0.0000
 40
0.0100
 41
0.0100
  0
VERTEX
  8
SCOTTY_GND
 10
5.3155
 20
0.5100
 30
0.0000
 42
0.4142136
  0
VERTEX
  8
SCOTTY_GND
 10
5.3030
 20
0.5225
 30
0.0000
 42
0.0000
  0
SEQEND
  0
POLYLINE
  8
SCOTTY_GND
 66
1
 10
0.0000
 20
0.0000
 30
0.0000
 40
0.0100
 41
0.0100
  0
VERTEX
  8
SCOTTY_GND
 10
5.3780
 20
0.5225
 30
0.0000
 42
0.4142136
  0
VERTEX
  8
SCOTTY_GND
 10
5.3905
 20
0.5350
 30
0.0000
 42
0.0000
  0
SEQEND
  0
POLYLINE
  8
SCOTTY_GND
 66
1
 10
0.0000
 20
0.0000
 30
0.0000
 40
0.0100
 41
0.0100
  0
VERTEX
  8
SCOTTY_GND
 10
5.3655
 20
0.5350
 30
0.0000
 42
0.4142136
  0
VERTEX
  8
SCOTTY_GND
 10
5.3780
 20
0.5225
 30
0.0000
 42
0.0000
  0
SEQEND
  0
POLYLINE
  8
SCOTTY_GND
 66
1
 10
0.0000
 20
0.0000
 30
0.0000
 40
0.0100
 41
0.0100
  0
VERTEX
  8
SCOTTY_GND
 10
5.3780
 20
0.5475
 30
0.0000
 42
0.4142136
  0
VERTEX
  8
SCOTTY_GND
 10
5.3655
 20
0.5350
 30
0.0000
 42
0.0000
  0
SEQEND
  0
POLYLINE
  8
SCOTTY_GND
 66
1
 10
0.0000
 20
0.0000
 30
0.0000
 40
0.0100
 41
0.0100
  0
VERTEX
  8
SCOTTY_GND
 10
5.3905
 20
0.5350
 30
0.0000
 42
0.4142136
  0
VERTEX
  8
SCOTTY_GND
 10
5.3780
 20
0.5475
 30
0.0000
 42
0.0000
  0
SEQEND
  0
POLYLINE
  8
SCOTTY_GND
 66
1
 10
0.0000
 20
0.0000
 30
0.0000
 40
0.0100
 41
0.0100
  0
VERTEX
  8
SCOTTY_GND
 10
5.7530
 20
1.0775
 30
0.0000
 42
0.4142136
  0
VERTEX
  8
SCOTTY_GND
 10
5.7535
 20
1.0780
 30
0.0000
 42
0.0000
  0
SEQEND
  0
POLYLINE
  8
SCOTTY_GND
 66
1
 10
0.0000
 20
0.0000
 30
0.0000
 40
0.0100
 41
0.0100
  0
VERTEX
  8
SCOTTY_GND
 10
5.7525
 20
1.0780
 30
0.0000
 42
0.4142136
  0
VERTEX
  8
SCOTTY_GND
 10
5.7530
 20
1.0775
 30
0.0000
 42
0.0000
  0
SEQEND
  0
POLYLINE
  8
SCOTTY_GND
 66
1
 10
0.0000
 20
0.0000
 30
0.0000
 40
0.0100
 41
0.0100
  0
VERTEX
  8
SCOTTY_GND
 10
5.7530
 20
1.0785
 30
0.0000
 42
0.4142136
  0
VERTEX
  8
SCOTTY_GND
 10
5.7525
 20
1.0780
 30
0.0000
 42
0.0000
  0
SEQEND
  0
POLYLINE
  8
SCOTTY_GND
 66
1
 10
0.0000
 20
0.0000
 30
0.0000
 40
0.0100
 41
0.0100
  0
VERTEX
  8
SCOTTY_GND
 10
5.7535
 20
1.0780
 30
0.0000
 42
0.4142136
  0
VERTEX
  8
SCOTTY_GND
 10
5.7530
 20
1.0785
 30
0.0000
 42
0.0000
  0
SEQEND
  0
POLYLINE
  8
SCOTTY_GND
 66
1
 10
0.0000
 20
0.0000
 30
0.0000
 40
0.0100
 41
0.0100
  0
VERTEX
  8
SCOTTY_GND
 10
5.5030
 20
1.0775
 30
0.0000
 42
0.4142136
  0
VERTEX
  8
SCOTTY_GND
 10
5.5035
 20
1.0780
 30
0.0000
 42
0.0000
  0
SEQEND
  0
POLYLINE
  8
SCOTTY_GND
 66
1
 10
0.0000
 20
0.0000
 30
0.0000
 40
0.0100
 41
0.0100
  0
VERTEX
  8
SCOTTY_GND
 10
5.5025
 20
1.0780
 30
0.0000
 42
0.4142136
  0
VERTEX
  8
SCOTTY_GND
 10
5.5030
 20
1.0775
 30
0.0000
 42
0.0000
  0
SEQEND
  0
POLYLINE
  8
SCOTTY_GND
 66
1
 10
0.0000
 20
0.0000
 30
0.0000
 40
0.0100
 41
0.0100
  0
VERTEX
  8
SCOTTY_GND
 10
5.5030
 20
1.0785
 30
0.0000
 42
0.4142136
  0
VERTEX
  8
SCOTTY_GND
 10
5.5025
 20
1.0780
 30
0.0000
 42
0.0000
  0
SEQEND
  0
POLYLINE
  8
SCOTTY_GND
 66
1
 10
0.0000
 20
0.0000
 30
0.0000
 40
0.0100
 41
0.0100
  0
VERTEX
  8
SCOTTY_GND
 10
5.5035
 20
1.0780
 30
0.0000
 42
0.4142136
  0
VERTEX
  8
SCOTTY_GND
 10
5.5030
 20
1.0785
 30
0.0000
 42
0.0000
  0
SEQEND
  0
POLYLINE
  8
SCOTTY_GND
 66
1
 10
0.0000
 20
0.0000
 30
0.0000
 40
0.0100
 41
0.0100
  0
VERTEX
  8
SCOTTY_GND
 10
5.7530
 20
1.8525
 30
0.0000
 42
0.4142136
  0
VERTEX
  8
SCOTTY_GND
 10
5.7535
 20
1.8530
 30
0.0000
 42
0.0000
  0
SEQEND
  0
POLYLINE
  8
SCOTTY_GND
 66
1
 10
0.0000
 20
0.0000
 30
0.0000
 40
0.0100
 41
0.0100
  0
VERTEX
  8
SCOTTY_GND
 10
5.7525
 20
1.8530
 30
0.0000
 42
0.4142136
  0
VERTEX
  8
SCOTTY_GND
 10
5.7530
 20
1.8525
 30
0.0000
 42
0.0000
  0
SEQEND
  0
POLYLINE
  8
SCOTTY_GND
 66
1
 10
0.0000
 20
0.0000
 30
0.0000
 40
0.0100
 41
0.0100
  0
VERTEX
  8
SCOTTY_GND
 10
5.7530
 20
1.8535
 30
0.0000
 42
0.4142136
  0
VERTEX
  8
SCOTTY_GND
 10
5.7525
 20
1.8530
 30
0.0000
 42
0.0000
  0
SEQEND
  0
POLYLINE
  8
SCOTTY_GND
 66
1
 10
0.0000
 20
0.0000
 30
0.0000
 40
0.0100
 41
0.0100
  0
VERTEX
  8
SCOTTY_GND
 10
5.7535
 20
1.8530
 30
0.0000
 42
0.4142136
  0
VERTEX
  8
SCOTTY_GND
 10
5.7530
 20
1.8535
 30
0.0000
 42
0.0000
  0
SEQEND
  0
POLYLINE
  8
SCOTTY_GND
 66
1
 10
0.0000
 20
0.0000
 30
0.0000
 40
0.0100
 41
0.0100
  0
VERTEX
  8
SCOTTY_GND
 10
5.5030
 20
1.8525
 30
0.0000
 42
0.4142136
  0
VERTEX
  8
SCOTTY_GND
 10
5.5035
 20
1.8530
 30
0.0000
 42
0.0000
  0
SEQEND
  0
POLYLINE
  8
SCOTTY_GND
 66
1
 10
0.0000
 20
0.0000
 30
0.0000
 40
0.0100
 41
0.0100
  0
VERTEX
  8
SCOTTY_GND
 10
5.5025
 20
1.8530
 30
0.0000
 42
0.4142136
  0
VERTEX
  8
SCOTTY_GND
 10
5.5030
 20
1.8525
 30
0.0000
 42
0.0000
  0
SEQEND
  0
POLYLINE
  8
SCOTTY_GND
 66
1
 10
0.0000
 20
0.0000
 30
0.0000
 40
0.0100
 41
0.0100
  0
VERTEX
  8
SCOTTY_GND
 10
5.5030
 20
1.8535
 30
0.0000
 42
0.4142136
  0
VERTEX
  8
SCOTTY_GND
 10
5.5025
 20
1.8530
 30
0.0000
 42
0.0000
  0
SEQEND
  0
POLYLINE
  8
SCOTTY_GND
 66
1
 10
0.0000
 20
0.0000
 30
0.0000
 40
0.0100
 41
0.0100
  0
VERTEX
  8
SCOTTY_GND
 10
5.5035
 20
1.8530
 30
0.0000
 42
0.4142136
  0
VERTEX
  8
SCOTTY_GND
 10
5.5030
 20
1.8535
 30
0.0000
 42
0.0000
  0
SEQEND
  0
POLYLINE
  8
SCOTTY_GND
 66
1
 10
0.0000
 20
0.0000
 30
0.0000
 40
0.0100
 41
0.0100
  0
VERTEX
  8
SCOTTY_GND
 10
5.5030
 20
2.6275
 30
0.0000
 42
0.4142136
  0
VERTEX
  8
SCOTTY_GND
 10
5.5035
 20
2.6280
 30
0.0000
 42
0.0000
  0
SEQEND
  0
POLYLINE
  8
SCOTTY_GND
 66
1
 10
0.0000
 20
0.0000
 30
0.0000
 40
0.0100
 41
0.0100
  0
VERTEX
  8
SCOTTY_GND
 10
5.5025
 20
2.6280
 30
0.0000
 42
0.4142136
  0
VERTEX
  8
SCOTTY_GND
 10
5.5030
 20
2.6275
 30
0.0000
 42
0.0000
  0
SEQEND
  0
POLYLINE
  8
SCOTTY_GND
 66
1
 10
0.0000
 20
0.0000
 30
0.0000
 40
0.0100
 41
0.0100
  0
VERTEX
  8
SCOTTY_GND
 10
5.5030
 20
2.6285
 30
0.0000
 42
0.4142136
  0
VERTEX
  8
SCOTTY_GND
 10
5.5025
 20
2.6280
 30
0.0000
 42
0.0000
  0
SEQEND
  0
POLYLINE
  8
SCOTTY_GND
 66
1
 10
0.0000
 20
0.0000
 30
0.0000
 40
0.0100
 41
0.0100
  0
VERTEX
  8
SCOTTY_GND
 10
5.5035
 20
2.6280
 30
0.0000
 42
0.4142136
  0
VERTEX
  8
SCOTTY_GND
 10
5.5030
 20
2.6285
 30
0.0000
 42
0.0000
  0
SEQEND
  0
POLYLINE
  8
SCOTTY_GND
 66
1
 10
0.0000
 20
0.0000
 30
0.0000
 40
0.0100
 41
0.0100
  0
VERTEX
  8
SCOTTY_GND
 10
5.7530
 20
2.6275
 30
0.0000
 42
0.4142136
  0
VERTEX
  8
SCOTTY_GND
 10
5.7535
 20
2.6280
 30
0.0000
 42
0.0000
  0
SEQEND
  0
POLYLINE
  8
SCOTTY_GND
 66
1
 10
0.0000
 20
0.0000
 30
0.0000
 40
0.0100
 41
0.0100
  0
VERTEX
  8
SCOTTY_GND
 10
5.7525
 20
2.6280
 30
0.0000
 42
0.4142136
  0
VERTEX
  8
SCOTTY_GND
 10
5.7530
 20
2.6275
 30
0.0000
 42
0.0000
  0
SEQEND
  0
POLYLINE
  8
SCOTTY_GND
 66
1
 10
0.0000
 20
0.0000
 30
0.0000
 40
0.0100
 41
0.0100
  0
VERTEX
  8
SCOTTY_GND
 10
5.7530
 20
2.6285
 30
0.0000
 42
0.4142136
  0
VERTEX
  8
SCOTTY_GND
 10
5.7525
 20
2.6280
 30
0.0000
 42
0.0000
  0
SEQEND
  0
POLYLINE
  8
SCOTTY_GND
 66
1
 10
0.0000
 20
0.0000
 30
0.0000
 40
0.0100
 41
0.0100
  0
VERTEX
  8
SCOTTY_GND
 10
5.7535
 20
2.6280
 30
0.0000
 42
0.4142136
  0
VERTEX
  8
SCOTTY_GND
 10
5.7530
 20
2.6285
 30
0.0000
 42
0.0000
  0
SEQEND
  0
POLYLINE
  8
SCOTTY_GND
 66
1
 10
0.0000
 20
0.0000
 30
0.0000
 40
0.0100
 41
0.0100
  0
VERTEX
  8
SCOTTY_GND
 10
5.5030
 20
3.4025
 30
0.0000
 42
0.4142136
  0
VERTEX
  8
SCOTTY_GND
 10
5.5035
 20
3.4030
 30
0.0000
 42
0.0000
  0
SEQEND
  0
POLYLINE
  8
SCOTTY_GND
 66
1
 10
0.0000
 20
0.0000
 30
0.0000
 40
0.0100
 41
0.0100
  0
VERTEX
  8
SCOTTY_GND
 10
5.5025
 20
3.4030
 30
0.0000
 42
0.4142136
  0
VERTEX
  8
SCOTTY_GND
 10
5.5030
 20
3.4025
 30
0.0000
 42
0.0000
  0
SEQEND
  0
POLYLINE
  8
SCOTTY_GND
 66
1
 10
0.0000
 20
0.0000
 30
0.0000
 40
0.0100
 41
0.0100
  0
VERTEX
  8
SCOTTY_GND
 10
5.5030
 20
3.4035
 30
0.0000
 42
0.4142136
  0
VERTEX
  8
SCOTTY_GND
 10
5.5025
 20
3.4030
 30
0.0000
 42
0.0000
  0
SEQEND
  0
POLYLINE
  8
SCOTTY_GND
 66
1
 10
0.0000
 20
0.0000
 30
0.0000
 40
0.0100
 41
0.0100
  0
VERTEX
  8
SCOTTY_GND
 10
5.5035
 20
3.4030
 30
0.0000
 42
0.4142136
  0
VERTEX
  8
SCOTTY_GND
 10
5.5030
 20
3.4035
 30
0.0000
 42
0.0000
  0
SEQEND
  0
POLYLINE
  8
SCOTTY_GND
 66
1
 10
0.0000
 20
0.0000
 30
0.0000
 40
0.0100
 41
0.0100
  0
VERTEX
  8
SCOTTY_GND
 10
5.7530
 20
3.4025
 30
0.0000
 42
0.4142136
  0
VERTEX
  8
SCOTTY_GND
 10
5.7535
 20
3.4030
 30
0.0000
 42
0.0000
  0
SEQEND
  0
POLYLINE
  8
SCOTTY_GND
 66
1
 10
0.0000
 20
0.0000
 30
0.0000
 40
0.0100
 41
0.0100
  0
VERTEX
  8
SCOTTY_GND
 10
5.7525
 20
3.4030
 30
0.0000
 42
0.4142136
  0
VERTEX
  8
SCOTTY_GND
 10
5.7530
 20
3.4025
 30
0.0000
 42
0.0000
  0
SEQEND
  0
POLYLINE
  8
SCOTTY_GND
 66
1
 10
0.0000
 20
0.0000
 30
0.0000
 40
0.0100
 41
0.0100
  0
VERTEX
  8
SCOTTY_GND
 10
5.7530
 20
3.4035
 30
0.0000
 42
0.4142136
  0
VERTEX
  8
SCOTTY_GND
 10
5.7525
 20
3.4030
 30
0.0000
 42
0.0000
  0
SEQEND
  0
POLYLINE
  8
SCOTTY_GND
 66
1
 10
0.0000
 20
0.0000
 30
0.0000
 40
0.0100
 41
0.0100
  0
VERTEX
  8
SCOTTY_GND
 10
5.7535
 20
3.4030
 30
0.0000
 42
0.4142136
  0
VERTEX
  8
SCOTTY_GND
 10
5.7530
 20
3.4035
 30
0.0000
 42
0.0000
  0
SEQEND
  0
POLYLINE
  8
SCOTTY_GND
 66
1
 10
0.0000
 20
0.0000
 30
0.0000
 40
0.0100
 41
0.0100
  0
VERTEX
  8
SCOTTY_GND
 10
5.5030
 20
0.3025
 30
0.0000
 42
0.4142136
  0
VERTEX
  8
SCOTTY_GND
 10
5.5035
 20
0.3030
 30
0.0000
 42
0.0000
  0
SEQEND
  0
POLYLINE
  8
SCOTTY_GND
 66
1
 10
0.0000
 20
0.0000
 30
0.0000
 40
0.0100
 41
0.0100
  0
VERTEX
  8
SCOTTY_GND
 10
5.5025
 20
0.3030
 30
0.0000
 42
0.4142136
  0
VERTEX
  8
SCOTTY_GND
 10
5.5030
 20
0.3025
 30
0.0000
 42
0.0000
  0
SEQEND
  0
POLYLINE
  8
SCOTTY_GND
 66
1
 10
0.0000
 20
0.0000
 30
0.0000
 40
0.0100
 41
0.0100
  0
VERTEX
  8
SCOTTY_GND
 10
5.5030
 20
0.3035
 30
0.0000
 42
0.4142136
  0
VERTEX
  8
SCOTTY_GND
 10
5.5025
 20
0.3030
 30
0.0000
 42
0.0000
  0
SEQEND
  0
POLYLINE
  8
SCOTTY_GND
 66
1
 10
0.0000
 20
0.0000
 30
0.0000
 40
0.0100
 41
0.0100
  0
VERTEX
  8
SCOTTY_GND
 10
5.5035
 20
0.3030
 30
0.0000
 42
0.4142136
  0
VERTEX
  8
SCOTTY_GND
 10
5.5030
 20
0.3035
 30
0.0000
 42
0.0000
  0
SEQEND
  0
POLYLINE
  8
SCOTTY_GND
 66
1
 10
0.0000
 20
0.0000
 30
0.0000
 40
0.0100
 41
0.0100
  0
VERTEX
  8
SCOTTY_GND
 10
5.7530
 20
0.3025
 30
0.0000
 42
0.4142136
  0
VERTEX
  8
SCOTTY_GND
 10
5.7535
 20
0.3030
 30
0.0000
 42
0.0000
  0
SEQEND
  0
POLYLINE
  8
SCOTTY_GND
 66
1
 10
0.0000
 20
0.0000
 30
0.0000
 40
0.0100
 41
0.0100
  0
VERTEX
  8
SCOTTY_GND
 10
5.7525
 20
0.3030
 30
0.0000
 42
0.4142136
  0
VERTEX
  8
SCOTTY_GND
 10
5.7530
 20
0.3025
 30
0.0000
 42
0.0000
  0
SEQEND
  0
POLYLINE
  8
SCOTTY_GND
 66
1
 10
0.0000
 20
0.0000
 30
0.0000
 40
0.0100
 41
0.0100
  0
VERTEX
  8
SCOTTY_GND
 10
5.7530
 20
0.3035
 30
0.0000
 42
0.4142136
  0
VERTEX
  8
SCOTTY_GND
 10
5.7525
 20
0.3030
 30
0.0000
 42
0.0000
  0
SEQEND
  0
POLYLINE
  8
SCOTTY_GND
 66
1
 10
0.0000
 20
0.0000
 30
0.0000
 40
0.0100
 41
0.0100
  0
VERTEX
  8
SCOTTY_GND
 10
5.7535
 20
0.3030
 30
0.0000
 42
0.4142136
  0
VERTEX
  8
SCOTTY_GND
 10
5.7530
 20
0.3035
 30
0.0000
 42
0.0000
  0
SEQEND
  0
POLYLINE
  8
SCOTTY_GND
 66
1
 10
0.0000
 20
0.0000
 30
0.0000
 40
0.0100
 41
0.0100
  0
VERTEX
  8
SCOTTY_GND
 10
0.3250
 20
3.2525
 30
0.0000
 42
0.4142136
  0
VERTEX
  8
SCOTTY_GND
 10
0.3375
 20
3.2650
 30
0.0000
 42
0.0000
  0
SEQEND
  0
POLYLINE
  8
SCOTTY_GND
 66
1
 10
0.0000
 20
0.0000
 30
0.0000
 40
0.0100
 41
0.0100
  0
VERTEX
  8
SCOTTY_GND
 10
0.3125
 20
3.2650
 30
0.0000
 42
0.4142136
  0
VERTEX
  8
SCOTTY_GND
 10
0.3250
 20
3.2525
 30
0.0000
 42
0.0000
  0
SEQEND
  0
POLYLINE
  8
SCOTTY_GND
 66
1
 10
0.0000
 20
0.0000
 30
0.0000
 40
0.0100
 41
0.0100
  0
VERTEX
  8
SCOTTY_GND
 10
0.3250
 20
3.2775
 30
0.0000
 42
0.4142136
  0
VERTEX
  8
SCOTTY_GND
 10
0.3125
 20
3.2650
 30
0.0000
 42
0.0000
  0
SEQEND
  0
POLYLINE
  8
SCOTTY_GND
 66
1
 10
0.0000
 20
0.0000
 30
0.0000
 40
0.0100
 41
0.0100
  0
VERTEX
  8
SCOTTY_GND
 10
0.3375
 20
3.2650
 30
0.0000
 42
0.4142136
  0
VERTEX
  8
SCOTTY_GND
 10
0.3250
 20
3.2775
 30
0.0000
 42
0.0000
  0
SEQEND
  0
POLYLINE
  8
SCOTTY_GND
 66
1
 10
0.0000
 20
0.0000
 30
0.0000
 40
0.0010
 41
0.0010
  0
VERTEX
  8
SCOTTY_GND
 10
0.3500
 20
0.2500
 30
0.0000
  0
VERTEX
  8
SCOTTY_GND
 10
0.3500
 20
0.4650
 30
0.0000
  0
VERTEX
  8
SCOTTY_GND
 10
0.2000
 20
0.4650
 30
0.0000
  0
VERTEX
  8
SCOTTY_GND
 10
0.2000
 20
0.5550
 30
0.0000
  0
VERTEX
  8
SCOTTY_GND
 10
0.3500
 20
0.5550
 30
0.0000
  0
VERTEX
  8
SCOTTY_GND
 10
0.3500
 20
3.2450
 30
0.0000
  0
VERTEX
  8
SCOTTY_GND
 10
0.2000
 20
3.2450
 30
0.0000
  0
VERTEX
  8
SCOTTY_GND
 10
0.2000
 20
3.3350
 30
0.0000
  0
VERTEX
  8
SCOTTY_GND
 10
0.3500
 20
3.3350
 30
0.0000
  0
VERTEX
  8
SCOTTY_GND
 10
0.3500
 20
3.5500
 30
0.0000
  0
VERTEX
  8
SCOTTY_GND
 10
0.8000
 20
3.5500
 30
0.0000
  0
VERTEX
  8
SCOTTY_GND
 10
0.8000
 20
3.3350
 30
0.0000
  0
VERTEX
  8
SCOTTY_GND
 10
0.9500
 20
3.3350
 30
0.0000
  0
VERTEX
  8
SCOTTY_GND
 10
0.9500
 20
3.2450
 30
0.0000
  0
VERTEX
  8
SCOTTY_GND
 10
0.8000
 20
3.2450
 30
0.0000
  0
VERTEX
  8
SCOTTY_GND
 10
0.8000
 20
0.5550
 30
0.0000
  0
VERTEX
  8
SCOTTY_GND
 10
0.9500
 20
0.5550
 30
0.0000
  0
VERTEX
  8
SCOTTY_GND
 10
0.9500
 20
0.4650
 30
0.0000
  0
VERTEX
  8
SCOTTY_GND
 10
0.8000
 20
0.4650
 30
0.0000
  0
VERTEX
  8
SCOTTY_GND
 10
0.8000
 20
0.2500
 30
0.0000
  0
VERTEX
  8
SCOTTY_GND
 10
0.3500
 20
0.2500
 30
0.0000
  0
SEQEND
  0
POLYLINE
  8
SCOTTY_GND
 66
1
 10
0.0000
 20
0.0000
 30
0.0000
 40
0.0010
 41
0.0010
  0
VERTEX
  8
SCOTTY_GND
 10
0.6908
 20
1.0789
 30
0.0000
  0
VERTEX
  8
SCOTTY_GND
 10
0.7000
 20
1.0780
 30
0.0000
  0
VERTEX
  8
SCOTTY_GND
 10
0.7092
 20
1.0789
 30
0.0000
  0
VERTEX
  8
SCOTTY_GND
 10
0.7180
 20
1.0816
 30
0.0000
  0
VERTEX
  8
SCOTTY_GND
 10
0.7261
 20
1.0859
 30
0.0000
  0
VERTEX
  8
SCOTTY_GND
 10
0.7332
 20
1.0918
 30
0.0000
  0
VERTEX
  8
SCOTTY_GND
 10
0.7391
 20
1.0989
 30
0.0000
  0
VERTEX
  8
SCOTTY_GND
 10
0.7434
 20
1.1070
 30
0.0000
  0
VERTEX
  8
SCOTTY_GND
 10
0.7461
 20
1.1158
 30
0.0000
  0
VERTEX
  8
SCOTTY_GND
 10
0.7470
 20
1.1250
 30
0.0000
  0
VERTEX
  8
SCOTTY_GND
 10
0.7461
 20
1.1342
 30
0.0000
  0
VERTEX
  8
SCOTTY_GND
 10
0.7434
 20
1.1430
 30
0.0000
  0
VERTEX
  8
SCOTTY_GND
 10
0.7391
 20
1.1511
 30
0.0000
  0
VERTEX
  8
SCOTTY_GND
 10
0.7332
 20
1.1582
 30
0.0000
  0
VERTEX
  8
SCOTTY_GND
 10
0.7261
 20
1.1641
 30
0.0000
  0
VERTEX
  8
SCOTTY_GND
 10
0.7180
 20
1.1684
 30
0.0000
  0
VERTEX
  8
SCOTTY_GND
 10
0.7092
 20
1.1711
 30
0.0000
  0
VERTEX
  8
SCOTTY_GND
 10
0.7000
 20
1.1720
 30
0.0000
  0
VERTEX
  8
SCOTTY_GND
 10
0.6908
 20
1.1711
 30
0.0000
  0
VERTEX
  8
SCOTTY_GND
 10
0.6820
 20
1.1684
 30
0.0000
  0
VERTEX
  8
SCOTTY_GND
 10
0.6739
 20
1.1641
 30
0.0000
  0
VERTEX
  8
SCOTTY_GND
 10
0.6668
 20
1.1582
 30
0.0000
  0
VERTEX
  8
SCOTTY_GND
 10
0.6609
 20
1.1511
 30
0.0000
  0
VERTEX
  8
SCOTTY_GND
 10
0.6566
 20
1.1430
 30
0.0000
  0
VERTEX
  8
SCOTTY_GND
 10
0.6539
 20
1.1342
 30
0.0000
  0
VERTEX
  8
SCOTTY_GND
 10
0.6530
 20
1.1250
 30
0.0000
  0
VERTEX
  8
SCOTTY_GND
 10
0.6539
 20
1.1158
 30
0.0000
  0
VERTEX
  8
SCOTTY_GND
 10
0.6566
 20
1.1070
 30
0.0000
  0
VERTEX
  8
SCOTTY_GND
 10
0.6609
 20
1.0989
 30
0.0000
  0
VERTEX
  8
SCOTTY_GND
 10
0.6668
 20
1.0918
 30
0.0000
  0
VERTEX
  8
SCOTTY_GND
 10
0.6739
 20
1.0859
 30
0.0000
  0
VERTEX
  8
SCOTTY_GND
 10
0.6820
 20
1.0816
 30
0.0000
  0
VERTEX
  8
SCOTTY_GND
 10
0.6908
 20
1.0789
 30
0.0000
  0
SEQEND
  0
POLYLINE
  8
SCOTTY_GND
 66
1
 10
0.0000
 20
0.0000
 30
0.0000
 40
0.0010
 41
0.0010
  0
VERTEX
  8
SCOTTY_GND
 10
0.4408
 20
1.0789
 30
0.0000
  0
VERTEX
  8
SCOTTY_GND
 10
0.4500
 20
1.0780
 30
0.0000
  0
VERTEX
  8
SCOTTY_GND
 10
0.4592
 20
1.0789
 30
0.0000
  0
VERTEX
  8
SCOTTY_GND
 10
0.4680
 20
1.0816
 30
0.0000
  0
VERTEX
  8
SCOTTY_GND
 10
0.4761
 20
1.0859
 30
0.0000
  0
VERTEX
  8
SCOTTY_GND
 10
0.4832
 20
1.0918
 30
0.0000
  0
VERTEX
  8
SCOTTY_GND
 10
0.4891
 20
1.0989
 30
0.0000
  0
VERTEX
  8
SCOTTY_GND
 10
0.4934
 20
1.1070
 30
0.0000
  0
VERTEX
  8
SCOTTY_GND
 10
0.4961
 20
1.1158
 30
0.0000
  0
VERTEX
  8
SCOTTY_GND
 10
0.4970
 20
1.1250
 30
0.0000
  0
VERTEX
  8
SCOTTY_GND
 10
0.4961
 20
1.1342
 30
0.0000
  0
VERTEX
  8
SCOTTY_GND
 10
0.4934
 20
1.1430
 30
0.0000
  0
VERTEX
  8
SCOTTY_GND
 10
0.4891
 20
1.1511
 30
0.0000
  0
VERTEX
  8
SCOTTY_GND
 10
0.4832
 20
1.1582
 30
0.0000
  0
VERTEX
  8
SCOTTY_GND
 10
0.4761
 20
1.1641
 30
0.0000
  0
VERTEX
  8
SCOTTY_GND
 10
0.4680
 20
1.1684
 30
0.0000
  0
VERTEX
  8
SCOTTY_GND
 10
0.4592
 20
1.1711
 30
0.0000
  0
VERTEX
  8
SCOTTY_GND
 10
0.4500
 20
1.1720
 30
0.0000
  0
VERTEX
  8
SCOTTY_GND
 10
0.4408
 20
1.1711
 30
0.0000
  0
VERTEX
  8
SCOTTY_GND
 10
0.4320
 20
1.1684
 30
0.0000
  0
VERTEX
  8
SCOTTY_GND
 10
0.4239
 20
1.1641
 30
0.0000
  0
VERTEX
  8
SCOTTY_GND
 10
0.4168
 20
1.1582
 30
0.0000
  0
VERTEX
  8
SCOTTY_GND
 10
0.4109
 20
1.1511
 30
0.0000
  0
VERTEX
  8
SCOTTY_GND
 10
0.4066
 20
1.1430
 30
0.0000
  0
VERTEX
  8
SCOTTY_GND
 10
0.4039
 20
1.1342
 30
0.0000
  0
VERTEX
  8
SCOTTY_GND
 10
0.4030
 20
1.1250
 30
0.0000
  0
VERTEX
  8
SCOTTY_GND
 10
0.4039
 20
1.1158
 30
0.0000
  0
VERTEX
  8
SCOTTY_GND
 10
0.4066
 20
1.1070
 30
0.0000
  0
VERTEX
  8
SCOTTY_GND
 10
0.4109
 20
1.0989
 30
0.0000
  0
VERTEX
  8
SCOTTY_GND
 10
0.4168
 20
1.0918
 30
0.0000
  0
VERTEX
  8
SCOTTY_GND
 10
0.4239
 20
1.0859
 30
0.0000
  0
VERTEX
  8
SCOTTY_GND
 10
0.4320
 20
1.0816
 30
0.0000
  0
VERTEX
  8
SCOTTY_GND
 10
0.4408
 20
1.0789
 30
0.0000
  0
SEQEND
  0
POLYLINE
  8
SCOTTY_GND
 66
1
 10
0.0000
 20
0.0000
 30
0.0000
 40
0.0010
 41
0.0010
  0
VERTEX
  8
SCOTTY_GND
 10
0.6908
 20
1.8539
 30
0.0000
  0
VERTEX
  8
SCOTTY_GND
 10
0.7000
 20
1.8530
 30
0.0000
  0
VERTEX
  8
SCOTTY_GND
 10
0.7092
 20
1.8539
 30
0.0000
  0
VERTEX
  8
SCOTTY_GND
 10
0.7180
 20
1.8566
 30
0.0000
  0
VERTEX
  8
SCOTTY_GND
 10
0.7261
 20
1.8609
 30
0.0000
  0
VERTEX
  8
SCOTTY_GND
 10
0.7332
 20
1.8668
 30
0.0000
  0
VERTEX
  8
SCOTTY_GND
 10
0.7391
 20
1.8739
 30
0.0000
  0
VERTEX
  8
SCOTTY_GND
 10
0.7434
 20
1.8820
 30
0.0000
  0
VERTEX
  8
SCOTTY_GND
 10
0.7461
 20
1.8908
 30
0.0000
  0
VERTEX
  8
SCOTTY_GND
 10
0.7470
 20
1.9000
 30
0.0000
  0
VERTEX
  8
SCOTTY_GND
 10
0.7461
 20
1.9092
 30
0.0000
  0
VERTEX
  8
SCOTTY_GND
 10
0.7434
 20
1.9180
 30
0.0000
  0
VERTEX
  8
SCOTTY_GND
 10
0.7391
 20
1.9261
 30
0.0000
  0
VERTEX
  8
SCOTTY_GND
 10
0.7332
 20
1.9332
 30
0.0000
  0
VERTEX
  8
SCOTTY_GND
 10
0.7261
 20
1.9391
 30
0.0000
  0
VERTEX
  8
SCOTTY_GND
 10
0.7180
 20
1.9434
 30
0.0000
  0
VERTEX
  8
SCOTTY_GND
 10
0.7092
 20
1.9461
 30
0.0000
  0
VERTEX
  8
SCOTTY_GND
 10
0.7000
 20
1.9470
 30
0.0000
  0
VERTEX
  8
SCOTTY_GND
 10
0.6908
 20
1.9461
 30
0.0000
  0
VERTEX
  8
SCOTTY_GND
 10
0.6820
 20
1.9434
 30
0.0000
  0
VERTEX
  8
SCOTTY_GND
 10
0.6739
 20
1.9391
 30
0.0000
  0
VERTEX
  8
SCOTTY_GND
 10
0.6668
 20
1.9332
 30
0.0000
  0
VERTEX
  8
SCOTTY_GND
 10
0.6609
 20
1.9261
 30
0.0000
  0
VERTEX
  8
SCOTTY_GND
 10
0.6566
 20
1.9180
 30
0.0000
  0
VERTEX
  8
SCOTTY_GND
 10
0.6539
 20
1.9092
 30
0.0000
  0
VERTEX
  8
SCOTTY_GND
 10
0.6530
 20
1.9000
 30
0.0000
  0
VERTEX
  8
SCOTTY_GND
 10
0.6539
 20
1.8908
 30
0.0000
  0
VERTEX
  8
SCOTTY_GND
 10
0.6566
 20
1.8820
 30
0.0000
  0
VERTEX
  8
SCOTTY_GND
 10
0.6609
 20
1.8739
 30
0.0000
  0
VERTEX
  8
SCOTTY_GND
 10
0.6668
 20
1.8668
 30
0.0000
  0
VERTEX
  8
SCOTTY_GND
 10
0.6739
 20
1.8609
 30
0.0000
  0
VERTEX
  8
SCOTTY_GND
 10
0.6820
 20
1.8566
 30
0.0000
  0
VERTEX
  8
SCOTTY_GND
 10
0.6908
 20
1.8539
 30
0.0000
  0
SEQEND
  0
POLYLINE
  8
SCOTTY_GND
 66
1
 10
0.0000
 20
0.0000
 30
0.0000
 40
0.0010
 41
0.0010
  0
VERTEX
  8
SCOTTY_GND
 10
0.4408
 20
1.8539
 30
0.0000
  0
VERTEX
  8
SCOTTY_GND
 10
0.4500
 20
1.8530
 30
0.0000
  0
VERTEX
  8
SCOTTY_GND
 10
0.4592
 20
1.8539
 30
0.0000
  0
VERTEX
  8
SCOTTY_GND
 10
0.4680
 20
1.8566
 30
0.0000
  0
VERTEX
  8
SCOTTY_GND
 10
0.4761
 20
1.8609
 30
0.0000
  0
VERTEX
  8
SCOTTY_GND
 10
0.4832
 20
1.8668
 30
0.0000
  0
VERTEX
  8
SCOTTY_GND
 10
0.4891
 20
1.8739
 30
0.0000
  0
VERTEX
  8
SCOTTY_GND
 10
0.4934
 20
1.8820
 30
0.0000
  0
VERTEX
  8
SCOTTY_GND
 10
0.4961
 20
1.8908
 30
0.0000
  0
VERTEX
  8
SCOTTY_GND
 10
0.4970
 20
1.9000
 30
0.0000
  0
VERTEX
  8
SCOTTY_GND
 10
0.4961
 20
1.9092
 30
0.0000
  0
VERTEX
  8
SCOTTY_GND
 10
0.4934
 20
1.9180
 30
0.0000
  0
VERTEX
  8
SCOTTY_GND
 10
0.4891
 20
1.9261
 30
0.0000
  0
VERTEX
  8
SCOTTY_GND
 10
0.4832
 20
1.9332
 30
0.0000
  0
VERTEX
  8
SCOTTY_GND
 10
0.4761
 20
1.9391
 30
0.0000
  0
VERTEX
  8
SCOTTY_GND
 10
0.4680
 20
1.9434
 30
0.0000
  0
VERTEX
  8
SCOTTY_GND
 10
0.4592
 20
1.9461
 30
0.0000
  0
VERTEX
  8
SCOTTY_GND
 10
0.4500
 20
1.9470
 30
0.0000
  0
VERTEX
  8
SCOTTY_GND
 10
0.4408
 20
1.9461
 30
0.0000
  0
VERTEX
  8
SCOTTY_GND
 10
0.4320
 20
1.9434
 30
0.0000
  0
VERTEX
  8
SCOTTY_GND
 10
0.4239
 20
1.9391
 30
0.0000
  0
VERTEX
  8
SCOTTY_GND
 10
0.4168
 20
1.9332
 30
0.0000
  0
VERTEX
  8
SCOTTY_GND
 10
0.4109
 20
1.9261
 30
0.0000
  0
VERTEX
  8
SCOTTY_GND
 10
0.4066
 20
1.9180
 30
0.0000
  0
VERTEX
  8
SCOTTY_GND
 10
0.4039
 20
1.9092
 30
0.0000
  0
VERTEX
  8
SCOTTY_GND
 10
0.4030
 20
1.9000
 30
0.0000
  0
VERTEX
  8
SCOTTY_GND
 10
0.4039
 20
1.8908
 30
0.0000
  0
VERTEX
  8
SCOTTY_GND
 10
0.4066
 20
1.8820
 30
0.0000
  0
VERTEX
  8
SCOTTY_GND
 10
0.4109
 20
1.8739
 30
0.0000
  0
VERTEX
  8
SCOTTY_GND
 10
0.4168
 20
1.8668
 30
0.0000
  0
VERTEX
  8
SCOTTY_GND
 10
0.4239
 20
1.8609
 30
0.0000
  0
VERTEX
  8
SCOTTY_GND
 10
0.4320
 20
1.8566
 30
0.0000
  0
VERTEX
  8
SCOTTY_GND
 10
0.4408
 20
1.8539
 30
0.0000
  0
SEQEND
  0
POLYLINE
  8
SCOTTY_GND
 66
1
 10
0.0000
 20
0.0000
 30
0.0000
 40
0.0010
 41
0.0010
  0
VERTEX
  8
SCOTTY_GND
 10
0.4408
 20
2.6289
 30
0.0000
  0
VERTEX
  8
SCOTTY_GND
 10
0.4500
 20
2.6280
 30
0.0000
  0
VERTEX
  8
SCOTTY_GND
 10
0.4592
 20
2.6289
 30
0.0000
  0
VERTEX
  8
SCOTTY_GND
 10
0.4680
 20
2.6316
 30
0.0000
  0
VERTEX
  8
SCOTTY_GND
 10
0.4761
 20
2.6359
 30
0.0000
  0
VERTEX
  8
SCOTTY_GND
 10
0.4832
 20
2.6418
 30
0.0000
  0
VERTEX
  8
SCOTTY_GND
 10
0.4891
 20
2.6489
 30
0.0000
  0
VERTEX
  8
SCOTTY_GND
 10
0.4934
 20
2.6570
 30
0.0000
  0
VERTEX
  8
SCOTTY_GND
 10
0.4961
 20
2.6658
 30
0.0000
  0
VERTEX
  8
SCOTTY_GND
 10
0.4970
 20
2.6750
 30
0.0000
  0
VERTEX
  8
SCOTTY_GND
 10
0.4961
 20
2.6842
 30
0.0000
  0
VERTEX
  8
SCOTTY_GND
 10
0.4934
 20
2.6930
 30
0.0000
  0
VERTEX
  8
SCOTTY_GND
 10
0.4891
 20
2.7011
 30
0.0000
  0
VERTEX
  8
SCOTTY_GND
 10
0.4832
 20
2.7082
 30
0.0000
  0
VERTEX
  8
SCOTTY_GND
 10
0.4761
 20
2.7141
 30
0.0000
  0
VERTEX
  8
SCOTTY_GND
 10
0.4680
 20
2.7184
 30
0.0000
  0
VERTEX
  8
SCOTTY_GND
 10
0.4592
 20
2.7211
 30
0.0000
  0
VERTEX
  8
SCOTTY_GND
 10
0.4500
 20
2.7220
 30
0.0000
  0
VERTEX
  8
SCOTTY_GND
 10
0.4408
 20
2.7211
 30
0.0000
  0
VERTEX
  8
SCOTTY_GND
 10
0.4320
 20
2.7184
 30
0.0000
  0
VERTEX
  8
SCOTTY_GND
 10
0.4239
 20
2.7141
 30
0.0000
  0
VERTEX
  8
SCOTTY_GND
 10
0.4168
 20
2.7082
 30
0.0000
  0
VERTEX
  8
SCOTTY_GND
 10
0.4109
 20
2.7011
 30
0.0000
  0
VERTEX
  8
SCOTTY_GND
 10
0.4066
 20
2.6930
 30
0.0000
  0
VERTEX
  8
SCOTTY_GND
 10
0.4039
 20
2.6842
 30
0.0000
  0
VERTEX
  8
SCOTTY_GND
 10
0.4030
 20
2.6750
 30
0.0000
  0
VERTEX
  8
SCOTTY_GND
 10
0.4039
 20
2.6658
 30
0.0000
  0
VERTEX
  8
SCOTTY_GND
 10
0.4066
 20
2.6570
 30
0.0000
  0
VERTEX
  8
SCOTTY_GND
 10
0.4109
 20
2.6489
 30
0.0000
  0
VERTEX
  8
SCOTTY_GND
 10
0.4168
 20
2.6418
 30
0.0000
  0
VERTEX
  8
SCOTTY_GND
 10
0.4239
 20
2.6359
 30
0.0000
  0
VERTEX
  8
SCOTTY_GND
 10
0.4320
 20
2.6316
 30
0.0000
  0
VERTEX
  8
SCOTTY_GND
 10
0.4408
 20
2.6289
 30
0.0000
  0
SEQEND
  0
POLYLINE
  8
SCOTTY_GND
 66
1
 10
0.0000
 20
0.0000
 30
0.0000
 40
0.0010
 41
0.0010
  0
VERTEX
  8
SCOTTY_GND
 10
0.6908
 20
2.6289
 30
0.0000
  0
VERTEX
  8
SCOTTY_GND
 10
0.7000
 20
2.6280
 30
0.0000
  0
VERTEX
  8
SCOTTY_GND
 10
0.7092
 20
2.6289
 30
0.0000
  0
VERTEX
  8
SCOTTY_GND
 10
0.7180
 20
2.6316
 30
0.0000
  0
VERTEX
  8
SCOTTY_GND
 10
0.7261
 20
2.6359
 30
0.0000
  0
VERTEX
  8
SCOTTY_GND
 10
0.7332
 20
2.6418
 30
0.0000
  0
VERTEX
  8
SCOTTY_GND
 10
0.7391
 20
2.6489
 30
0.0000
  0
VERTEX
  8
SCOTTY_GND
 10
0.7434
 20
2.6570
 30
0.0000
  0
VERTEX
  8
SCOTTY_GND
 10
0.7461
 20
2.6658
 30
0.0000
  0
VERTEX
  8
SCOTTY_GND
 10
0.7470
 20
2.6750
 30
0.0000
  0
VERTEX
  8
SCOTTY_GND
 10
0.7461
 20
2.6842
 30
0.0000
  0
VERTEX
  8
SCOTTY_GND
 10
0.7434
 20
2.6930
 30
0.0000
  0
VERTEX
  8
SCOTTY_GND
 10
0.7391
 20
2.7011
 30
0.0000
  0
VERTEX
  8
SCOTTY_GND
 10
0.7332
 20
2.7082
 30
0.0000
  0
VERTEX
  8
SCOTTY_GND
 10
0.7261
 20
2.7141
 30
0.0000
  0
VERTEX
  8
SCOTTY_GND
 10
0.7180
 20
2.7184
 30
0.0000
  0
VERTEX
  8
SCOTTY_GND
 10
0.7092
 20
2.7211
 30
0.0000
  0
VERTEX
  8
SCOTTY_GND
 10
0.7000
 20
2.7220
 30
0.0000
  0
VERTEX
  8
SCOTTY_GND
 10
0.6908
 20
2.7211
 30
0.0000
  0
VERTEX
  8
SCOTTY_GND
 10
0.6820
 20
2.7184
 30
0.0000
  0
VERTEX
  8
SCOTTY_GND
 10
0.6739
 20
2.7141
 30
0.0000
  0
VERTEX
  8
SCOTTY_GND
 10
0.6668
 20
2.7082
 30
0.0000
  0
VERTEX
  8
SCOTTY_GND
 10
0.6609
 20
2.7011
 30
0.0000
  0
VERTEX
  8
SCOTTY_GND
 10
0.6566
 20
2.6930
 30
0.0000
  0
VERTEX
  8
SCOTTY_GND
 10
0.6539
 20
2.6842
 30
0.0000
  0
VERTEX
  8
SCOTTY_GND
 10
0.6530
 20
2.6750
 30
0.0000
  0
VERTEX
  8
SCOTTY_GND
 10
0.6539
 20
2.6658
 30
0.0000
  0
VERTEX
  8
SCOTTY_GND
 10
0.6566
 20
2.6570
 30
0.0000
  0
VERTEX
  8
SCOTTY_GND
 10
0.6609
 20
2.6489
 30
0.0000
  0
VERTEX
  8
SCOTTY_GND
 10
0.6668
 20
2.6418
 30
0.0000
  0
VERTEX
  8
SCOTTY_GND
 10
0.6739
 20
2.6359
 30
0.0000
  0
VERTEX
  8
SCOTTY_GND
 10
0.6820
 20
2.6316
 30
0.0000
  0
VERTEX
  8
SCOTTY_GND
 10
0.6908
 20
2.6289
 30
0.0000
  0
SEQEND
  0
POLYLINE
  8
SCOTTY_GND
 66
1
 10
0.0000
 20
0.0000
 30
0.0000
 40
0.0010
 41
0.0010
  0
VERTEX
  8
SCOTTY_GND
 10
0.4408
 20
3.4039
 30
0.0000
  0
VERTEX
  8
SCOTTY_GND
 10
0.4500
 20
3.4030
 30
0.0000
  0
VERTEX
  8
SCOTTY_GND
 10
0.4592
 20
3.4039
 30
0.0000
  0
VERTEX
  8
SCOTTY_GND
 10
0.4680
 20
3.4066
 30
0.0000
  0
VERTEX
  8
SCOTTY_GND
 10
0.4761
 20
3.4109
 30
0.0000
  0
VERTEX
  8
SCOTTY_GND
 10
0.4832
 20
3.4168
 30
0.0000
  0
VERTEX
  8
SCOTTY_GND
 10
0.4891
 20
3.4239
 30
0.0000
  0
VERTEX
  8
SCOTTY_GND
 10
0.4934
 20
3.4320
 30
0.0000
  0
VERTEX
  8
SCOTTY_GND
 10
0.4961
 20
3.4409
 30
0.0000
  0
VERTEX
  8
SCOTTY_GND
 10
0.4970
 20
3.4500
 30
0.0000
  0
VERTEX
  8
SCOTTY_GND
 10
0.4961
 20
3.4592
 30
0.0000
  0
VERTEX
  8
SCOTTY_GND
 10
0.4934
 20
3.4680
 30
0.0000
  0
VERTEX
  8
SCOTTY_GND
 10
0.4891
 20
3.4761
 30
0.0000
  0
VERTEX
  8
SCOTTY_GND
 10
0.4832
 20
3.4833
 30
0.0000
  0
VERTEX
  8
SCOTTY_GND
 10
0.4761
 20
3.4891
 30
0.0000
  0
VERTEX
  8
SCOTTY_GND
 10
0.4680
 20
3.4934
 30
0.0000
  0
VERTEX
  8
SCOTTY_GND
 10
0.4592
 20
3.4961
 30
0.0000
  0
VERTEX
  8
SCOTTY_GND
 10
0.4500
 20
3.4970
 30
0.0000
  0
VERTEX
  8
SCOTTY_GND
 10
0.4408
 20
3.4961
 30
0.0000
  0
VERTEX
  8
SCOTTY_GND
 10
0.4320
 20
3.4934
 30
0.0000
  0
VERTEX
  8
SCOTTY_GND
 10
0.4239
 20
3.4891
 30
0.0000
  0
VERTEX
  8
SCOTTY_GND
 10
0.4168
 20
3.4833
 30
0.0000
  0
VERTEX
  8
SCOTTY_GND
 10
0.4109
 20
3.4761
 30
0.0000
  0
VERTEX
  8
SCOTTY_GND
 10
0.4066
 20
3.4680
 30
0.0000
  0
VERTEX
  8
SCOTTY_GND
 10
0.4039
 20
3.4592
 30
0.0000
  0
VERTEX
  8
SCOTTY_GND
 10
0.4030
 20
3.4500
 30
0.0000
  0
VERTEX
  8
SCOTTY_GND
 10
0.4039
 20
3.4409
 30
0.0000
  0
VERTEX
  8
SCOTTY_GND
 10
0.4066
 20
3.4320
 30
0.0000
  0
VERTEX
  8
SCOTTY_GND
 10
0.4109
 20
3.4239
 30
0.0000
  0
VERTEX
  8
SCOTTY_GND
 10
0.4168
 20
3.4168
 30
0.0000
  0
VERTEX
  8
SCOTTY_GND
 10
0.4239
 20
3.4109
 30
0.0000
  0
VERTEX
  8
SCOTTY_GND
 10
0.4320
 20
3.4066
 30
0.0000
  0
VERTEX
  8
SCOTTY_GND
 10
0.4408
 20
3.4039
 30
0.0000
  0
SEQEND
  0
POLYLINE
  8
SCOTTY_GND
 66
1
 10
0.0000
 20
0.0000
 30
0.0000
 40
0.0010
 41
0.0010
  0
VERTEX
  8
SCOTTY_GND
 10
0.6908
 20
3.4039
 30
0.0000
  0
VERTEX
  8
SCOTTY_GND
 10
0.7000
 20
3.4030
 30
0.0000
  0
VERTEX
  8
SCOTTY_GND
 10
0.7092
 20
3.4039
 30
0.0000
  0
VERTEX
  8
SCOTTY_GND
 10
0.7180
 20
3.4066
 30
0.0000
  0
VERTEX
  8
SCOTTY_GND
 10
0.7261
 20
3.4109
 30
0.0000
  0
VERTEX
  8
SCOTTY_GND
 10
0.7332
 20
3.4168
 30
0.0000
  0
VERTEX
  8
SCOTTY_GND
 10
0.7391
 20
3.4239
 30
0.0000
  0
VERTEX
  8
SCOTTY_GND
 10
0.7434
 20
3.4320
 30
0.0000
  0
VERTEX
  8
SCOTTY_GND
 10
0.7461
 20
3.4409
 30
0.0000
  0
VERTEX
  8
SCOTTY_GND
 10
0.7470
 20
3.4500
 30
0.0000
  0
VERTEX
  8
SCOTTY_GND
 10
0.7461
 20
3.4592
 30
0.0000
  0
VERTEX
  8
SCOTTY_GND
 10
0.7434
 20
3.4680
 30
0.0000
  0
VERTEX
  8
SCOTTY_GND
 10
0.7391
 20
3.4761
 30
0.0000
  0
VERTEX
  8
SCOTTY_GND
 10
0.7332
 20
3.4833
 30
0.0000
  0
VERTEX
  8
SCOTTY_GND
 10
0.7261
 20
3.4891
 30
0.0000
  0
VERTEX
  8
SCOTTY_GND
 10
0.7180
 20
3.4934
 30
0.0000
  0
VERTEX
  8
SCOTTY_GND
 10
0.7092
 20
3.4961
 30
0.0000
  0
VERTEX
  8
SCOTTY_GND
 10
0.7000
 20
3.4970
 30
0.0000
  0
VERTEX
  8
SCOTTY_GND
 10
0.6908
 20
3.4961
 30
0.0000
  0
VERTEX
  8
SCOTTY_GND
 10
0.6820
 20
3.4934
 30
0.0000
  0
VERTEX
  8
SCOTTY_GND
 10
0.6739
 20
3.4891
 30
0.0000
  0
VERTEX
  8
SCOTTY_GND
 10
0.6668
 20
3.4833
 30
0.0000
  0
VERTEX
  8
SCOTTY_GND
 10
0.6609
 20
3.4761
 30
0.0000
  0
VERTEX
  8
SCOTTY_GND
 10
0.6566
 20
3.4680
 30
0.0000
  0
VERTEX
  8
SCOTTY_GND
 10
0.6539
 20
3.4592
 30
0.0000
  0
VERTEX
  8
SCOTTY_GND
 10
0.6530
 20
3.4500
 30
0.0000
  0
VERTEX
  8
SCOTTY_GND
 10
0.6539
 20
3.4409
 30
0.0000
  0
VERTEX
  8
SCOTTY_GND
 10
0.6566
 20
3.4320
 30
0.0000
  0
VERTEX
  8
SCOTTY_GND
 10
0.6609
 20
3.4239
 30
0.0000
  0
VERTEX
  8
SCOTTY_GND
 10
0.6668
 20
3.4168
 30
0.0000
  0
VERTEX
  8
SCOTTY_GND
 10
0.6739
 20
3.4109
 30
0.0000
  0
VERTEX
  8
SCOTTY_GND
 10
0.6820
 20
3.4066
 30
0.0000
  0
VERTEX
  8
SCOTTY_GND
 10
0.6908
 20
3.4039
 30
0.0000
  0
SEQEND
  0
POLYLINE
  8
SCOTTY_GND
 66
1
 10
0.0000
 20
0.0000
 30
0.0000
 40
0.0010
 41
0.0010
  0
VERTEX
  8
SCOTTY_GND
 10
0.4408
 20
0.3039
 30
0.0000
  0
VERTEX
  8
SCOTTY_GND
 10
0.4500
 20
0.3030
 30
0.0000
  0
VERTEX
  8
SCOTTY_GND
 10
0.4592
 20
0.3039
 30
0.0000
  0
VERTEX
  8
SCOTTY_GND
 10
0.4680
 20
0.3066
 30
0.0000
  0
VERTEX
  8
SCOTTY_GND
 10
0.4761
 20
0.3109
 30
0.0000
  0
VERTEX
  8
SCOTTY_GND
 10
0.4832
 20
0.3168
 30
0.0000
  0
VERTEX
  8
SCOTTY_GND
 10
0.4891
 20
0.3239
 30
0.0000
  0
VERTEX
  8
SCOTTY_GND
 10
0.4934
 20
0.3320
 30
0.0000
  0
VERTEX
  8
SCOTTY_GND
 10
0.4961
 20
0.3408
 30
0.0000
  0
VERTEX
  8
SCOTTY_GND
 10
0.4970
 20
0.3500
 30
0.0000
  0
VERTEX
  8
SCOTTY_GND
 10
0.4961
 20
0.3592
 30
0.0000
  0
VERTEX
  8
SCOTTY_GND
 10
0.4934
 20
0.3680
 30
0.0000
  0
VERTEX
  8
SCOTTY_GND
 10
0.4891
 20
0.3761
 30
0.0000
  0
VERTEX
  8
SCOTTY_GND
 10
0.4832
 20
0.3832
 30
0.0000
  0
VERTEX
  8
SCOTTY_GND
 10
0.4761
 20
0.3891
 30
0.0000
  0
VERTEX
  8
SCOTTY_GND
 10
0.4680
 20
0.3934
 30
0.0000
  0
VERTEX
  8
SCOTTY_GND
 10
0.4592
 20
0.3961
 30
0.0000
  0
VERTEX
  8
SCOTTY_GND
 10
0.4500
 20
0.3970
 30
0.0000
  0
VERTEX
  8
SCOTTY_GND
 10
0.4408
 20
0.3961
 30
0.0000
  0
VERTEX
  8
SCOTTY_GND
 10
0.4320
 20
0.3934
 30
0.0000
  0
VERTEX
  8
SCOTTY_GND
 10
0.4239
 20
0.3891
 30
0.0000
  0
VERTEX
  8
SCOTTY_GND
 10
0.4168
 20
0.3832
 30
0.0000
  0
VERTEX
  8
SCOTTY_GND
 10
0.4109
 20
0.3761
 30
0.0000
  0
VERTEX
  8
SCOTTY_GND
 10
0.4066
 20
0.3680
 30
0.0000
  0
VERTEX
  8
SCOTTY_GND
 10
0.4039
 20
0.3592
 30
0.0000
  0
VERTEX
  8
SCOTTY_GND
 10
0.4030
 20
0.3500
 30
0.0000
  0
VERTEX
  8
SCOTTY_GND
 10
0.4039
 20
0.3408
 30
0.0000
  0
VERTEX
  8
SCOTTY_GND
 10
0.4066
 20
0.3320
 30
0.0000
  0
VERTEX
  8
SCOTTY_GND
 10
0.4109
 20
0.3239
 30
0.0000
  0
VERTEX
  8
SCOTTY_GND
 10
0.4168
 20
0.3168
 30
0.0000
  0
VERTEX
  8
SCOTTY_GND
 10
0.4239
 20
0.3109
 30
0.0000
  0
VERTEX
  8
SCOTTY_GND
 10
0.4320
 20
0.3066
 30
0.0000
  0
VERTEX
  8
SCOTTY_GND
 10
0.4408
 20
0.3039
 30
0.0000
  0
SEQEND
  0
POLYLINE
  8
SCOTTY_GND
 66
1
 10
0.0000
 20
0.0000
 30
0.0000
 40
0.0010
 41
0.0010
  0
VERTEX
  8
SCOTTY_GND
 10
0.6908
 20
0.3039
 30
0.0000
  0
VERTEX
  8
SCOTTY_GND
 10
0.7000
 20
0.3030
 30
0.0000
  0
VERTEX
  8
SCOTTY_GND
 10
0.7092
 20
0.3039
 30
0.0000
  0
VERTEX
  8
SCOTTY_GND
 10
0.7180
 20
0.3066
 30
0.0000
  0
VERTEX
  8
SCOTTY_GND
 10
0.7261
 20
0.3109
 30
0.0000
  0
VERTEX
  8
SCOTTY_GND
 10
0.7332
 20
0.3168
 30
0.0000
  0
VERTEX
  8
SCOTTY_GND
 10
0.7391
 20
0.3239
 30
0.0000
  0
VERTEX
  8
SCOTTY_GND
 10
0.7434
 20
0.3320
 30
0.0000
  0
VERTEX
  8
SCOTTY_GND
 10
0.7461
 20
0.3408
 30
0.0000
  0
VERTEX
  8
SCOTTY_GND
 10
0.7470
 20
0.3500
 30
0.0000
  0
VERTEX
  8
SCOTTY_GND
 10
0.7461
 20
0.3592
 30
0.0000
  0
VERTEX
  8
SCOTTY_GND
 10
0.7434
 20
0.3680
 30
0.0000
  0
VERTEX
  8
SCOTTY_GND
 10
0.7391
 20
0.3761
 30
0.0000
  0
VERTEX
  8
SCOTTY_GND
 10
0.7332
 20
0.3832
 30
0.0000
  0
VERTEX
  8
SCOTTY_GND
 10
0.7261
 20
0.3891
 30
0.0000
  0
VERTEX
  8
SCOTTY_GND
 10
0.7180
 20
0.3934
 30
0.0000
  0
VERTEX
  8
SCOTTY_GND
 10
0.7092
 20
0.3961
 30
0.0000
  0
VERTEX
  8
SCOTTY_GND
 10
0.7000
 20
0.3970
 30
0.0000
  0
VERTEX
  8
SCOTTY_GND
 10
0.6908
 20
0.3961
 30
0.0000
  0
VERTEX
  8
SCOTTY_GND
 10
0.6820
 20
0.3934
 30
0.0000
  0
VERTEX
  8
SCOTTY_GND
 10
0.6739
 20
0.3891
 30
0.0000
  0
VERTEX
  8
SCOTTY_GND
 10
0.6668
 20
0.3832
 30
0.0000
  0
VERTEX
  8
SCOTTY_GND
 10
0.6609
 20
0.3761
 30
0.0000
  0
VERTEX
  8
SCOTTY_GND
 10
0.6566
 20
0.3680
 30
0.0000
  0
VERTEX
  8
SCOTTY_GND
 10
0.6539
 20
0.3592
 30
0.0000
  0
VERTEX
  8
SCOTTY_GND
 10
0.6530
 20
0.3500
 30
0.0000
  0
VERTEX
  8
SCOTTY_GND
 10
0.6539
 20
0.3408
 30
0.0000
  0
VERTEX
  8
SCOTTY_GND
 10
0.6566
 20
0.3320
 30
0.0000
  0
VERTEX
  8
SCOTTY_GND
 10
0.6609
 20
0.3239
 30
0.0000
  0
VERTEX
  8
SCOTTY_GND
 10
0.6668
 20
0.3168
 30
0.0000
  0
VERTEX
  8
SCOTTY_GND
 10
0.6739
 20
0.3109
 30
0.0000
  0
VERTEX
  8
SCOTTY_GND
 10
0.6820
 20
0.3066
 30
0.0000
  0
VERTEX
  8
SCOTTY_GND
 10
0.6908
 20
0.3039
 30
0.0000
  0
SEQEND
  0
POLYLINE
  8
SCOTTY_GND
 66
1
 10
0.0000
 20
0.0000
 30
0.0000
 40
0.0010
 41
0.0010
  0
VERTEX
  8
SCOTTY_GND
 10
5.4030
 20
0.2500
 30
0.0000
  0
VERTEX
  8
SCOTTY_GND
 10
5.4030
 20
0.4650
 30
0.0000
  0
VERTEX
  8
SCOTTY_GND
 10
5.2530
 20
0.4650
 30
0.0000
  0
VERTEX
  8
SCOTTY_GND
 10
5.2530
 20
0.5550
 30
0.0000
  0
VERTEX
  8
SCOTTY_GND
 10
5.4030
 20
0.5550
 30
0.0000
  0
VERTEX
  8
SCOTTY_GND
 10
5.4030
 20
3.2450
 30
0.0000
  0
VERTEX
  8
SCOTTY_GND
 10
5.2530
 20
3.2450
 30
0.0000
  0
VERTEX
  8
SCOTTY_GND
 10
5.2530
 20
3.3350
 30
0.0000
  0
VERTEX
  8
SCOTTY_GND
 10
5.4030
 20
3.3350
 30
0.0000
  0
VERTEX
  8
SCOTTY_GND
 10
5.4030
 20
3.5500
 30
0.0000
  0
VERTEX
  8
SCOTTY_GND
 10
5.8530
 20
3.5500
 30
0.0000
  0
VERTEX
  8
SCOTTY_GND
 10
5.8530
 20
3.3350
 30
0.0000
  0
VERTEX
  8
SCOTTY_GND
 10
6.0030
 20
3.3350
 30
0.0000
  0
VERTEX
  8
SCOTTY_GND
 10
6.0030
 20
3.2450
 30
0.0000
  0
VERTEX
  8
SCOTTY_GND
 10
5.8530
 20
3.2450
 30
0.0000
  0
VERTEX
  8
SCOTTY_GND
 10
5.8530
 20
0.5550
 30
0.0000
  0
VERTEX
  8
SCOTTY_GND
 10
6.0030
 20
0.5550
 30
0.0000
  0
VERTEX
  8
SCOTTY_GND
 10
6.0030
 20
0.4650
 30
0.0000
  0
VERTEX
  8
SCOTTY_GND
 10
5.8530
 20
0.4650
 30
0.0000
  0
VERTEX
  8
SCOTTY_GND
 10
5.8530
 20
0.2500
 30
0.0000
  0
VERTEX
  8
SCOTTY_GND
 10
5.4030
 20
0.2500
 30
0.0000
  0
SEQEND
  0
POLYLINE
  8
SCOTTY_GND
 66
1
 10
0.0000
 20
0.0000
 30
0.0000
 40
0.0010
 41
0.0010
  0
VERTEX
  8
SCOTTY_GND
 10
5.7438
 20
1.0789
 30
0.0000
  0
VERTEX
  8
SCOTTY_GND
 10
5.7530
 20
1.0780
 30
0.0000
  0
VERTEX
  8
SCOTTY_GND
 10
5.7622
 20
1.0789
 30
0.0000
  0
VERTEX
  8
SCOTTY_GND
 10
5.7710
 20
1.0816
 30
0.0000
  0
VERTEX
  8
SCOTTY_GND
 10
5.7791
 20
1.0859
 30
0.0000
  0
VERTEX
  8
SCOTTY_GND
 10
5.7862
 20
1.0918
 30
0.0000
  0
VERTEX
  8
SCOTTY_GND
 10
5.7921
 20
1.0989
 30
0.0000
  0
VERTEX
  8
SCOTTY_GND
 10
5.7964
 20
1.1070
 30
0.0000
  0
VERTEX
  8
SCOTTY_GND
 10
5.7991
 20
1.1158
 30
0.0000
  0
VERTEX
  8
SCOTTY_GND
 10
5.8000
 20
1.1250
 30
0.0000
  0
VERTEX
  8
SCOTTY_GND
 10
5.7991
 20
1.1342
 30
0.0000
  0
VERTEX
  8
SCOTTY_GND
 10
5.7964
 20
1.1430
 30
0.0000
  0
VERTEX
  8
SCOTTY_GND
 10
5.7921
 20
1.1511
 30
0.0000
  0
VERTEX
  8
SCOTTY_GND
 10
5.7862
 20
1.1582
 30
0.0000
  0
VERTEX
  8
SCOTTY_GND
 10
5.7791
 20
1.1641
 30
0.0000
  0
VERTEX
  8
SCOTTY_GND
 10
5.7710
 20
1.1684
 30
0.0000
  0
VERTEX
  8
SCOTTY_GND
 10
5.7622
 20
1.1711
 30
0.0000
  0
VERTEX
  8
SCOTTY_GND
 10
5.7530
 20
1.1720
 30
0.0000
  0
VERTEX
  8
SCOTTY_GND
 10
5.7438
 20
1.1711
 30
0.0000
  0
VERTEX
  8
SCOTTY_GND
 10
5.7350
 20
1.1684
 30
0.0000
  0
VERTEX
  8
SCOTTY_GND
 10
5.7269
 20
1.1641
 30
0.0000
  0
VERTEX
  8
SCOTTY_GND
 10
5.7198
 20
1.1582
 30
0.0000
  0
VERTEX
  8
SCOTTY_GND
 10
5.7139
 20
1.1511
 30
0.0000
  0
VERTEX
  8
SCOTTY_GND
 10
5.7096
 20
1.1430
 30
0.0000
  0
VERTEX
  8
SCOTTY_GND
 10
5.7069
 20
1.1342
 30
0.0000
  0
VERTEX
  8
SCOTTY_GND
 10
5.7060
 20
1.1250
 30
0.0000
  0
VERTEX
  8
SCOTTY_GND
 10
5.7069
 20
1.1158
 30
0.0000
  0
VERTEX
  8
SCOTTY_GND
 10
5.7096
 20
1.1070
 30
0.0000
  0
VERTEX
  8
SCOTTY_GND
 10
5.7139
 20
1.0989
 30
0.0000
  0
VERTEX
  8
SCOTTY_GND
 10
5.7198
 20
1.0918
 30
0.0000
  0
VERTEX
  8
SCOTTY_GND
 10
5.7269
 20
1.0859
 30
0.0000
  0
VERTEX
  8
SCOTTY_GND
 10
5.7350
 20
1.0816
 30
0.0000
  0
VERTEX
  8
SCOTTY_GND
 10
5.7438
 20
1.0789
 30
0.0000
  0
SEQEND
  0
POLYLINE
  8
SCOTTY_GND
 66
1
 10
0.0000
 20
0.0000
 30
0.0000
 40
0.0010
 41
0.0010
  0
VERTEX
  8
SCOTTY_GND
 10
5.4938
 20
1.0789
 30
0.0000
  0
VERTEX
  8
SCOTTY_GND
 10
5.5030
 20
1.0780
 30
0.0000
  0
VERTEX
  8
SCOTTY_GND
 10
5.5122
 20
1.0789
 30
0.0000
  0
VERTEX
  8
SCOTTY_GND
 10
5.5210
 20
1.0816
 30
0.0000
  0
VERTEX
  8
SCOTTY_GND
 10
5.5291
 20
1.0859
 30
0.0000
  0
VERTEX
  8
SCOTTY_GND
 10
5.5362
 20
1.0918
 30
0.0000
  0
VERTEX
  8
SCOTTY_GND
 10
5.5421
 20
1.0989
 30
0.0000
  0
VERTEX
  8
SCOTTY_GND
 10
5.5464
 20
1.1070
 30
0.0000
  0
VERTEX
  8
SCOTTY_GND
 10
5.5491
 20
1.1158
 30
0.0000
  0
VERTEX
  8
SCOTTY_GND
 10
5.5500
 20
1.1250
 30
0.0000
  0
VERTEX
  8
SCOTTY_GND
 10
5.5491
 20
1.1342
 30
0.0000
  0
VERTEX
  8
SCOTTY_GND
 10
5.5464
 20
1.1430
 30
0.0000
  0
VERTEX
  8
SCOTTY_GND
 10
5.5421
 20
1.1511
 30
0.0000
  0
VERTEX
  8
SCOTTY_GND
 10
5.5362
 20
1.1582
 30
0.0000
  0
VERTEX
  8
SCOTTY_GND
 10
5.5291
 20
1.1641
 30
0.0000
  0
VERTEX
  8
SCOTTY_GND
 10
5.5210
 20
1.1684
 30
0.0000
  0
VERTEX
  8
SCOTTY_GND
 10
5.5122
 20
1.1711
 30
0.0000
  0
VERTEX
  8
SCOTTY_GND
 10
5.5030
 20
1.1720
 30
0.0000
  0
VERTEX
  8
SCOTTY_GND
 10
5.4938
 20
1.1711
 30
0.0000
  0
VERTEX
  8
SCOTTY_GND
 10
5.4850
 20
1.1684
 30
0.0000
  0
VERTEX
  8
SCOTTY_GND
 10
5.4769
 20
1.1641
 30
0.0000
  0
VERTEX
  8
SCOTTY_GND
 10
5.4698
 20
1.1582
 30
0.0000
  0
VERTEX
  8
SCOTTY_GND
 10
5.4639
 20
1.1511
 30
0.0000
  0
VERTEX
  8
SCOTTY_GND
 10
5.4596
 20
1.1430
 30
0.0000
  0
VERTEX
  8
SCOTTY_GND
 10
5.4569
 20
1.1342
 30
0.0000
  0
VERTEX
  8
SCOTTY_GND
 10
5.4560
 20
1.1250
 30
0.0000
  0
VERTEX
  8
SCOTTY_GND
 10
5.4569
 20
1.1158
 30
0.0000
  0
VERTEX
  8
SCOTTY_GND
 10
5.4596
 20
1.1070
 30
0.0000
  0
VERTEX
  8
SCOTTY_GND
 10
5.4639
 20
1.0989
 30
0.0000
  0
VERTEX
  8
SCOTTY_GND
 10
5.4698
 20
1.0918
 30
0.0000
  0
VERTEX
  8
SCOTTY_GND
 10
5.4769
 20
1.0859
 30
0.0000
  0
VERTEX
  8
SCOTTY_GND
 10
5.4850
 20
1.0816
 30
0.0000
  0
VERTEX
  8
SCOTTY_GND
 10
5.4938
 20
1.0789
 30
0.0000
  0
SEQEND
  0
POLYLINE
  8
SCOTTY_GND
 66
1
 10
0.0000
 20
0.0000
 30
0.0000
 40
0.0010
 41
0.0010
  0
VERTEX
  8
SCOTTY_GND
 10
5.7438
 20
1.8539
 30
0.0000
  0
VERTEX
  8
SCOTTY_GND
 10
5.7530
 20
1.8530
 30
0.0000
  0
VERTEX
  8
SCOTTY_GND
 10
5.7622
 20
1.8539
 30
0.0000
  0
VERTEX
  8
SCOTTY_GND
 10
5.7710
 20
1.8566
 30
0.0000
  0
VERTEX
  8
SCOTTY_GND
 10
5.7791
 20
1.8609
 30
0.0000
  0
VERTEX
  8
SCOTTY_GND
 10
5.7862
 20
1.8668
 30
0.0000
  0
VERTEX
  8
SCOTTY_GND
 10
5.7921
 20
1.8739
 30
0.0000
  0
VERTEX
  8
SCOTTY_GND
 10
5.7964
 20
1.8820
 30
0.0000
  0
VERTEX
  8
SCOTTY_GND
 10
5.7991
 20
1.8908
 30
0.0000
  0
VERTEX
  8
SCOTTY_GND
 10
5.8000
 20
1.9000
 30
0.0000
  0
VERTEX
  8
SCOTTY_GND
 10
5.7991
 20
1.9092
 30
0.0000
  0
VERTEX
  8
SCOTTY_GND
 10
5.7964
 20
1.9180
 30
0.0000
  0
VERTEX
  8
SCOTTY_GND
 10
5.7921
 20
1.9261
 30
0.0000
  0
VERTEX
  8
SCOTTY_GND
 10
5.7862
 20
1.9332
 30
0.0000
  0
VERTEX
  8
SCOTTY_GND
 10
5.7791
 20
1.9391
 30
0.0000
  0
VERTEX
  8
SCOTTY_GND
 10
5.7710
 20
1.9434
 30
0.0000
  0
VERTEX
  8
SCOTTY_GND
 10
5.7622
 20
1.9461
 30
0.0000
  0
VERTEX
  8
SCOTTY_GND
 10
5.7530
 20
1.9470
 30
0.0000
  0
VERTEX
  8
SCOTTY_GND
 10
5.7438
 20
1.9461
 30
0.0000
  0
VERTEX
  8
SCOTTY_GND
 10
5.7350
 20
1.9434
 30
0.0000
  0
VERTEX
  8
SCOTTY_GND
 10
5.7269
 20
1.9391
 30
0.0000
  0
VERTEX
  8
SCOTTY_GND
 10
5.7198
 20
1.9332
 30
0.0000
  0
VERTEX
  8
SCOTTY_GND
 10
5.7139
 20
1.9261
 30
0.0000
  0
VERTEX
  8
SCOTTY_GND
 10
5.7096
 20
1.9180
 30
0.0000
  0
VERTEX
  8
SCOTTY_GND
 10
5.7069
 20
1.9092
 30
0.0000
  0
VERTEX
  8
SCOTTY_GND
 10
5.7060
 20
1.9000
 30
0.0000
  0
VERTEX
  8
SCOTTY_GND
 10
5.7069
 20
1.8908
 30
0.0000
  0
VERTEX
  8
SCOTTY_GND
 10
5.7096
 20
1.8820
 30
0.0000
  0
VERTEX
  8
SCOTTY_GND
 10
5.7139
 20
1.8739
 30
0.0000
  0
VERTEX
  8
SCOTTY_GND
 10
5.7198
 20
1.8668
 30
0.0000
  0
VERTEX
  8
SCOTTY_GND
 10
5.7269
 20
1.8609
 30
0.0000
  0
VERTEX
  8
SCOTTY_GND
 10
5.7350
 20
1.8566
 30
0.0000
  0
VERTEX
  8
SCOTTY_GND
 10
5.7438
 20
1.8539
 30
0.0000
  0
SEQEND
  0
POLYLINE
  8
SCOTTY_GND
 66
1
 10
0.0000
 20
0.0000
 30
0.0000
 40
0.0010
 41
0.0010
  0
VERTEX
  8
SCOTTY_GND
 10
5.4938
 20
1.8539
 30
0.0000
  0
VERTEX
  8
SCOTTY_GND
 10
5.5030
 20
1.8530
 30
0.0000
  0
VERTEX
  8
SCOTTY_GND
 10
5.5122
 20
1.8539
 30
0.0000
  0
VERTEX
  8
SCOTTY_GND
 10
5.5210
 20
1.8566
 30
0.0000
  0
VERTEX
  8
SCOTTY_GND
 10
5.5291
 20
1.8609
 30
0.0000
  0
VERTEX
  8
SCOTTY_GND
 10
5.5362
 20
1.8668
 30
0.0000
  0
VERTEX
  8
SCOTTY_GND
 10
5.5421
 20
1.8739
 30
0.0000
  0
VERTEX
  8
SCOTTY_GND
 10
5.5464
 20
1.8820
 30
0.0000
  0
VERTEX
  8
SCOTTY_GND
 10
5.5491
 20
1.8908
 30
0.0000
  0
VERTEX
  8
SCOTTY_GND
 10
5.5500
 20
1.9000
 30
0.0000
  0
VERTEX
  8
SCOTTY_GND
 10
5.5491
 20
1.9092
 30
0.0000
  0
VERTEX
  8
SCOTTY_GND
 10
5.5464
 20
1.9180
 30
0.0000
  0
VERTEX
  8
SCOTTY_GND
 10
5.5421
 20
1.9261
 30
0.0000
  0
VERTEX
  8
SCOTTY_GND
 10
5.5362
 20
1.9332
 30
0.0000
  0
VERTEX
  8
SCOTTY_GND
 10
5.5291
 20
1.9391
 30
0.0000
  0
VERTEX
  8
SCOTTY_GND
 10
5.5210
 20
1.9434
 30
0.0000
  0
VERTEX
  8
SCOTTY_GND
 10
5.5122
 20
1.9461
 30
0.0000
  0
VERTEX
  8
SCOTTY_GND
 10
5.5030
 20
1.9470
 30
0.0000
  0
VERTEX
  8
SCOTTY_GND
 10
5.4938
 20
1.9461
 30
0.0000
  0
VERTEX
  8
SCOTTY_GND
 10
5.4850
 20
1.9434
 30
0.0000
  0
VERTEX
  8
SCOTTY_GND
 10
5.4769
 20
1.9391
 30
0.0000
  0
VERTEX
  8
SCOTTY_GND
 10
5.4698
 20
1.9332
 30
0.0000
  0
VERTEX
  8
SCOTTY_GND
 10
5.4639
 20
1.9261
 30
0.0000
  0
VERTEX
  8
SCOTTY_GND
 10
5.4596
 20
1.9180
 30
0.0000
  0
VERTEX
  8
SCOTTY_GND
 10
5.4569
 20
1.9092
 30
0.0000
  0
VERTEX
  8
SCOTTY_GND
 10
5.4560
 20
1.9000
 30
0.0000
  0
VERTEX
  8
SCOTTY_GND
 10
5.4569
 20
1.8908
 30
0.0000
  0
VERTEX
  8
SCOTTY_GND
 10
5.4596
 20
1.8820
 30
0.0000
  0
VERTEX
  8
SCOTTY_GND
 10
5.4639
 20
1.8739
 30
0.0000
  0
VERTEX
  8
SCOTTY_GND
 10
5.4698
 20
1.8668
 30
0.0000
  0
VERTEX
  8
SCOTTY_GND
 10
5.4769
 20
1.8609
 30
0.0000
  0
VERTEX
  8
SCOTTY_GND
 10
5.4850
 20
1.8566
 30
0.0000
  0
VERTEX
  8
SCOTTY_GND
 10
5.4938
 20
1.8539
 30
0.0000
  0
SEQEND
  0
POLYLINE
  8
SCOTTY_GND
 66
1
 10
0.0000
 20
0.0000
 30
0.0000
 40
0.0010
 41
0.0010
  0
VERTEX
  8
SCOTTY_GND
 10
5.4938
 20
2.6289
 30
0.0000
  0
VERTEX
  8
SCOTTY_GND
 10
5.5030
 20
2.6280
 30
0.0000
  0
VERTEX
  8
SCOTTY_GND
 10
5.5122
 20
2.6289
 30
0.0000
  0
VERTEX
  8
SCOTTY_GND
 10
5.5210
 20
2.6316
 30
0.0000
  0
VERTEX
  8
SCOTTY_GND
 10
5.5291
 20
2.6359
 30
0.0000
  0
VERTEX
  8
SCOTTY_GND
 10
5.5362
 20
2.6418
 30
0.0000
  0
VERTEX
  8
SCOTTY_GND
 10
5.5421
 20
2.6489
 30
0.0000
  0
VERTEX
  8
SCOTTY_GND
 10
5.5464
 20
2.6570
 30
0.0000
  0
VERTEX
  8
SCOTTY_GND
 10
5.5491
 20
2.6658
 30
0.0000
  0
VERTEX
  8
SCOTTY_GND
 10
5.5500
 20
2.6750
 30
0.0000
  0
VERTEX
  8
SCOTTY_GND
 10
5.5491
 20
2.6842
 30
0.0000
  0
VERTEX
  8
SCOTTY_GND
 10
5.5464
 20
2.6930
 30
0.0000
  0
VERTEX
  8
SCOTTY_GND
 10
5.5421
 20
2.7011
 30
0.0000
  0
VERTEX
  8
SCOTTY_GND
 10
5.5362
 20
2.7082
 30
0.0000
  0
VERTEX
  8
SCOTTY_GND
 10
5.5291
 20
2.7141
 30
0.0000
  0
VERTEX
  8
SCOTTY_GND
 10
5.5210
 20
2.7184
 30
0.0000
  0
VERTEX
  8
SCOTTY_GND
 10
5.5122
 20
2.7211
 30
0.0000
  0
VERTEX
  8
SCOTTY_GND
 10
5.5030
 20
2.7220
 30
0.0000
  0
VERTEX
  8
SCOTTY_GND
 10
5.4938
 20
2.7211
 30
0.0000
  0
VERTEX
  8
SCOTTY_GND
 10
5.4850
 20
2.7184
 30
0.0000
  0
VERTEX
  8
SCOTTY_GND
 10
5.4769
 20
2.7141
 30
0.0000
  0
VERTEX
  8
SCOTTY_GND
 10
5.4698
 20
2.7082
 30
0.0000
  0
VERTEX
  8
SCOTTY_GND
 10
5.4639
 20
2.7011
 30
0.0000
  0
VERTEX
  8
SCOTTY_GND
 10
5.4596
 20
2.6930
 30
0.0000
  0
VERTEX
  8
SCOTTY_GND
 10
5.4569
 20
2.6842
 30
0.0000
  0
VERTEX
  8
SCOTTY_GND
 10
5.4560
 20
2.6750
 30
0.0000
  0
VERTEX
  8
SCOTTY_GND
 10
5.4569
 20
2.6658
 30
0.0000
  0
VERTEX
  8
SCOTTY_GND
 10
5.4596
 20
2.6570
 30
0.0000
  0
VERTEX
  8
SCOTTY_GND
 10
5.4639
 20
2.6489
 30
0.0000
  0
VERTEX
  8
SCOTTY_GND
 10
5.4698
 20
2.6418
 30
0.0000
  0
VERTEX
  8
SCOTTY_GND
 10
5.4769
 20
2.6359
 30
0.0000
  0
VERTEX
  8
SCOTTY_GND
 10
5.4850
 20
2.6316
 30
0.0000
  0
VERTEX
  8
SCOTTY_GND
 10
5.4938
 20
2.6289
 30
0.0000
  0
SEQEND
  0
POLYLINE
  8
SCOTTY_GND
 66
1
 10
0.0000
 20
0.0000
 30
0.0000
 40
0.0010
 41
0.0010
  0
VERTEX
  8
SCOTTY_GND
 10
5.7438
 20
2.6289
 30
0.0000
  0
VERTEX
  8
SCOTTY_GND
 10
5.7530
 20
2.6280
 30
0.0000
  0
VERTEX
  8
SCOTTY_GND
 10
5.7622
 20
2.6289
 30
0.0000
  0
VERTEX
  8
SCOTTY_GND
 10
5.7710
 20
2.6316
 30
0.0000
  0
VERTEX
  8
SCOTTY_GND
 10
5.7791
 20
2.6359
 30
0.0000
  0
VERTEX
  8
SCOTTY_GND
 10
5.7862
 20
2.6418
 30
0.0000
  0
VERTEX
  8
SCOTTY_GND
 10
5.7921
 20
2.6489
 30
0.0000
  0
VERTEX
  8
SCOTTY_GND
 10
5.7964
 20
2.6570
 30
0.0000
  0
VERTEX
  8
SCOTTY_GND
 10
5.7991
 20
2.6658
 30
0.0000
  0
VERTEX
  8
SCOTTY_GND
 10
5.8000
 20
2.6750
 30
0.0000
  0
VERTEX
  8
SCOTTY_GND
 10
5.7991
 20
2.6842
 30
0.0000
  0
VERTEX
  8
SCOTTY_GND
 10
5.7964
 20
2.6930
 30
0.0000
  0
VERTEX
  8
SCOTTY_GND
 10
5.7921
 20
2.7011
 30
0.0000
  0
VERTEX
  8
SCOTTY_GND
 10
5.7862
 20
2.7082
 30
0.0000
  0
VERTEX
  8
SCOTTY_GND
 10
5.7791
 20
2.7141
 30
0.0000
  0
VERTEX
  8
SCOTTY_GND
 10
5.7710
 20
2.7184
 30
0.0000
  0
VERTEX
  8
SCOTTY_GND
 10
5.7622
 20
2.7211
 30
0.0000
  0
VERTEX
  8
SCOTTY_GND
 10
5.7530
 20
2.7220
 30
0.0000
  0
VERTEX
  8
SCOTTY_GND
 10
5.7438
 20
2.7211
 30
0.0000
  0
VERTEX
  8
SCOTTY_GND
 10
5.7350
 20
2.7184
 30
0.0000
  0
VERTEX
  8
SCOTTY_GND
 10
5.7269
 20
2.7141
 30
0.0000
  0
VERTEX
  8
SCOTTY_GND
 10
5.7198
 20
2.7082
 30
0.0000
  0
VERTEX
  8
SCOTTY_GND
 10
5.7139
 20
2.7011
 30
0.0000
  0
VERTEX
  8
SCOTTY_GND
 10
5.7096
 20
2.6930
 30
0.0000
  0
VERTEX
  8
SCOTTY_GND
 10
5.7069
 20
2.6842
 30
0.0000
  0
VERTEX
  8
SCOTTY_GND
 10
5.7060
 20
2.6750
 30
0.0000
  0
VERTEX
  8
SCOTTY_GND
 10
5.7069
 20
2.6658
 30
0.0000
  0
VERTEX
  8
SCOTTY_GND
 10
5.7096
 20
2.6570
 30
0.0000
  0
VERTEX
  8
SCOTTY_GND
 10
5.7139
 20
2.6489
 30
0.0000
  0
VERTEX
  8
SCOTTY_GND
 10
5.7198
 20
2.6418
 30
0.0000
  0
VERTEX
  8
SCOTTY_GND
 10
5.7269
 20
2.6359
 30
0.0000
  0
VERTEX
  8
SCOTTY_GND
 10
5.7350
 20
2.6316
 30
0.0000
  0
VERTEX
  8
SCOTTY_GND
 10
5.7438
 20
2.6289
 30
0.0000
  0
SEQEND
  0
POLYLINE
  8
SCOTTY_GND
 66
1
 10
0.0000
 20
0.0000
 30
0.0000
 40
0.0010
 41
0.0010
  0
VERTEX
  8
SCOTTY_GND
 10
5.4938
 20
3.4039
 30
0.0000
  0
VERTEX
  8
SCOTTY_GND
 10
5.5030
 20
3.4030
 30
0.0000
  0
VERTEX
  8
SCOTTY_GND
 10
5.5122
 20
3.4039
 30
0.0000
  0
VERTEX
  8
SCOTTY_GND
 10
5.5210
 20
3.4066
 30
0.0000
  0
VERTEX
  8
SCOTTY_GND
 10
5.5291
 20
3.4109
 30
0.0000
  0
VERTEX
  8
SCOTTY_GND
 10
5.5362
 20
3.4168
 30
0.0000
  0
VERTEX
  8
SCOTTY_GND
 10
5.5421
 20
3.4239
 30
0.0000
  0
VERTEX
  8
SCOTTY_GND
 10
5.5464
 20
3.4320
 30
0.0000
  0
VERTEX
  8
SCOTTY_GND
 10
5.5491
 20
3.4409
 30
0.0000
  0
VERTEX
  8
SCOTTY_GND
 10
5.5500
 20
3.4500
 30
0.0000
  0
VERTEX
  8
SCOTTY_GND
 10
5.5491
 20
3.4592
 30
0.0000
  0
VERTEX
  8
SCOTTY_GND
 10
5.5464
 20
3.4680
 30
0.0000
  0
VERTEX
  8
SCOTTY_GND
 10
5.5421
 20
3.4761
 30
0.0000
  0
VERTEX
  8
SCOTTY_GND
 10
5.5362
 20
3.4833
 30
0.0000
  0
VERTEX
  8
SCOTTY_GND
 10
5.5291
 20
3.4891
 30
0.0000
  0
VERTEX
  8
SCOTTY_GND
 10
5.5210
 20
3.4934
 30
0.0000
  0
VERTEX
  8
SCOTTY_GND
 10
5.5122
 20
3.4961
 30
0.0000
  0
VERTEX
  8
SCOTTY_GND
 10
5.5030
 20
3.4970
 30
0.0000
  0
VERTEX
  8
SCOTTY_GND
 10
5.4938
 20
3.4961
 30
0.0000
  0
VERTEX
  8
SCOTTY_GND
 10
5.4850
 20
3.4934
 30
0.0000
  0
VERTEX
  8
SCOTTY_GND
 10
5.4769
 20
3.4891
 30
0.0000
  0
VERTEX
  8
SCOTTY_GND
 10
5.4698
 20
3.4833
 30
0.0000
  0
VERTEX
  8
SCOTTY_GND
 10
5.4639
 20
3.4761
 30
0.0000
  0
VERTEX
  8
SCOTTY_GND
 10
5.4596
 20
3.4680
 30
0.0000
  0
VERTEX
  8
SCOTTY_GND
 10
5.4569
 20
3.4592
 30
0.0000
  0
VERTEX
  8
SCOTTY_GND
 10
5.4560
 20
3.4500
 30
0.0000
  0
VERTEX
  8
SCOTTY_GND
 10
5.4569
 20
3.4409
 30
0.0000
  0
VERTEX
  8
SCOTTY_GND
 10
5.4596
 20
3.4320
 30
0.0000
  0
VERTEX
  8
SCOTTY_GND
 10
5.4639
 20
3.4239
 30
0.0000
  0
VERTEX
  8
SCOTTY_GND
 10
5.4698
 20
3.4168
 30
0.0000
  0
VERTEX
  8
SCOTTY_GND
 10
5.4769
 20
3.4109
 30
0.0000
  0
VERTEX
  8
SCOTTY_GND
 10
5.4850
 20
3.4066
 30
0.0000
  0
VERTEX
  8
SCOTTY_GND
 10
5.4938
 20
3.4039
 30
0.0000
  0
SEQEND
  0
POLYLINE
  8
SCOTTY_GND
 66
1
 10
0.0000
 20
0.0000
 30
0.0000
 40
0.0010
 41
0.0010
  0
VERTEX
  8
SCOTTY_GND
 10
5.7438
 20
3.4039
 30
0.0000
  0
VERTEX
  8
SCOTTY_GND
 10
5.7530
 20
3.4030
 30
0.0000
  0
VERTEX
  8
SCOTTY_GND
 10
5.7622
 20
3.4039
 30
0.0000
  0
VERTEX
  8
SCOTTY_GND
 10
5.7710
 20
3.4066
 30
0.0000
  0
VERTEX
  8
SCOTTY_GND
 10
5.7791
 20
3.4109
 30
0.0000
  0
VERTEX
  8
SCOTTY_GND
 10
5.7862
 20
3.4168
 30
0.0000
  0
VERTEX
  8
SCOTTY_GND
 10
5.7921
 20
3.4239
 30
0.0000
  0
VERTEX
  8
SCOTTY_GND
 10
5.7964
 20
3.4320
 30
0.0000
  0
VERTEX
  8
SCOTTY_GND
 10
5.7991
 20
3.4409
 30
0.0000
  0
VERTEX
  8
SCOTTY_GND
 10
5.8000
 20
3.4500
 30
0.0000
  0
VERTEX
  8
SCOTTY_GND
 10
5.7991
 20
3.4592
 30
0.0000
  0
VERTEX
  8
SCOTTY_GND
 10
5.7964
 20
3.4680
 30
0.0000
  0
VERTEX
  8
SCOTTY_GND
 10
5.7921
 20
3.4761
 30
0.0000
  0
VERTEX
  8
SCOTTY_GND
 10
5.7862
 20
3.4833
 30
0.0000
  0
VERTEX
  8
SCOTTY_GND
 10
5.7791
 20
3.4891
 30
0.0000
  0
VERTEX
  8
SCOTTY_GND
 10
5.7710
 20
3.4934
 30
0.0000
  0
VERTEX
  8
SCOTTY_GND
 10
5.7622
 20
3.4961
 30
0.0000
  0
VERTEX
  8
SCOTTY_GND
 10
5.7530
 20
3.4970
 30
0.0000
  0
VERTEX
  8
SCOTTY_GND
 10
5.7438
 20
3.4961
 30
0.0000
  0
VERTEX
  8
SCOTTY_GND
 10
5.7350
 20
3.4934
 30
0.0000
  0
VERTEX
  8
SCOTTY_GND
 10
5.7269
 20
3.4891
 30
0.0000
  0
VERTEX
  8
SCOTTY_GND
 10
5.7198
 20
3.4833
 30
0.0000
  0
VERTEX
  8
SCOTTY_GND
 10
5.7139
 20
3.4761
 30
0.0000
  0
VERTEX
  8
SCOTTY_GND
 10
5.7096
 20
3.4680
 30
0.0000
  0
VERTEX
  8
SCOTTY_GND
 10
5.7069
 20
3.4592
 30
0.0000
  0
VERTEX
  8
SCOTTY_GND
 10
5.7060
 20
3.4500
 30
0.0000
  0
VERTEX
  8
SCOTTY_GND
 10
5.7069
 20
3.4409
 30
0.0000
  0
VERTEX
  8
SCOTTY_GND
 10
5.7096
 20
3.4320
 30
0.0000
  0
VERTEX
  8
SCOTTY_GND
 10
5.7139
 20
3.4239
 30
0.0000
  0
VERTEX
  8
SCOTTY_GND
 10
5.7198
 20
3.4168
 30
0.0000
  0
VERTEX
  8
SCOTTY_GND
 10
5.7269
 20
3.4109
 30
0.0000
  0
VERTEX
  8
SCOTTY_GND
 10
5.7350
 20
3.4066
 30
0.0000
  0
VERTEX
  8
SCOTTY_GND
 10
5.7438
 20
3.4039
 30
0.0000
  0
SEQEND
  0
POLYLINE
  8
SCOTTY_GND
 66
1
 10
0.0000
 20
0.0000
 30
0.0000
 40
0.0010
 41
0.0010
  0
VERTEX
  8
SCOTTY_GND
 10
5.4938
 20
0.3039
 30
0.0000
  0
VERTEX
  8
SCOTTY_GND
 10
5.5030
 20
0.3030
 30
0.0000
  0
VERTEX
  8
SCOTTY_GND
 10
5.5122
 20
0.3039
 30
0.0000
  0
VERTEX
  8
SCOTTY_GND
 10
5.5210
 20
0.3066
 30
0.0000
  0
VERTEX
  8
SCOTTY_GND
 10
5.5291
 20
0.3109
 30
0.0000
  0
VERTEX
  8
SCOTTY_GND
 10
5.5362
 20
0.3168
 30
0.0000
  0
VERTEX
  8
SCOTTY_GND
 10
5.5421
 20
0.3239
 30
0.0000
  0
VERTEX
  8
SCOTTY_GND
 10
5.5464
 20
0.3320
 30
0.0000
  0
VERTEX
  8
SCOTTY_GND
 10
5.5491
 20
0.3408
 30
0.0000
  0
VERTEX
  8
SCOTTY_GND
 10
5.5500
 20
0.3500
 30
0.0000
  0
VERTEX
  8
SCOTTY_GND
 10
5.5491
 20
0.3592
 30
0.0000
  0
VERTEX
  8
SCOTTY_GND
 10
5.5464
 20
0.3680
 30
0.0000
  0
VERTEX
  8
SCOTTY_GND
 10
5.5421
 20
0.3761
 30
0.0000
  0
VERTEX
  8
SCOTTY_GND
 10
5.5362
 20
0.3832
 30
0.0000
  0
VERTEX
  8
SCOTTY_GND
 10
5.5291
 20
0.3891
 30
0.0000
  0
VERTEX
  8
SCOTTY_GND
 10
5.5210
 20
0.3934
 30
0.0000
  0
VERTEX
  8
SCOTTY_GND
 10
5.5122
 20
0.3961
 30
0.0000
  0
VERTEX
  8
SCOTTY_GND
 10
5.5030
 20
0.3970
 30
0.0000
  0
VERTEX
  8
SCOTTY_GND
 10
5.4938
 20
0.3961
 30
0.0000
  0
VERTEX
  8
SCOTTY_GND
 10
5.4850
 20
0.3934
 30
0.0000
  0
VERTEX
  8
SCOTTY_GND
 10
5.4769
 20
0.3891
 30
0.0000
  0
VERTEX
  8
SCOTTY_GND
 10
5.4698
 20
0.3832
 30
0.0000
  0
VERTEX
  8
SCOTTY_GND
 10
5.4639
 20
0.3761
 30
0.0000
  0
VERTEX
  8
SCOTTY_GND
 10
5.4596
 20
0.3680
 30
0.0000
  0
VERTEX
  8
SCOTTY_GND
 10
5.4569
 20
0.3592
 30
0.0000
  0
VERTEX
  8
SCOTTY_GND
 10
5.4560
 20
0.3500
 30
0.0000
  0
VERTEX
  8
SCOTTY_GND
 10
5.4569
 20
0.3408
 30
0.0000
  0
VERTEX
  8
SCOTTY_GND
 10
5.4596
 20
0.3320
 30
0.0000
  0
VERTEX
  8
SCOTTY_GND
 10
5.4639
 20
0.3239
 30
0.0000
  0
VERTEX
  8
SCOTTY_GND
 10
5.4698
 20
0.3168
 30
0.0000
  0
VERTEX
  8
SCOTTY_GND
 10
5.4769
 20
0.3109
 30
0.0000
  0
VERTEX
  8
SCOTTY_GND
 10
5.4850
 20
0.3066
 30
0.0000
  0
VERTEX
  8
SCOTTY_GND
 10
5.4938
 20
0.3039
 30
0.0000
  0
SEQEND
  0
POLYLINE
  8
SCOTTY_GND
 66
1
 10
0.0000
 20
0.0000
 30
0.0000
 40
0.0010
 41
0.0010
  0
VERTEX
  8
SCOTTY_GND
 10
5.7438
 20
0.3039
 30
0.0000
  0
VERTEX
  8
SCOTTY_GND
 10
5.7530
 20
0.3030
 30
0.0000
  0
VERTEX
  8
SCOTTY_GND
 10
5.7622
 20
0.3039
 30
0.0000
  0
VERTEX
  8
SCOTTY_GND
 10
5.7710
 20
0.3066
 30
0.0000
  0
VERTEX
  8
SCOTTY_GND
 10
5.7791
 20
0.3109
 30
0.0000
  0
VERTEX
  8
SCOTTY_GND
 10
5.7862
 20
0.3168
 30
0.0000
  0
VERTEX
  8
SCOTTY_GND
 10
5.7921
 20
0.3239
 30
0.0000
  0
VERTEX
  8
SCOTTY_GND
 10
5.7964
 20
0.3320
 30
0.0000
  0
VERTEX
  8
SCOTTY_GND
 10
5.7991
 20
0.3408
 30
0.0000
  0
VERTEX
  8
SCOTTY_GND
 10
5.8000
 20
0.3500
 30
0.0000
  0
VERTEX
  8
SCOTTY_GND
 10
5.7991
 20
0.3592
 30
0.0000
  0
VERTEX
  8
SCOTTY_GND
 10
5.7964
 20
0.3680
 30
0.0000
  0
VERTEX
  8
SCOTTY_GND
 10
5.7921
 20
0.3761
 30
0.0000
  0
VERTEX
  8
SCOTTY_GND
 10
5.7862
 20
0.3832
 30
0.0000
  0
VERTEX
  8
SCOTTY_GND
 10
5.7791
 20
0.3891
 30
0.0000
  0
VERTEX
  8
SCOTTY_GND
 10
5.7710
 20
0.3934
 30
0.0000
  0
VERTEX
  8
SCOTTY_GND
 10
5.7622
 20
0.3961
 30
0.0000
  0
VERTEX
  8
SCOTTY_GND
 10
5.7530
 20
0.3970
 30
0.0000
  0
VERTEX
  8
SCOTTY_GND
 10
5.7438
 20
0.3961
 30
0.0000
  0
VERTEX
  8
SCOTTY_GND
 10
5.7350
 20
0.3934
 30
0.0000
  0
VERTEX
  8
SCOTTY_GND
 10
5.7269
 20
0.3891
 30
0.0000
  0
VERTEX
  8
SCOTTY_GND
 10
5.7198
 20
0.3832
 30
0.0000
  0
VERTEX
  8
SCOTTY_GND
 10
5.7139
 20
0.3761
 30
0.0000
  0
VERTEX
  8
SCOTTY_GND
 10
5.7096
 20
0.3680
 30
0.0000
  0
VERTEX
  8
SCOTTY_GND
 10
5.7069
 20
0.3592
 30
0.0000
  0
VERTEX
  8
SCOTTY_GND
 10
5.7060
 20
0.3500
 30
0.0000
  0
VERTEX
  8
SCOTTY_GND
 10
5.7069
 20
0.3408
 30
0.0000
  0
VERTEX
  8
SCOTTY_GND
 10
5.7096
 20
0.3320
 30
0.0000
  0
VERTEX
  8
SCOTTY_GND
 10
5.7139
 20
0.3239
 30
0.0000
  0
VERTEX
  8
SCOTTY_GND
 10
5.7198
 20
0.3168
 30
0.0000
  0
VERTEX
  8
SCOTTY_GND
 10
5.7269
 20
0.3109
 30
0.0000
  0
VERTEX
  8
SCOTTY_GND
 10
5.7350
 20
0.3066
 30
0.0000
  0
VERTEX
  8
SCOTTY_GND
 10
5.7438
 20
0.3039
 30
0.0000
  0
SEQEND
  0
POLYLINE
  8
SCOTTY_GND
 66
1
 10
0.0000
 20
0.0000
 30
0.0000
 40
0.0040
 41
0.0040
  0
VERTEX
  8
SCOTTY_GND
 10
5.2549
 20
0.4670
 30
0.0000
  0
VERTEX
  8
SCOTTY_GND
 10
5.4010
 20
0.4670
 30
0.0000
  0
SEQEND
  0
POLYLINE
  8
SCOTTY_GND
 66
1
 10
0.0000
 20
0.0000
 30
0.0000
 40
0.0040
 41
0.0040
  0
VERTEX
  8
SCOTTY_GND
 10
0.2019
 20
0.4670
 30
0.0000
  0
VERTEX
  8
SCOTTY_GND
 10
0.3480
 20
0.4670
 30
0.0000
  0
SEQEND
  0
ENDSEC
  0
EOF
