  0
SECTION
  2
HEADER
  9
$ACADVER
  1
AC1018
  9
$INSBASE
 10
0.0
 20
0.0
 30
0.0
  9
$EXTMIN
 10
-0.005
 20
-0.005
 30
0.0
  9
$EXTMAX
 10
2.8225
 20
2.7675
 30
0.0
  9
$LIMMIN
 10
-0.005
 20
-0.005
  9
$LIMMAX
 10
2.8225
 20
2.7675
  9
$INSUNITS
 70
     4
  9
$HANDSEED
  5
   191
  0
ENDSEC
  0
SECTION
  2
CLASSES
  0
ENDSEC
  0
SECTION
  2
TABLES
  0
TABLE
  2
VPORT
  5
1
330
0
100
AcDbSymbolTable
 70
     0
  0
ENDTAB
  0
TABLE
  2
LTYPE
  5
2
330
0
100
AcDbSymbolTable
 70
     3
  0
LTYPE
  5
3
330
2
100
AcDbSymbolTableRecord
100
AcDbLinetypeTableRecord
  2
BYLAYER
 70
     0
  3
Continuous
 72
    65
 73
     0
 40
0.0
  0
LTYPE
  5
4
330
2
100
AcDbSymbolTableRecord
100
AcDbLinetypeTableRecord
  2
BYBLOCK
 70
     0
  3
Continuous
 72
    65
 73
     0
 40
0.0
  0
LTYPE
  5
5
330
2
100
AcDbSymbolTableRecord
100
AcDbLinetypeTableRecord
  2
CONTINUOUS
 70
     0
  3
Continuous
 72
    65
 73
     0
 40
0.0
  0
ENDTAB
  0
TABLE
  2
LAYER
  5
6
330
0
100
AcDbSymbolTable
 70
     3
  0
LAYER
  5
7
330
6
100
AcDbSymbolTableRecord
100
AcDbLayerTableRecord
  2
0
 70
     0
 62
     7
  6
CONTINUOUS
370
     0
390
     0
  0
LAYER
  5
8
330
6
100
AcDbSymbolTableRecord
100
AcDbLayerTableRecord
  2
RELAY_PSU-1_DRD
 70
     0
 62
    10
  6
CONTINUOUS
370
     0
390
     0
  0
LAYER
  5
9
330
6
100
AcDbSymbolTableRecord
100
AcDbLayerTableRecord
  2
RELAY_PSU-1_SST
 70
     0
 62
    96
  6
CONTINUOUS
370
     0
390
     0
  0
ENDTAB
  0
TABLE
  2
STYLE
  5
A
330
0
100
AcDbSymbolTable
 70
     0
  0
ENDTAB
  0
TABLE
  2
VIEW
  5
B
330
0
100
AcDbSymbolTable
 70
     0
  0
ENDTAB
  0
TABLE
  2
UCS
  5
C
330
0
100
AcDbSymbolTable
 70
     0
  0
ENDTAB
  0
TABLE
  2
APPID
  5
D
330
0
100
AcDbSymbolTable
 70
     1
  0
APPID
  5
E
330
D
100
AcDbSymbolTableRecord
100
AcDbRegAppTableRecord
  2
ACAD
 70
     0
  0
ENDTAB
  0
TABLE
  2
DIMSTYLE
  5
F
330
0
100
AcDbSymbolTable
 70
     0
100
AcDbDimStyleTable
 71
     0
  0
ENDTAB
  0
TABLE
  2
BLOCK_RECORD
  5
10
330
0
100
AcDbSymbolTable
 70
     6
  0
BLOCK_RECORD
  5
11
330
10
100
AcDbSymbolTableRecord
100
AcDbBlockTableRecord
  2
*Model_Space
340
1A
  0
BLOCK_RECORD
  5
12
330
10
100
AcDbSymbolTableRecord
100
AcDbBlockTableRecord
  2
*Paper_Space
340
1B
  0
BLOCK_RECORD
  5
13
330
10
100
AcDbSymbolTableRecord
100
AcDbBlockTableRecord
  2
RECTANGLE_1
340
0
  0
BLOCK_RECORD
  5
14
330
10
100
AcDbSymbolTableRecord
100
AcDbBlockTableRecord
  2
ROUND_31
340
0
  0
BLOCK_RECORD
  5
15
330
10
100
AcDbSymbolTableRecord
100
AcDbBlockTableRecord
  2
ROUND_37
340
0
  0
BLOCK_RECORD
  5
16
330
10
100
AcDbSymbolTableRecord
100
AcDbBlockTableRecord
  2
ROUND_52
340
0
  0
ENDTAB
  0
ENDSEC
  0
SECTION
  2
BLOCKS
  0
BLOCK
  5
1D
330
11
100
AcDbEntity
  8
0
100
AcDbBlockBegin
  2
*Model_Space
 70
     0
 10
0.0
 20
0.0
 30
0.0
  3
*Model_Space
  1

  0
ENDBLK
  5
1E
330
11
100
AcDbEntity
  8
0
100
AcDbBlockEnd
  0
BLOCK
  5
1F
330
12
100
AcDbEntity
  8
0
100
AcDbBlockBegin
  2
*Paper_Space
 70
     0
 10
0.0
 20
0.0
 30
0.0
  3
*Paper_Space
  1

  0
ENDBLK
  5
20
330
12
100
AcDbEntity
  8
0
100
AcDbBlockEnd
  0
BLOCK
  5
21
330
13
100
AcDbEntity
  8
0
100
AcDbBlockBegin
  2
RECTANGLE_1
 70
     0
 10
0.0
 20
0.0
 30
0.0
  3
RECTANGLE_1
  1

  0
SOLID
  5
23
330
13
100
AcDbEntity
  8
0
  6
BYLAYER
 62
   256
100
AcDbTrace
 10
0.069
 20
0.0315
 30
0.0
 11
0.069
 21
-0.0315
 31
0.0
 12
-0.069
 22
0.0315
 32
0.0
 13
-0.069
 23
-0.0315
 33
0.0
  0
ENDBLK
  5
22
330
13
100
AcDbEntity
  8
0
100
AcDbBlockEnd
  0
BLOCK
  5
24
330
14
100
AcDbEntity
  8
0
100
AcDbBlockBegin
  2
ROUND_31
 70
     0
 10
0.0
 20
0.0
 30
0.0
  3
ROUND_31
  1

  0
HATCH
  5
26
330
14
100
AcDbEntity
  8
0
100
AcDbHatch
 10
0.0
 20
0.0
 30
0.0
210
0.0
220
0.0
230
1.0
  2
SOLID
 70
     1
 71
     0
 91
     1
 92
     0
 93
     1
 72
     2
 10
0.0
 20
0.0
 40
0.004
 50
0.0
 51
360.0
 73
     1
 97
     0
 75
     0
 76
     1
 98
     1
 10
0.0
 20
0.0
  0
ENDBLK
  5
25
330
14
100
AcDbEntity
  8
0
100
AcDbBlockEnd
  0
BLOCK
  5
27
330
15
100
AcDbEntity
  8
0
100
AcDbBlockBegin
  2
ROUND_37
 70
     0
 10
0.0
 20
0.0
 30
0.0
  3
ROUND_37
  1

  0
HATCH
  5
29
330
15
100
AcDbEntity
  8
0
100
AcDbHatch
 10
0.0
 20
0.0
 30
0.0
210
0.0
220
0.0
230
1.0
  2
SOLID
 70
     1
 71
     0
 91
     1
 92
     0
 93
     1
 72
     2
 10
0.0
 20
0.0
 40
0.005
 50
0.0
 51
360.0
 73
     1
 97
     0
 75
     0
 76
     1
 98
     1
 10
0.0
 20
0.0
  0
ENDBLK
  5
28
330
15
100
AcDbEntity
  8
0
100
AcDbBlockEnd
  0
BLOCK
  5
2A
330
16
100
AcDbEntity
  8
0
100
AcDbBlockBegin
  2
ROUND_52
 70
     0
 10
0.0
 20
0.0
 30
0.0
  3
ROUND_52
  1

  0
HATCH
  5
2C
330
16
100
AcDbEntity
  8
0
100
AcDbHatch
 10
0.0
 20
0.0
 30
0.0
210
0.0
220
0.0
230
1.0
  2
SOLID
 70
     1
 71
     0
 91
     1
 92
     0
 93
     1
 72
     2
 10
0.0
 20
0.0
 40
0.003
 50
0.0
 51
360.0
 73
     1
 97
     0
 75
     0
 76
     1
 98
     1
 10
0.0
 20
0.0
  0
ENDBLK
  5
2B
330
16
100
AcDbEntity
  8
0
100
AcDbBlockEnd
  0
ENDSEC
  0
SECTION
  2
ENTITIES
  0
LWPOLYLINE
  5
2D
330
11
100
AcDbEntity
  8
RELAY_PSU-1_DRD
  6
BYLAYER
370
   211
 62
   256
100
AcDbPolyline
 90
    13
 70
     0
 43
0.01
 10
2.6758
 20
1.1637
 10
2.6842
 20
1.1721
 10
2.6925
 20
1.1762
 10
2.7092
 20
1.1762
 10
2.7175
 20
1.1721
 10
2.7258
 20
1.1637
 10
2.7258
 20
1.1554
 10
2.7175
 20
1.1471
 10
2.7092
 20
1.1429
 10
2.6925
 20
1.1429
 10
2.6842
 20
1.1471
 10
2.6758
 20
1.1554
 10
2.6758
 20
1.1637
  0
LWPOLYLINE
  5
2E
330
11
100
AcDbEntity
  8
RELAY_PSU-1_DRD
  6
BYLAYER
370
   211
 62
   256
100
AcDbPolyline
 90
    13
 70
     0
 43
0.01
 10
2.6758
 20
1.2212
 10
2.6842
 20
1.2296
 10
2.6925
 20
1.2337
 10
2.7092
 20
1.2337
 10
2.7175
 20
1.2296
 10
2.7258
 20
1.2212
 10
2.7258
 20
1.2129
 10
2.7175
 20
1.2046
 10
2.7092
 20
1.2004
 10
2.6925
 20
1.2004
 10
2.6842
 20
1.2046
 10
2.6758
 20
1.2129
 10
2.6758
 20
1.2212
  0
LWPOLYLINE
  5
2F
330
11
100
AcDbEntity
  8
RELAY_PSU-1_DRD
  6
BYLAYER
370
   211
 62
   256
100
AcDbPolyline
 90
     9
 70
     0
 43
0.01
 10
2.6842
 20
1.2912
 10
2.6758
 20
1.2871
 10
2.6758
 20
1.2621
 10
2.6842
 20
1.2579
 10
2.7008
 20
1.2579
 10
2.7092
 20
1.2662
 10
2.7092
 20
1.2912
 10
2.7258
 20
1.2912
 10
2.7258
 20
1.2579
  0
LWPOLYLINE
  5
30
330
11
100
AcDbEntity
  8
RELAY_PSU-1_DRD
  6
BYLAYER
370
   211
 62
   256
100
AcDbPolyline
 90
     7
 70
     0
 43
0.01
 10
2.6758
 20
1.3154
 10
2.6758
 20
1.3487
 10
2.7092
 20
1.3154
 10
2.7175
 20
1.3154
 10
2.7258
 20
1.3196
 10
2.7258
 20
1.3446
 10
2.7175
 20
1.3487
  0
LWPOLYLINE
  5
31
330
11
100
AcDbEntity
  8
RELAY_PSU-1_DRD
  6
BYLAYER
370
   211
 62
   256
100
AcDbPolyline
 90
    13
 70
     0
 43
0.01
 10
1.3362
 20
2.6208
 10
1.3279
 20
2.6292
 10
1.3237
 20
2.6375
 10
1.3237
 20
2.6542
 10
1.3279
 20
2.6625
 10
1.3362
 20
2.6708
 10
1.3446
 20
2.6708
 10
1.3529
 20
2.6625
 10
1.3571
 20
2.6542
 10
1.3571
 20
2.6375
 10
1.3529
 20
2.6292
 10
1.3446
 20
2.6208
 10
1.3362
 20
2.6208
  0
LWPOLYLINE
  5
32
330
11
100
AcDbEntity
  8
RELAY_PSU-1_DRD
  6
BYLAYER
370
   211
 62
   256
100
AcDbPolyline
 90
    13
 70
     0
 43
0.01
 10
1.2787
 20
2.6208
 10
1.2704
 20
2.6292
 10
1.2662
 20
2.6375
 10
1.2662
 20
2.6542
 10
1.2704
 20
2.6625
 10
1.2787
 20
2.6708
 10
1.2871
 20
2.6708
 10
1.2954
 20
2.6625
 10
1.2996
 20
2.6542
 10
1.2996
 20
2.6375
 10
1.2954
 20
2.6292
 10
1.2871
 20
2.6208
 10
1.2787
 20
2.6208
  0
LWPOLYLINE
  5
33
330
11
100
AcDbEntity
  8
RELAY_PSU-1_DRD
  6
BYLAYER
370
   211
 62
   256
100
AcDbPolyline
 90
     9
 70
     0
 43
0.01
 10
1.2087
 20
2.6292
 10
1.2129
 20
2.6208
 10
1.2379
 20
2.6208
 10
1.2421
 20
2.6292
 10
1.2421
 20
2.6458
 10
1.2337
 20
2.6542
 10
1.2087
 20
2.6542
 10
1.2087
 20
2.6708
 10
1.2421
 20
2.6708
  0
LWPOLYLINE
  5
34
330
11
100
AcDbEntity
  8
RELAY_PSU-1_DRD
  6
BYLAYER
370
   211
 62
   256
100
AcDbPolyline
 90
     7
 70
     0
 43
0.01
 10
1.1846
 20
2.6208
 10
1.1512
 20
2.6208
 10
1.1846
 20
2.6542
 10
1.1846
 20
2.6625
 10
1.1804
 20
2.6708
 10
1.1554
 20
2.6708
 10
1.1512
 20
2.6625
  0
LWPOLYLINE
  5
35
330
11
100
AcDbEntity
  8
RELAY_PSU-1_DRD
  6
BYLAYER
370
   211
 62
   256
100
AcDbPolyline
 90
     3
 70
     0
 43
0.01
 10
0.0562
 20
2.6312
 10
0.0
 20
2.65
 10
0.0562
 20
2.6687
  0
LWPOLYLINE
  5
36
330
11
100
AcDbEntity
  8
RELAY_PSU-1_DRD
  6
BYLAYER
370
   211
 62
   256
100
AcDbPolyline
 90
     2
 70
     0
 43
0.01
 10
2.5925
 20
0.0
 10
2.8175
 20
0.0
  0
LWPOLYLINE
  5
37
330
11
100
AcDbEntity
  8
RELAY_PSU-1_DRD
  6
BYLAYER
370
   211
 62
   256
100
AcDbPolyline
 90
     2
 70
     0
 43
0.01
 10
2.705
 20
1.0908
 10
2.705
 20
0.0
  0
LWPOLYLINE
  5
38
330
11
100
AcDbEntity
  8
RELAY_PSU-1_DRD
  6
BYLAYER
370
   211
 62
   256
100
AcDbPolyline
 90
     3
 70
     0
 43
0.01
 10
2.7237
 20
0.0562
 10
2.705
 20
0.0
 10
2.6862
 20
0.0562
  0
LWPOLYLINE
  5
39
330
11
100
AcDbEntity
  8
RELAY_PSU-1_DRD
  6
BYLAYER
370
   211
 62
   256
100
AcDbPolyline
 90
     2
 70
     0
 43
0.01
 10
2.5925
 20
2.5
 10
2.8175
 20
2.5
  0
LWPOLYLINE
  5
3A
330
11
100
AcDbEntity
  8
RELAY_PSU-1_DRD
  6
BYLAYER
370
   211
 62
   256
100
AcDbPolyline
 90
     2
 70
     0
 43
0.01
 10
2.705
 20
1.4092
 10
2.705
 20
2.5
  0
LWPOLYLINE
  5
3B
330
11
100
AcDbEntity
  8
RELAY_PSU-1_DRD
  6
BYLAYER
370
   211
 62
   256
100
AcDbPolyline
 90
     3
 70
     0
 43
0.01
 10
2.6862
 20
2.4437
 10
2.705
 20
2.5
 10
2.7237
 20
2.4437
  0
LWPOLYLINE
  5
3C
330
11
100
AcDbEntity
  8
RELAY_PSU-1_DRD
  6
BYLAYER
370
   211
 62
   256
100
AcDbPolyline
 90
     2
 70
     0
 43
0.01
 10
2.5
 20
2.5375
 10
2.5
 20
2.7625
  0
LWPOLYLINE
  5
3D
330
11
100
AcDbEntity
  8
RELAY_PSU-1_DRD
  6
BYLAYER
370
   211
 62
   256
100
AcDbPolyline
 90
     2
 70
     0
 43
0.01
 10
1.4092
 20
2.65
 10
2.5
 20
2.65
  0
LWPOLYLINE
  5
3E
330
11
100
AcDbEntity
  8
RELAY_PSU-1_DRD
  6
BYLAYER
370
   211
 62
   256
100
AcDbPolyline
 90
     3
 70
     0
 43
0.01
 10
2.4437
 20
2.6687
 10
2.5
 20
2.65
 10
2.4437
 20
2.6312
  0
LWPOLYLINE
  5
3F
330
11
100
AcDbEntity
  8
RELAY_PSU-1_DRD
  6
BYLAYER
370
   211
 62
   256
100
AcDbPolyline
 90
     2
 70
     0
 43
0.01
 10
0.0
 20
2.5375
 10
0.0
 20
2.7625
  0
LWPOLYLINE
  5
40
330
11
100
AcDbEntity
  8
RELAY_PSU-1_DRD
  6
BYLAYER
370
   211
 62
   256
100
AcDbPolyline
 90
     2
 70
     0
 43
0.01
 10
1.0908
 20
2.65
 10
0.0
 20
2.65
  0
LWPOLYLINE
  5
41
330
11
100
AcDbEntity
  8
RELAY_PSU-1_DRD
  6
BYLAYER
370
   211
 62
   256
100
AcDbPolyline
 90
     5
 70
     0
 43
0.01
 10
0.0
 20
2.5
 10
0.0
 20
0.0
 10
2.5
 20
0.0
 10
2.5
 20
2.5
 10
0.0
 20
2.5
  0
LWPOLYLINE
  5
42
330
11
100
AcDbEntity
  8
RELAY_PSU-1_DRD
  6
BYLAYER
370
   211
 62
   256
100
AcDbPolyline
 90
     2
 70
     0
 43
0.01
 10
2.35
 20
0.15
 10
2.35
 20
0.1
  0
LWPOLYLINE
  5
43
330
11
100
AcDbEntity
  8
RELAY_PSU-1_DRD
  6
BYLAYER
370
   211
 62
   256
100
AcDbPolyline
 90
     2
 70
     0
 43
0.01
 10
2.4
 20
0.15
 10
2.35
 20
0.15
  0
LWPOLYLINE
  5
44
330
11
100
AcDbEntity
  8
RELAY_PSU-1_DRD
  6
BYLAYER
370
   211
 62
   256
100
AcDbPolyline
 90
     2
 70
     0
 43
0.01
 10
2.4
 20
0.1
 10
2.4
 20
0.15
  0
LWPOLYLINE
  5
45
330
11
100
AcDbEntity
  8
RELAY_PSU-1_DRD
  6
BYLAYER
370
   211
 62
   256
100
AcDbPolyline
 90
     2
 70
     0
 43
0.01
 10
2.35
 20
0.1
 10
2.4
 20
0.1
  0
LWPOLYLINE
  5
46
330
11
100
AcDbEntity
  8
RELAY_PSU-1_DRD
  6
BYLAYER
370
   211
 62
   256
100
AcDbPolyline
 90
     2
 70
     0
 43
0.01
 10
2.4
 20
0.15
 10
2.35
 20
0.1
  0
LWPOLYLINE
  5
47
330
11
100
AcDbEntity
  8
RELAY_PSU-1_DRD
  6
BYLAYER
370
   211
 62
   256
100
AcDbPolyline
 90
     2
 70
     0
 43
0.01
 10
2.4
 20
0.1
 10
2.35
 20
0.15
  0
LWPOLYLINE
  5
48
330
11
100
AcDbEntity
  8
RELAY_PSU-1_DRD
  6
BYLAYER
370
   211
 62
   256
100
AcDbPolyline
 90
     2
 70
     0
 43
0.01
 10
0.1
 20
0.15
 10
0.1
 20
0.1
  0
LWPOLYLINE
  5
49
330
11
100
AcDbEntity
  8
RELAY_PSU-1_DRD
  6
BYLAYER
370
   211
 62
   256
100
AcDbPolyline
 90
     2
 70
     0
 43
0.01
 10
0.15
 20
0.15
 10
0.1
 20
0.15
  0
LWPOLYLINE
  5
4A
330
11
100
AcDbEntity
  8
RELAY_PSU-1_DRD
  6
BYLAYER
370
   211
 62
   256
100
AcDbPolyline
 90
     2
 70
     0
 43
0.01
 10
0.15
 20
0.1
 10
0.15
 20
0.15
  0
LWPOLYLINE
  5
4B
330
11
100
AcDbEntity
  8
RELAY_PSU-1_DRD
  6
BYLAYER
370
   211
 62
   256
100
AcDbPolyline
 90
     2
 70
     0
 43
0.01
 10
0.1
 20
0.1
 10
0.15
 20
0.1
  0
LWPOLYLINE
  5
4C
330
11
100
AcDbEntity
  8
RELAY_PSU-1_DRD
  6
BYLAYER
370
   211
 62
   256
100
AcDbPolyline
 90
     2
 70
     0
 43
0.01
 10
0.15
 20
0.15
 10
0.1
 20
0.1
  0
LWPOLYLINE
  5
4D
330
11
100
AcDbEntity
  8
RELAY_PSU-1_DRD
  6
BYLAYER
370
   211
 62
   256
100
AcDbPolyline
 90
     2
 70
     0
 43
0.01
 10
0.15
 20
0.1
 10
0.1
 20
0.15
  0
LWPOLYLINE
  5
4E
330
11
100
AcDbEntity
  8
RELAY_PSU-1_DRD
  6
BYLAYER
370
   211
 62
   256
100
AcDbPolyline
 90
     2
 70
     0
 43
0.01
 10
2.35
 20
2.4
 10
2.35
 20
2.35
  0
LWPOLYLINE
  5
4F
330
11
100
AcDbEntity
  8
RELAY_PSU-1_DRD
  6
BYLAYER
370
   211
 62
   256
100
AcDbPolyline
 90
     2
 70
     0
 43
0.01
 10
2.4
 20
2.4
 10
2.35
 20
2.4
  0
LWPOLYLINE
  5
50
330
11
100
AcDbEntity
  8
RELAY_PSU-1_DRD
  6
BYLAYER
370
   211
 62
   256
100
AcDbPolyline
 90
     2
 70
     0
 43
0.01
 10
2.4
 20
2.35
 10
2.4
 20
2.4
  0
LWPOLYLINE
  5
51
330
11
100
AcDbEntity
  8
RELAY_PSU-1_DRD
  6
BYLAYER
370
   211
 62
   256
100
AcDbPolyline
 90
     2
 70
     0
 43
0.01
 10
2.35
 20
2.35
 10
2.4
 20
2.35
  0
LWPOLYLINE
  5
52
330
11
100
AcDbEntity
  8
RELAY_PSU-1_DRD
  6
BYLAYER
370
   211
 62
   256
100
AcDbPolyline
 90
     2
 70
     0
 43
0.01
 10
2.4
 20
2.4
 10
2.35
 20
2.35
  0
LWPOLYLINE
  5
53
330
11
100
AcDbEntity
  8
RELAY_PSU-1_DRD
  6
BYLAYER
370
   211
 62
   256
100
AcDbPolyline
 90
     2
 70
     0
 43
0.01
 10
2.4
 20
2.35
 10
2.35
 20
2.4
  0
LWPOLYLINE
  5
54
330
11
100
AcDbEntity
  8
RELAY_PSU-1_DRD
  6
BYLAYER
370
   211
 62
   256
100
AcDbPolyline
 90
     2
 70
     0
 43
0.01
 10
0.1
 20
2.4
 10
0.1
 20
2.35
  0
LWPOLYLINE
  5
55
330
11
100
AcDbEntity
  8
RELAY_PSU-1_DRD
  6
BYLAYER
370
   211
 62
   256
100
AcDbPolyline
 90
     2
 70
     0
 43
0.01
 10
0.15
 20
2.4
 10
0.1
 20
2.4
  0
LWPOLYLINE
  5
56
330
11
100
AcDbEntity
  8
RELAY_PSU-1_DRD
  6
BYLAYER
370
   211
 62
   256
100
AcDbPolyline
 90
     2
 70
     0
 43
0.01
 10
0.15
 20
2.35
 10
0.15
 20
2.4
  0
LWPOLYLINE
  5
57
330
11
100
AcDbEntity
  8
RELAY_PSU-1_DRD
  6
BYLAYER
370
   211
 62
   256
100
AcDbPolyline
 90
     2
 70
     0
 43
0.01
 10
0.1
 20
2.35
 10
0.15
 20
2.35
  0
LWPOLYLINE
  5
58
330
11
100
AcDbEntity
  8
RELAY_PSU-1_DRD
  6
BYLAYER
370
   211
 62
   256
100
AcDbPolyline
 90
     2
 70
     0
 43
0.01
 10
0.15
 20
2.4
 10
0.1
 20
2.35
  0
LWPOLYLINE
  5
59
330
11
100
AcDbEntity
  8
RELAY_PSU-1_DRD
  6
BYLAYER
370
   211
 62
   256
100
AcDbPolyline
 90
     2
 70
     0
 43
0.01
 10
0.15
 20
2.35
 10
0.1
 20
2.4
  0
LWPOLYLINE
  5
5A
330
11
100
AcDbEntity
  8
RELAY_PSU-1_SST
  6
BYLAYER
370
   211
 62
   256
100
AcDbPolyline
 90
    10
 70
     0
 43
0.008
 10
2.4362
 20
1.0221
 10
2.4528
 20
1.0221
 10
2.4528
 20
1.0054
 10
2.4487
 20
0.9971
 10
2.4237
 20
0.9971
 10
2.4195
 20
1.0054
 10
2.4195
 20
1.0387
 10
2.4237
 20
1.0471
 10
2.4487
 20
1.0471
 10
2.4528
 20
1.0387
  0
LWPOLYLINE
  5
5B
330
11
100
AcDbEntity
  8
RELAY_PSU-1_SST
  6
BYLAYER
370
   211
 62
   256
100
AcDbPolyline
 90
    10
 70
     0
 43
0.008
 10
1.2412
 20
2.4371
 10
1.2578
 20
2.4371
 10
1.2578
 20
2.4204
 10
1.2537
 20
2.4121
 10
1.2287
 20
2.4121
 10
1.2245
 20
2.4204
 10
1.2245
 20
2.4537
 10
1.2287
 20
2.4621
 10
1.2537
 20
2.4621
 10
1.2578
 20
2.4537
  0
LWPOLYLINE
  5
5C
330
11
100
AcDbEntity
  8
RELAY_PSU-1_SST
  6
BYLAYER
370
   211
 62
   256
100
AcDbPolyline
 90
     5
 70
     0
 43
0.008
 10
1.6757
 20
2.4579
 10
1.6757
 20
2.4446
 10
1.6623
 20
2.4179
 10
1.649
 20
2.4446
 10
1.649
 20
2.4579
  0
LWPOLYLINE
  5
5D
330
11
100
AcDbEntity
  8
RELAY_PSU-1_SST
  6
BYLAYER
370
   211
 62
   256
100
AcDbPolyline
 90
     7
 70
     0
 43
0.008
 10
1.6297
 20
2.4179
 10
1.603
 20
2.4179
 10
1.6297
 20
2.4446
 10
1.6297
 20
2.4512
 10
1.6263
 20
2.4579
 10
1.6063
 20
2.4579
 10
1.603
 20
2.4512
  0
LWPOLYLINE
  5
5E
330
11
100
AcDbEntity
  8
RELAY_PSU-1_SST
  6
BYLAYER
370
   211
 62
   256
100
AcDbPolyline
 90
     2
 70
     0
 43
0.008
 10
1.5837
 20
2.4179
 10
1.5703
 20
2.4179
  0
LWPOLYLINE
  5
5F
330
11
100
AcDbEntity
  8
RELAY_PSU-1_SST
  6
BYLAYER
370
   211
 62
   256
100
AcDbPolyline
 90
     3
 70
     0
 43
0.008
 10
1.577
 20
2.4179
 10
1.577
 20
2.4579
 10
1.5703
 20
2.4512
  0
LWPOLYLINE
  5
60
330
11
100
AcDbEntity
  8
RELAY_PSU-1_SST
  6
BYLAYER
370
   211
 62
   256
100
AcDbPolyline
 90
     7
 70
     0
 43
0.008
 10
1.7903
 20
2.4179
 10
1.7637
 20
2.4179
 10
1.7903
 20
2.4446
 10
1.7903
 20
2.4512
 10
1.787
 20
2.4579
 10
1.767
 20
2.4579
 10
1.7637
 20
2.4512
  0
LWPOLYLINE
  5
61
330
11
100
AcDbEntity
  8
RELAY_PSU-1_SST
  6
BYLAYER
370
   211
 62
   256
100
AcDbPolyline
 90
     2
 70
     0
 43
0.008
 10
1.9287
 20
2.4179
 10
1.9153
 20
2.4179
  0
LWPOLYLINE
  5
62
330
11
100
AcDbEntity
  8
RELAY_PSU-1_SST
  6
BYLAYER
370
   211
 62
   256
100
AcDbPolyline
 90
     3
 70
     0
 43
0.008
 10
1.922
 20
2.4179
 10
1.922
 20
2.4579
 10
1.9153
 20
2.4512
  0
LWPOLYLINE
  5
63
330
11
100
AcDbEntity
  8
RELAY_PSU-1_SST
  6
BYLAYER
370
   211
 62
   256
100
AcDbPolyline
 90
     8
 70
     0
 43
0.008
 10
0.9345
 20
2.4204
 10
0.9428
 20
2.4121
 10
0.9595
 20
2.4121
 10
0.9678
 20
2.4204
 10
0.9678
 20
2.4287
 10
0.9512
 20
2.4454
 10
0.9678
 20
2.4621
 10
0.9345
 20
2.4621
  0
LWPOLYLINE
  5
64
330
11
100
AcDbEntity
  8
RELAY_PSU-1_SST
  6
BYLAYER
370
   211
 62
   256
100
AcDbPolyline
 90
     5
 70
     0
 43
0.008
 10
1.486
 20
2.1534
 10
1.4637
 20
2.1534
 10
1.4749
 20
2.1756
 10
1.4804
 20
2.1756
 10
1.4804
 20
2.1423
  0
LWPOLYLINE
  5
65
330
11
100
AcDbEntity
  8
RELAY_PSU-1_SST
  6
BYLAYER
370
   211
 62
   256
100
AcDbPolyline
 90
     2
 70
     0
 43
0.008
 10
1.445
 20
2.1423
 10
1.4339
 20
2.1423
  0
LWPOLYLINE
  5
66
330
11
100
AcDbEntity
  8
RELAY_PSU-1_SST
  6
BYLAYER
370
   211
 62
   256
100
AcDbPolyline
 90
     3
 70
     0
 43
0.008
 10
1.4394
 20
2.1423
 10
1.4394
 20
2.1756
 10
1.4339
 20
2.17
  0
LWPOLYLINE
  5
67
330
11
100
AcDbEntity
  8
RELAY_PSU-1_SST
  6
BYLAYER
370
   211
 62
   256
100
AcDbPolyline
 90
     2
 70
     0
 43
0.008
 10
1.4012
 20
2.1589
 10
1.4095
 20
2.1423
  0
LWPOLYLINE
  5
68
330
11
100
AcDbEntity
  8
RELAY_PSU-1_SST
  6
BYLAYER
370
   211
 62
   256
100
AcDbPolyline
 90
     7
 70
     0
 43
0.008
 10
1.3873
 20
2.1589
 10
1.404
 20
2.1589
 10
1.4095
 20
2.1645
 10
1.4095
 20
2.17
 10
1.404
 20
2.1756
 10
1.3873
 20
2.1756
 10
1.3873
 20
2.1423
  0
LWPOLYLINE
  5
69
330
11
100
AcDbEntity
  8
RELAY_PSU-1_SST
  6
BYLAYER
370
   211
 62
   256
100
AcDbPolyline
 90
     8
 70
     0
 43
0.008
 10
1.4637
 20
2.3628
 10
1.4693
 20
2.3573
 10
1.4804
 20
2.3573
 10
1.486
 20
2.3628
 10
1.486
 20
2.3684
 10
1.4749
 20
2.3795
 10
1.486
 20
2.3906
 10
1.4637
 20
2.3906
  0
LWPOLYLINE
  5
6A
330
11
100
AcDbEntity
  8
RELAY_PSU-1_SST
  6
BYLAYER
370
   211
 62
   256
100
AcDbPolyline
 90
     2
 70
     0
 43
0.008
 10
1.445
 20
2.3573
 10
1.4339
 20
2.3573
  0
LWPOLYLINE
  5
6B
330
11
100
AcDbEntity
  8
RELAY_PSU-1_SST
  6
BYLAYER
370
   211
 62
   256
100
AcDbPolyline
 90
     3
 70
     0
 43
0.008
 10
1.4394
 20
2.3573
 10
1.4394
 20
2.3906
 10
1.4339
 20
2.385
  0
LWPOLYLINE
  5
6C
330
11
100
AcDbEntity
  8
RELAY_PSU-1_SST
  6
BYLAYER
370
   211
 62
   256
100
AcDbPolyline
 90
     2
 70
     0
 43
0.008
 10
1.4012
 20
2.3739
 10
1.4095
 20
2.3573
  0
LWPOLYLINE
  5
6D
330
11
100
AcDbEntity
  8
RELAY_PSU-1_SST
  6
BYLAYER
370
   211
 62
   256
100
AcDbPolyline
 90
     7
 70
     0
 43
0.008
 10
1.3873
 20
2.3739
 10
1.404
 20
2.3739
 10
1.4095
 20
2.3795
 10
1.4095
 20
2.385
 10
1.404
 20
2.3906
 10
1.3873
 20
2.3906
 10
1.3873
 20
2.3573
  0
LWPOLYLINE
  5
6E
330
11
100
AcDbEntity
  8
RELAY_PSU-1_SST
  6
BYLAYER
370
   211
 62
   256
100
AcDbPolyline
 90
     5
 70
     0
 43
0.008
 10
1.1078
 20
2.4287
 10
1.0745
 20
2.4287
 10
1.0912
 20
2.4621
 10
1.0995
 20
2.4621
 10
1.0995
 20
2.4121
  0
LWPOLYLINE
  5
6F
330
11
100
AcDbEntity
  8
RELAY_PSU-1_SST
  6
BYLAYER
370
   211
 62
   256
100
AcDbPolyline
 90
     5
 70
     0
 43
0.008
 10
1.3794
 20
1.8504
 10
1.3571
 20
1.8504
 10
1.3683
 20
1.8727
 10
1.3738
 20
1.8727
 10
1.3738
 20
1.8393
  0
LWPOLYLINE
  5
70
330
11
100
AcDbEntity
  8
RELAY_PSU-1_SST
  6
BYLAYER
370
   211
 62
   256
100
AcDbPolyline
 90
     2
 70
     0
 43
0.008
 10
1.33
 20
1.856
 10
1.3384
 20
1.8393
  0
LWPOLYLINE
  5
71
330
11
100
AcDbEntity
  8
RELAY_PSU-1_SST
  6
BYLAYER
370
   211
 62
   256
100
AcDbPolyline
 90
     7
 70
     0
 43
0.008
 10
1.3161
 20
1.856
 10
1.3328
 20
1.856
 10
1.3384
 20
1.8615
 10
1.3384
 20
1.8671
 10
1.3328
 20
1.8727
 10
1.3161
 20
1.8727
 10
1.3161
 20
1.8393
  0
LWPOLYLINE
  5
72
330
11
100
AcDbEntity
  8
RELAY_PSU-1_SST
  6
BYLAYER
370
   211
 62
   256
100
AcDbPolyline
 90
     2
 70
     0
 43
0.008
 10
2.1604
 20
1.9939
 10
2.1493
 20
1.9939
  0
LWPOLYLINE
  5
73
330
11
100
AcDbEntity
  8
RELAY_PSU-1_SST
  6
BYLAYER
370
   211
 62
   256
100
AcDbPolyline
 90
     3
 70
     0
 43
0.008
 10
2.1549
 20
1.9939
 10
2.1549
 20
2.0272
 10
2.1493
 20
2.0217
  0
LWPOLYLINE
  5
74
330
11
100
AcDbEntity
  8
RELAY_PSU-1_SST
  6
BYLAYER
370
   211
 62
   256
100
AcDbPolyline
 90
    12
 70
     0
 43
0.008
 10
2.125
 20
2.0217
 10
2.1222
 20
2.0272
 10
2.1055
 20
2.0272
 10
2.1028
 20
2.0217
 10
2.1028
 20
2.0161
 10
2.1055
 20
2.0105
 10
2.1222
 20
2.0105
 10
2.125
 20
2.005
 10
2.125
 20
1.9994
 10
2.1222
 20
1.9939
 10
2.1055
 20
1.9939
 10
2.1028
 20
1.9994
  0
LWPOLYLINE
  5
75
330
11
100
AcDbEntity
  8
RELAY_PSU-1_SST
  6
BYLAYER
370
   211
 62
   256
100
AcDbPolyline
 90
     7
 70
     0
 43
0.008
 10
2.0618
 20
2.0105
 10
2.0784
 20
2.0105
 10
2.084
 20
2.0161
 10
2.084
 20
2.0217
 10
2.0784
 20
2.0272
 10
2.0618
 20
2.0272
 10
2.0618
 20
1.9939
  0
LWPOLYLINE
  5
76
330
11
100
AcDbEntity
  8
RELAY_PSU-1_SST
  6
BYLAYER
370
   211
 62
   256
100
AcDbPolyline
 90
    16
 70
     0
 43
0.008
 10
1.2216
 20
1.856
 10
1.2244
 20
1.8615
 10
1.2244
 20
1.8671
 10
1.2216
 20
1.8727
 10
1.2049
 20
1.8727
 10
1.2021
 20
1.8671
 10
1.2021
 20
1.8615
 10
1.2049
 20
1.856
 10
1.2216
 20
1.856
 10
1.2244
 20
1.8504
 10
1.2244
 20
1.8449
 10
1.2216
 20
1.8393
 10
1.2049
 20
1.8393
 10
1.2021
 20
1.8449
 10
1.2021
 20
1.8504
 10
1.2049
 20
1.856
  0
LWPOLYLINE
  5
77
330
11
100
AcDbEntity
  8
RELAY_PSU-1_SST
  6
BYLAYER
370
   211
 62
   256
100
AcDbPolyline
 90
     2
 70
     0
 43
0.008
 10
1.175
 20
1.856
 10
1.1834
 20
1.8393
  0
LWPOLYLINE
  5
78
330
11
100
AcDbEntity
  8
RELAY_PSU-1_SST
  6
BYLAYER
370
   211
 62
   256
100
AcDbPolyline
 90
     7
 70
     0
 43
0.008
 10
1.1611
 20
1.856
 10
1.1778
 20
1.856
 10
1.1834
 20
1.8615
 10
1.1834
 20
1.8671
 10
1.1778
 20
1.8727
 10
1.1611
 20
1.8727
 10
1.1611
 20
1.8393
  0
LWPOLYLINE
  5
79
330
11
100
AcDbEntity
  8
RELAY_PSU-1_SST
  6
BYLAYER
370
   211
 62
   256
100
AcDbPolyline
 90
     3
 70
     0
 43
0.008
 10
1.2127
 20
2.0043
 10
1.2294
 20
2.0377
 10
1.2071
 20
2.0377
  0
LWPOLYLINE
  5
7A
330
11
100
AcDbEntity
  8
RELAY_PSU-1_SST
  6
BYLAYER
370
   211
 62
   256
100
AcDbPolyline
 90
     2
 70
     0
 43
0.008
 10
1.18
 20
2.021
 10
1.1884
 20
2.0043
  0
LWPOLYLINE
  5
7B
330
11
100
AcDbEntity
  8
RELAY_PSU-1_SST
  6
BYLAYER
370
   211
 62
   256
100
AcDbPolyline
 90
     7
 70
     0
 43
0.008
 10
1.1661
 20
2.021
 10
1.1828
 20
2.021
 10
1.1884
 20
2.0265
 10
1.1884
 20
2.0321
 10
1.1828
 20
2.0377
 10
1.1661
 20
2.0377
 10
1.1661
 20
2.0043
  0
LWPOLYLINE
  5
7C
330
11
100
AcDbEntity
  8
RELAY_PSU-1_SST
  6
BYLAYER
370
   211
 62
   256
100
AcDbPolyline
 90
     8
 70
     0
 43
0.008
 10
1.3571
 20
2.0049
 10
1.3627
 20
1.9993
 10
1.3738
 20
1.9993
 10
1.3794
 20
2.0049
 10
1.3794
 20
2.0104
 10
1.3683
 20
2.0215
 10
1.3794
 20
2.0327
 10
1.3571
 20
2.0327
  0
LWPOLYLINE
  5
7D
330
11
100
AcDbEntity
  8
RELAY_PSU-1_SST
  6
BYLAYER
370
   211
 62
   256
100
AcDbPolyline
 90
     2
 70
     0
 43
0.008
 10
1.33
 20
2.016
 10
1.3384
 20
1.9993
  0
LWPOLYLINE
  5
7E
330
11
100
AcDbEntity
  8
RELAY_PSU-1_SST
  6
BYLAYER
370
   211
 62
   256
100
AcDbPolyline
 90
     7
 70
     0
 43
0.008
 10
1.3161
 20
2.016
 10
1.3328
 20
2.016
 10
1.3384
 20
2.0215
 10
1.3384
 20
2.0271
 10
1.3328
 20
2.0327
 10
1.3161
 20
2.0327
 10
1.3161
 20
1.9993
  0
LWPOLYLINE
  5
7F
330
11
100
AcDbEntity
  8
RELAY_PSU-1_SST
  6
BYLAYER
370
   211
 62
   256
100
AcDbPolyline
 90
     2
 70
     0
 43
0.008
 10
1.2487
 20
0.9274
 10
1.2353
 20
0.9274
  0
LWPOLYLINE
  5
80
330
11
100
AcDbEntity
  8
RELAY_PSU-1_SST
  6
BYLAYER
370
   211
 62
   256
100
AcDbPolyline
 90
     3
 70
     0
 43
0.008
 10
1.242
 20
0.9274
 10
1.242
 20
0.9674
 10
1.2353
 20
0.9607
  0
LWPOLYLINE
  5
81
330
11
100
AcDbEntity
  8
RELAY_PSU-1_SST
  6
BYLAYER
370
   211
 62
   256
100
AcDbPolyline
 90
    12
 70
     0
 43
0.008
 10
1.2093
 20
0.9607
 10
1.206
 20
0.9674
 10
1.186
 20
0.9674
 10
1.1827
 20
0.9607
 10
1.1827
 20
0.9541
 10
1.186
 20
0.9474
 10
1.206
 20
0.9474
 10
1.2093
 20
0.9407
 10
1.2093
 20
0.9341
 10
1.206
 20
0.9274
 10
1.186
 20
0.9274
 10
1.1827
 20
0.9341
  0
LWPOLYLINE
  5
82
330
11
100
AcDbEntity
  8
RELAY_PSU-1_SST
  6
BYLAYER
370
   211
 62
   256
100
AcDbPolyline
 90
     3
 70
     0
 43
0.008
 10
1.1633
 20
0.9274
 10
1.14
 20
0.9274
 10
1.14
 20
0.9674
  0
LWPOLYLINE
  5
83
330
11
100
AcDbEntity
  8
RELAY_PSU-1_SST
  6
BYLAYER
370
   211
 62
   256
100
AcDbPolyline
 90
     5
 70
     0
 43
0.008
 10
2.2709
 20
1.1457
 10
2.2442
 20
1.1457
 10
2.2576
 20
1.1723
 10
2.2642
 20
1.1723
 10
2.2642
 20
1.1323
  0
LWPOLYLINE
  5
84
330
11
100
AcDbEntity
  8
RELAY_PSU-1_SST
  6
BYLAYER
370
   211
 62
   256
100
AcDbPolyline
 90
     6
 70
     0
 43
0.008
 10
2.2016
 20
1.1457
 10
2.2016
 20
1.139
 10
2.2049
 20
1.1323
 10
2.2182
 20
1.1323
 10
2.2216
 20
1.139
 10
2.2216
 20
1.1723
  0
LWPOLYLINE
  5
85
330
11
100
AcDbEntity
  8
RELAY_PSU-1_SST
  6
BYLAYER
370
   211
 62
   256
100
AcDbPolyline
 90
     2
 70
     0
 43
0.008
 10
2.2249
 20
1.1723
 10
2.2116
 20
1.1723
  0
LWPOLYLINE
  5
86
330
11
100
AcDbEntity
  8
RELAY_PSU-1_SST
  6
BYLAYER
370
   211
 62
   256
100
AcDbPolyline
 90
     7
 70
     0
 43
0.008
 10
0.8623
 20
2.3504
 10
0.8357
 20
2.3504
 10
0.8623
 20
2.3771
 10
0.8623
 20
2.3837
 10
0.859
 20
2.3904
 10
0.839
 20
2.3904
 10
0.8357
 20
2.3837
  0
LWPOLYLINE
  5
87
330
11
100
AcDbEntity
  8
RELAY_PSU-1_SST
  6
BYLAYER
370
   211
 62
   256
100
AcDbPolyline
 90
     6
 70
     0
 43
0.008
 10
0.793
 20
2.3637
 10
0.793
 20
2.3571
 10
0.7963
 20
2.3504
 10
0.8097
 20
2.3504
 10
0.813
 20
2.3571
 10
0.813
 20
2.3904
  0
LWPOLYLINE
  5
88
330
11
100
AcDbEntity
  8
RELAY_PSU-1_SST
  6
BYLAYER
370
   211
 62
   256
100
AcDbPolyline
 90
     2
 70
     0
 43
0.008
 10
0.8163
 20
2.3904
 10
0.803
 20
2.3904
  0
LWPOLYLINE
  5
89
330
11
100
AcDbEntity
  8
RELAY_PSU-1_SST
  6
BYLAYER
370
   211
 62
   256
100
AcDbPolyline
 90
     9
 70
     0
 43
0.008
 10
0.9749
 20
1.696
 10
0.9916
 20
1.696
 10
0.9944
 20
1.6904
 10
0.9944
 20
1.6849
 10
0.9916
 20
1.6793
 10
0.9749
 20
1.6793
 10
0.9721
 20
1.6849
 10
0.9721
 20
1.6904
 10
0.9833
 20
1.7127
  0
LWPOLYLINE
  5
8A
330
11
100
AcDbEntity
  8
RELAY_PSU-1_SST
  6
BYLAYER
370
   211
 62
   256
100
AcDbPolyline
 90
     2
 70
     0
 43
0.008
 10
0.945
 20
1.696
 10
0.9534
 20
1.6793
  0
LWPOLYLINE
  5
8B
330
11
100
AcDbEntity
  8
RELAY_PSU-1_SST
  6
BYLAYER
370
   211
 62
   256
100
AcDbPolyline
 90
     7
 70
     0
 43
0.008
 10
0.9311
 20
1.696
 10
0.9478
 20
1.696
 10
0.9534
 20
1.7015
 10
0.9534
 20
1.7071
 10
0.9478
 20
1.7127
 10
0.9311
 20
1.7127
 10
0.9311
 20
1.6793
  0
LWPOLYLINE
  5
8C
330
11
100
AcDbEntity
  8
RELAY_PSU-1_SST
  6
BYLAYER
370
   211
 62
   256
100
AcDbPolyline
 90
     7
 70
     0
 43
0.008
 10
2.166
 20
1.8039
 10
2.1438
 20
1.8039
 10
2.166
 20
1.8261
 10
2.166
 20
1.8317
 10
2.1632
 20
1.8372
 10
2.1465
 20
1.8372
 10
2.1438
 20
1.8317
  0
LWPOLYLINE
  5
8D
330
11
100
AcDbEntity
  8
RELAY_PSU-1_SST
  6
BYLAYER
370
   211
 62
   256
100
AcDbPolyline
 90
    12
 70
     0
 43
0.008
 10
2.125
 20
1.8317
 10
2.1222
 20
1.8372
 10
2.1055
 20
1.8372
 10
2.1028
 20
1.8317
 10
2.1028
 20
1.8261
 10
2.1055
 20
1.8205
 10
2.1222
 20
1.8205
 10
2.125
 20
1.815
 10
2.125
 20
1.8094
 10
2.1222
 20
1.8039
 10
2.1055
 20
1.8039
 10
2.1028
 20
1.8094
  0
LWPOLYLINE
  5
8E
330
11
100
AcDbEntity
  8
RELAY_PSU-1_SST
  6
BYLAYER
370
   211
 62
   256
100
AcDbPolyline
 90
     7
 70
     0
 43
0.008
 10
2.0618
 20
1.8205
 10
2.0784
 20
1.8205
 10
2.084
 20
1.8261
 10
2.084
 20
1.8317
 10
2.0784
 20
1.8372
 10
2.0618
 20
1.8372
 10
2.0618
 20
1.8039
  0
LWPOLYLINE
  5
8F
330
11
100
AcDbEntity
  8
RELAY_PSU-1_SST
  6
BYLAYER
370
   211
 62
   256
100
AcDbPolyline
 90
     2
 70
     0
 43
0.008
 10
2.0813
 20
2.3479
 10
2.068
 20
2.3479
  0
LWPOLYLINE
  5
90
330
11
100
AcDbEntity
  8
RELAY_PSU-1_SST
  6
BYLAYER
370
   211
 62
   256
100
AcDbPolyline
 90
     3
 70
     0
 43
0.008
 10
2.0747
 20
2.3479
 10
2.0747
 20
2.3879
 10
2.068
 20
2.3812
  0
LWPOLYLINE
  5
91
330
11
100
AcDbEntity
  8
RELAY_PSU-1_SST
  6
BYLAYER
370
   211
 62
   256
100
AcDbPolyline
 90
     6
 70
     0
 43
0.008
 10
2.0187
 20
2.3612
 10
2.0187
 20
2.3546
 10
2.022
 20
2.3479
 10
2.0353
 20
2.3479
 10
2.0387
 20
2.3546
 10
2.0387
 20
2.3879
  0
LWPOLYLINE
  5
92
330
11
100
AcDbEntity
  8
RELAY_PSU-1_SST
  6
BYLAYER
370
   211
 62
   256
100
AcDbPolyline
 90
     2
 70
     0
 43
0.008
 10
2.042
 20
2.3879
 10
2.0287
 20
2.3879
  0
LWPOLYLINE
  5
93
330
11
100
AcDbEntity
  8
RELAY_PSU-1_SST
  6
BYLAYER
370
   211
 62
   256
100
AcDbPolyline
 90
     9
 70
     0
 43
0.008
 10
0.8989
 20
2.0192
 10
0.9045
 20
2.022
 10
0.9045
 20
2.0387
 10
0.8989
 20
2.0414
 10
0.8878
 20
2.0414
 10
0.8823
 20
2.0359
 10
0.8823
 20
2.0192
 10
0.8712
 20
2.0192
 10
0.8712
 20
2.0414
  0
LWPOLYLINE
  5
94
330
11
100
AcDbEntity
  8
RELAY_PSU-1_SST
  6
BYLAYER
370
   211
 62
   256
100
AcDbPolyline
 90
     2
 70
     0
 43
0.008
 10
0.8878
 20
1.9921
 10
0.9045
 20
2.0004
  0
LWPOLYLINE
  5
95
330
11
100
AcDbEntity
  8
RELAY_PSU-1_SST
  6
BYLAYER
370
   211
 62
   256
100
AcDbPolyline
 90
     7
 70
     0
 43
0.008
 10
0.8878
 20
1.9782
 10
0.8878
 20
1.9949
 10
0.8823
 20
2.0004
 10
0.8767
 20
2.0004
 10
0.8712
 20
1.9949
 10
0.8712
 20
1.9782
 10
0.9045
 20
1.9782
  0
LWPOLYLINE
  5
96
330
11
100
AcDbEntity
  8
RELAY_PSU-1_SST
  6
BYLAYER
370
   211
 62
   256
100
AcDbPolyline
 90
     7
 70
     0
 43
0.008
 10
1.7194
 20
1.8493
 10
1.6971
 20
1.8493
 10
1.7194
 20
1.8715
 10
1.7194
 20
1.8771
 10
1.7166
 20
1.8827
 10
1.6999
 20
1.8827
 10
1.6971
 20
1.8771
  0
LWPOLYLINE
  5
97
330
11
100
AcDbEntity
  8
RELAY_PSU-1_SST
  6
BYLAYER
370
   211
 62
   256
100
AcDbPolyline
 90
     2
 70
     0
 43
0.008
 10
1.67
 20
1.866
 10
1.6784
 20
1.8493
  0
LWPOLYLINE
  5
98
330
11
100
AcDbEntity
  8
RELAY_PSU-1_SST
  6
BYLAYER
370
   211
 62
   256
100
AcDbPolyline
 90
     7
 70
     0
 43
0.008
 10
1.6561
 20
1.866
 10
1.6728
 20
1.866
 10
1.6784
 20
1.8715
 10
1.6784
 20
1.8771
 10
1.6728
 20
1.8827
 10
1.6561
 20
1.8827
 10
1.6561
 20
1.8493
  0
LWPOLYLINE
  5
99
330
11
100
AcDbEntity
  8
RELAY_PSU-1_SST
  6
BYLAYER
370
   211
 62
   256
100
AcDbPolyline
 90
     2
 70
     0
 43
0.008
 10
1.7188
 20
2.0093
 10
1.7077
 20
2.0093
  0
LWPOLYLINE
  5
9A
330
11
100
AcDbEntity
  8
RELAY_PSU-1_SST
  6
BYLAYER
370
   211
 62
   256
100
AcDbPolyline
 90
     3
 70
     0
 43
0.008
 10
1.7133
 20
2.0093
 10
1.7133
 20
2.0427
 10
1.7077
 20
2.0371
  0
LWPOLYLINE
  5
9B
330
11
100
AcDbEntity
  8
RELAY_PSU-1_SST
  6
BYLAYER
370
   211
 62
   256
100
AcDbPolyline
 90
     2
 70
     0
 43
0.008
 10
1.675
 20
2.026
 10
1.6834
 20
2.0093
  0
LWPOLYLINE
  5
9C
330
11
100
AcDbEntity
  8
RELAY_PSU-1_SST
  6
BYLAYER
370
   211
 62
   256
100
AcDbPolyline
 90
     7
 70
     0
 43
0.008
 10
1.6611
 20
2.026
 10
1.6778
 20
2.026
 10
1.6834
 20
2.0315
 10
1.6834
 20
2.0371
 10
1.6778
 20
2.0427
 10
1.6611
 20
2.0427
 10
1.6611
 20
2.0093
  0
LWPOLYLINE
  5
9D
330
11
100
AcDbEntity
  8
RELAY_PSU-1_SST
  6
BYLAYER
370
   211
 62
   256
100
AcDbPolyline
 90
     5
 70
     0
 43
0.008
 10
0.2488
 20
2.1591
 10
0.2266
 20
2.1591
 10
0.2377
 20
2.1813
 10
0.2432
 20
2.1813
 10
0.2432
 20
2.148
  0
LWPOLYLINE
  5
9E
330
11
100
AcDbEntity
  8
RELAY_PSU-1_SST
  6
BYLAYER
370
   211
 62
   256
100
AcDbPolyline
 90
     2
 70
     0
 43
0.008
 10
0.2078
 20
2.148
 10
0.1967
 20
2.148
  0
LWPOLYLINE
  5
9F
330
11
100
AcDbEntity
  8
RELAY_PSU-1_SST
  6
BYLAYER
370
   211
 62
   256
100
AcDbPolyline
 90
     3
 70
     0
 43
0.008
 10
0.2023
 20
2.148
 10
0.2023
 20
2.1813
 10
0.1967
 20
2.1758
  0
LWPOLYLINE
  5
A0
330
11
100
AcDbEntity
  8
RELAY_PSU-1_SST
  6
BYLAYER
370
   211
 62
   256
100
AcDbPolyline
 90
     2
 70
     0
 43
0.008
 10
0.1724
 20
2.148
 10
0.1613
 20
2.148
  0
LWPOLYLINE
  5
A1
330
11
100
AcDbEntity
  8
RELAY_PSU-1_SST
  6
BYLAYER
370
   211
 62
   256
100
AcDbPolyline
 90
     3
 70
     0
 43
0.008
 10
0.1668
 20
2.148
 10
0.1668
 20
2.1813
 10
0.1613
 20
2.1758
  0
LWPOLYLINE
  5
A2
330
11
100
AcDbEntity
  8
RELAY_PSU-1_SST
  6
BYLAYER
370
   211
 62
   256
100
AcDbPolyline
 90
     6
 70
     0
 43
0.008
 10
0.1369
 20
2.1813
 10
0.1369
 20
2.1536
 10
0.1342
 20
2.148
 10
0.1175
 20
2.148
 10
0.1147
 20
2.1536
 10
0.1147
 20
2.1813
  0
LWPOLYLINE
  5
A3
330
11
100
AcDbEntity
  8
RELAY_PSU-1_SST
  6
BYLAYER
370
   211
 62
   256
100
AcDbPolyline
 90
     5
 70
     0
 43
0.008
 10
2.181
 20
1.445
 10
2.1588
 20
1.445
 10
2.1699
 20
1.4672
 10
2.1754
 20
1.4672
 10
2.1754
 20
1.4339
  0
LWPOLYLINE
  5
A4
330
11
100
AcDbEntity
  8
RELAY_PSU-1_SST
  6
BYLAYER
370
   211
 62
   256
100
AcDbPolyline
 90
    12
 70
     0
 43
0.008
 10
2.14
 20
1.4617
 10
2.1372
 20
1.4672
 10
2.1205
 20
1.4672
 10
2.1178
 20
1.4617
 10
2.1178
 20
1.4561
 10
2.1205
 20
1.4505
 10
2.1372
 20
1.4505
 10
2.14
 20
1.445
 10
2.14
 20
1.4394
 10
2.1372
 20
1.4339
 10
2.1205
 20
1.4339
 10
2.1178
 20
1.4394
  0
LWPOLYLINE
  5
A5
330
11
100
AcDbEntity
  8
RELAY_PSU-1_SST
  6
BYLAYER
370
   211
 62
   256
100
AcDbPolyline
 90
     7
 70
     0
 43
0.008
 10
2.0768
 20
1.4505
 10
2.0934
 20
1.4505
 10
2.099
 20
1.4561
 10
2.099
 20
1.4617
 10
2.0934
 20
1.4672
 10
2.0768
 20
1.4672
 10
2.0768
 20
1.4339
  0
LWPOLYLINE
  5
A6
330
11
100
AcDbEntity
  8
RELAY_PSU-1_SST
  6
BYLAYER
370
   211
 62
   256
100
AcDbPolyline
 90
     8
 70
     0
 43
0.008
 10
2.1438
 20
1.6244
 10
2.1493
 20
1.6189
 10
2.1604
 20
1.6189
 10
2.166
 20
1.6244
 10
2.166
 20
1.63
 10
2.1549
 20
1.6411
 10
2.166
 20
1.6522
 10
2.1438
 20
1.6522
  0
LWPOLYLINE
  5
A7
330
11
100
AcDbEntity
  8
RELAY_PSU-1_SST
  6
BYLAYER
370
   211
 62
   256
100
AcDbPolyline
 90
    12
 70
     0
 43
0.008
 10
2.125
 20
1.6467
 10
2.1222
 20
1.6522
 10
2.1055
 20
1.6522
 10
2.1028
 20
1.6467
 10
2.1028
 20
1.6411
 10
2.1055
 20
1.6355
 10
2.1222
 20
1.6355
 10
2.125
 20
1.63
 10
2.125
 20
1.6244
 10
2.1222
 20
1.6189
 10
2.1055
 20
1.6189
 10
2.1028
 20
1.6244
  0
LWPOLYLINE
  5
A8
330
11
100
AcDbEntity
  8
RELAY_PSU-1_SST
  6
BYLAYER
370
   211
 62
   256
100
AcDbPolyline
 90
     7
 70
     0
 43
0.008
 10
2.0618
 20
1.6355
 10
2.0784
 20
1.6355
 10
2.084
 20
1.6411
 10
2.084
 20
1.6467
 10
2.0784
 20
1.6522
 10
2.0618
 20
1.6522
 10
2.0618
 20
1.6189
  0
LWPOLYLINE
  5
A9
330
11
100
AcDbEntity
  8
RELAY_PSU-1_SST
  6
BYLAYER
370
   211
 62
   256
100
AcDbPolyline
 90
     2
 70
     0
 43
0.008
 10
2.216
 20
1.5197
 10
2.046
 20
1.5197
  0
LWPOLYLINE
  5
AA
330
11
100
AcDbEntity
  8
RELAY_PSU-1_SST
  6
BYLAYER
370
   211
 62
   256
100
AcDbPolyline
 90
     2
 70
     0
 43
0.008
 10
2.216
 20
1.5997
 10
2.046
 20
1.5997
  0
LWPOLYLINE
  5
AB
330
11
100
AcDbEntity
  8
RELAY_PSU-1_SST
  6
BYLAYER
370
   211
 62
   256
100
AcDbPolyline
 90
     5
 70
     0
 43
0.008
 10
2.095
 20
0.659
 10
2.095
 20
1.094
 10
2.395
 20
1.094
 10
2.395
 20
0.659
 10
2.095
 20
0.659
  0
LWPOLYLINE
  5
AC
330
11
100
AcDbEntity
  8
RELAY_PSU-1_SST
  6
BYLAYER
370
   211
 62
   256
100
AcDbPolyline
 90
     2
 70
     0
 43
0.008
 10
2.211
 20
1.7047
 10
2.041
 20
1.7047
  0
LWPOLYLINE
  5
AD
330
11
100
AcDbEntity
  8
RELAY_PSU-1_SST
  6
BYLAYER
370
   211
 62
   256
100
AcDbPolyline
 90
     2
 70
     0
 43
0.008
 10
2.211
 20
1.7847
 10
2.041
 20
1.7847
  0
LWPOLYLINE
  5
AE
330
11
100
AcDbEntity
  8
RELAY_PSU-1_SST
  6
BYLAYER
370
   211
 62
   256
100
AcDbPolyline
 90
     2
 70
     0
 43
0.008
 10
2.211
 20
1.8947
 10
2.041
 20
1.8947
  0
LWPOLYLINE
  5
AF
330
11
100
AcDbEntity
  8
RELAY_PSU-1_SST
  6
BYLAYER
370
   211
 62
   256
100
AcDbPolyline
 90
     2
 70
     0
 43
0.008
 10
2.211
 20
1.9747
 10
2.041
 20
1.9747
  0
LWPOLYLINE
  5
B0
330
11
100
AcDbEntity
  8
RELAY_PSU-1_SST
  6
BYLAYER
370
   211
 62
   256
100
AcDbPolyline
 90
     5
 70
     0
 43
0.008
 10
1.12
 20
0.897
 10
2.01
 20
0.897
 10
2.01
 20
0.245
 10
1.12
 20
0.245
 10
1.12
 20
0.897
  0
LWPOLYLINE
  5
B1
330
11
100
AcDbEntity
  8
RELAY_PSU-1_SST
  6
BYLAYER
370
   211
 62
   256
100
AcDbPolyline
 90
     5
 70
     0
 43
0.008
 10
0.879
 20
2.395
 10
1.314
 20
2.395
 10
1.314
 20
2.095
 10
0.879
 20
2.095
 10
0.879
 20
2.395
  0
LWPOLYLINE
  5
B2
330
11
100
AcDbEntity
  8
RELAY_PSU-1_SST
  6
BYLAYER
370
   211
 62
   256
100
AcDbPolyline
 90
     5
 70
     0
 43
0.008
 10
1.996
 20
2.1
 10
1.561
 20
2.1
 10
1.561
 20
2.4
 10
1.996
 20
2.4
 10
1.996
 20
2.1
  0
LWPOLYLINE
  5
B3
330
11
100
AcDbEntity
  8
RELAY_PSU-1_SST
  6
BYLAYER
370
   211
 62
   256
100
AcDbPolyline
 90
     5
 70
     0
 43
0.008
 10
0.754
 20
1.6167
 10
0.754
 20
2.123
 10
0.0727
 20
2.123
 10
0.0727
 20
1.6167
 10
0.754
 20
1.6167
  0
LWPOLYLINE
  5
B4
330
11
100
AcDbEntity
  8
RELAY_PSU-1_SST
  6
BYLAYER
370
   211
 62
   256
100
AcDbPolyline
 90
     2
 70
     0
 43
0.008
 10
2.216
 20
1.3347
 10
2.046
 20
1.3347
  0
LWPOLYLINE
  5
B5
330
11
100
AcDbEntity
  8
RELAY_PSU-1_SST
  6
BYLAYER
370
   211
 62
   256
100
AcDbPolyline
 90
     2
 70
     0
 43
0.008
 10
2.216
 20
1.4147
 10
2.046
 20
1.4147
  0
LWPOLYLINE
  5
B6
330
11
100
AcDbEntity
  8
RELAY_PSU-1_SST
  6
BYLAYER
370
   211
 62
   256
100
AcDbPolyline
 90
     5
 70
     0
 43
0.006
 10
1.52
 20
2.2625
 10
1.52
 20
2.3375
 10
1.36
 20
2.3375
 10
1.36
 20
2.2625
 10
1.52
 20
2.2625
  0
LWPOLYLINE
  5
B7
330
11
100
AcDbEntity
  8
RELAY_PSU-1_SST
  6
BYLAYER
370
   211
 62
   256
100
AcDbPolyline
 90
     5
 70
     0
 43
0.006
 10
1.52
 20
2.1875
 10
1.52
 20
2.2625
 10
1.36
 20
2.2625
 10
1.36
 20
2.1875
 10
1.52
 20
2.1875
  0
LWPOLYLINE
  5
B8
330
11
100
AcDbEntity
  8
RELAY_PSU-1_SST
  6
BYLAYER
370
   211
 62
   256
100
AcDbPolyline
 90
     5
 70
     0
 43
0.006
 10
1.3975
 20
1.735
 10
1.4725
 20
1.735
 10
1.4725
 20
1.895
 10
1.3975
 20
1.895
 10
1.3975
 20
1.735
  0
LWPOLYLINE
  5
B9
330
11
100
AcDbEntity
  8
RELAY_PSU-1_SST
  6
BYLAYER
370
   211
 62
   256
100
AcDbPolyline
 90
     5
 70
     0
 43
0.006
 10
1.0625
 20
1.73
 10
1.1375
 20
1.73
 10
1.1375
 20
1.89
 10
1.0625
 20
1.89
 10
1.0625
 20
1.73
  0
LWPOLYLINE
  5
BA
330
11
100
AcDbEntity
  8
RELAY_PSU-1_SST
  6
BYLAYER
370
   211
 62
   256
100
AcDbPolyline
 90
     5
 70
     0
 43
0.006
 10
1.0625
 20
1.89
 10
1.1375
 20
1.89
 10
1.1375
 20
2.05
 10
1.0625
 20
2.05
 10
1.0625
 20
1.89
  0
LWPOLYLINE
  5
BB
330
11
100
AcDbEntity
  8
RELAY_PSU-1_SST
  6
BYLAYER
370
   211
 62
   256
100
AcDbPolyline
 90
     5
 70
     0
 43
0.006
 10
1.3975
 20
1.895
 10
1.4725
 20
1.895
 10
1.4725
 20
2.055
 10
1.3975
 20
2.055
 10
1.3975
 20
1.895
  0
LWPOLYLINE
  5
BC
330
11
100
AcDbEntity
  8
RELAY_PSU-1_SST
  6
BYLAYER
370
   211
 62
   256
100
AcDbPolyline
 90
     5
 70
     0
 43
0.006
 10
0.9225
 20
1.73
 10
0.9975
 20
1.73
 10
0.9975
 20
1.89
 10
0.9225
 20
1.89
 10
0.9225
 20
1.73
  0
LWPOLYLINE
  5
BD
330
11
100
AcDbEntity
  8
RELAY_PSU-1_SST
  6
BYLAYER
370
   211
 62
   256
100
AcDbPolyline
 90
     5
 70
     0
 43
0.006
 10
0.9225
 20
1.89
 10
0.9975
 20
1.89
 10
0.9975
 20
2.05
 10
0.9225
 20
2.05
 10
0.9225
 20
1.89
  0
LWPOLYLINE
  5
BE
330
11
100
AcDbEntity
  8
RELAY_PSU-1_SST
  6
BYLAYER
370
   211
 62
   256
100
AcDbPolyline
 90
     5
 70
     0
 43
0.006
 10
1.5675
 20
1.735
 10
1.6425
 20
1.735
 10
1.6425
 20
1.895
 10
1.5675
 20
1.895
 10
1.5675
 20
1.735
  0
LWPOLYLINE
  5
BF
330
11
100
AcDbEntity
  8
RELAY_PSU-1_SST
  6
BYLAYER
370
   211
 62
   256
100
AcDbPolyline
 90
     5
 70
     0
 43
0.006
 10
1.5675
 20
1.895
 10
1.6425
 20
1.895
 10
1.6425
 20
2.055
 10
1.5675
 20
2.055
 10
1.5675
 20
1.895
  0
ENDSEC
  0
SECTION
  2
OBJECTS
  0
DICTIONARY
  5
17
102
{ACAD_REACTORS
330
0
102
}
330
0
100
AcDbDictionary
280
     1
281
     0
  3
ACAD_GROUP
350
18
  3
ACAD_LAYOUT
350
19
  3
ACAD_MLINESTYLE
350
1C
  0
DICTIONARY
  5
18
102
{ACAD_REACTORS
330
17
102
}
330
17
100
AcDbDictionary
280
     1
281
     0
  0
DICTIONARY
  5
19
102
{ACAD_REACTORS
330
17
102
}
330
17
100
AcDbDictionary
280
     1
281
     0
  3
Model
350
1A
  3
Layout1
350
1B
  0
LAYOUT
  5
1A
102
{ACAD_REACTORS
330
19
102
}
330
19
100
AcDbPlotSettings
  1

  2
none_device
  4
ISO_A4_(210.00_x_297.00_MM)
 40
0.0
 41
0.0
 42
0.0
 43
0.0
 44
210.0
 45
297.0
 46
0.0
 47
0.0
 48
0.0
 49
0.0
140
0.0
141
0.0
141
1.0
143
1.0
 72
     1
 73
     0
 74
     5
  7

 75
    16
147
1.0
 76
     0
 77
     2
148
0.0
149
0.0
100
AcDbLayout
  1
Model
 70
     1
 71
     0
 10
-0.005
 20
-0.005
 11
2.8225
 21
2.7675
 12
0.0
 22
0.0
 32
0.0
 14
-0.005
 24
-0.005
 34
0.0
 15
2.8225
 25
2.7675
 35
0.0
146
0.0
 13
0.0
 23
0.0
 33
0.0
 16
1.0
 26
0.0
 36
0.0
 17
0.0
 27
1.0
 37
0.0
 76
     0
330
11
  0
LAYOUT
  5
1B
102
{ACAD_REACTORS
330
19
102
}
330
19
100
AcDbPlotSettings
  1

  2
none_device
  4

 40
0.0
 41
0.0
 42
0.0
 43
0.0
 44
0.0
 45
0.0
 46
0.0
 47
0.0
 48
0.0
 49
0.0
140
0.0
141
0.0
141
1.0
143
1.0
 72
     1
 73
     0
 74
     5
  7

 75
    16
147
1.0
 76
     0
 77
     2
148
0.0
149
0.0
100
AcDbLayout
  1
Layout1
 70
     1
 71
     1
 10
100000000000000000000.0
 20
100000000000000000000.0
 11
-100000000000000000000.0
 21
-100000000000000000000.0
 12
0.0
 22
0.0
 32
0.0
 14
100000000000000000000.0
 24
100000000000000000000.0
 34
0.0
 15
-100000000000000000000.0
 25
-100000000000000000000.0
 35
0.0
146
0.0
 13
0.0
 23
0.0
 33
0.0
 16
1.0
 26
0.0
 36
0.0
 17
0.0
 27
1.0
 37
0.0
 76
     0
330
12
  0
DICTIONARY
  5
1C
102
{ACAD_REACTORS
330
17
102
}
330
17
100
AcDbDictionary
280
     1
281
     0
  0
ENDSEC
  0
EOF
