  0
SECTION
  2
HEADER
  9
$ACADVER
  1
AC1018
  9
$INSBASE
 10
0.0
 20
0.0
 30
0.0
  9
$EXTMIN
 10
-0.2595
 20
-2.471
 30
0.0
  9
$EXTMAX
 10
8.68
 20
4.0665
 30
0.0
  9
$LIMMIN
 10
-0.2595
 20
-2.471
  9
$LIMMAX
 10
8.68
 20
4.0665
  9
$INSUNITS
 70
     4
  9
$HANDSEED
  5
   849
  0
ENDSEC
  0
SECTION
  2
CLASSES
  0
ENDSEC
  0
SECTION
  2
TABLES
  0
TABLE
  2
VPORT
  5
1
330
0
100
AcDbSymbolTable
 70
     0
  0
ENDTAB
  0
TABLE
  2
LTYPE
  5
2
330
0
100
AcDbSymbolTable
 70
     3
  0
LTYPE
  5
3
330
2
100
AcDbSymbolTableRecord
100
AcDbLinetypeTableRecord
  2
BYLAYER
 70
     0
  3
Continuous
 72
    65
 73
     0
 40
0.0
  0
LTYPE
  5
4
330
2
100
AcDbSymbolTableRecord
100
AcDbLinetypeTableRecord
  2
BYBLOCK
 70
     0
  3
Continuous
 72
    65
 73
     0
 40
0.0
  0
LTYPE
  5
5
330
2
100
AcDbSymbolTableRecord
100
AcDbLinetypeTableRecord
  2
CONTINUOUS
 70
     0
  3
Continuous
 72
    65
 73
     0
 40
0.0
  0
ENDTAB
  0
TABLE
  2
LAYER
  5
6
330
0
100
AcDbSymbolTable
 70
     3
  0
LAYER
  5
7
330
6
100
AcDbSymbolTableRecord
100
AcDbLayerTableRecord
  2
0
 70
     0
 62
     7
  6
CONTINUOUS
370
     0
390
     0
  0
LAYER
  5
8
330
6
100
AcDbSymbolTableRecord
100
AcDbLayerTableRecord
  2
SPL_200MHZ_A1_DRD
 70
     0
 62
    16
  6
CONTINUOUS
370
     0
390
     0
  0
LAYER
  5
9
330
6
100
AcDbSymbolTableRecord
100
AcDbLayerTableRecord
  2
SPL_200MHZ_A1_SMT
 70
     0
 62
    90
  6
CONTINUOUS
370
     0
390
     0
  0
ENDTAB
  0
TABLE
  2
STYLE
  5
A
330
0
100
AcDbSymbolTable
 70
     1
  0
STYLE
  5
B
330
A
100
AcDbSymbolTableRecord
100
AcDbTextStyleTableRecord
  2
SIMPLE
 70
     0
 40
0.0
 41
1.0
 50
0.0
 71
     0
 42
0.2
  3
Simple
  4

  0
ENDTAB
  0
TABLE
  2
VIEW
  5
C
330
0
100
AcDbSymbolTable
 70
     0
  0
ENDTAB
  0
TABLE
  2
UCS
  5
D
330
0
100
AcDbSymbolTable
 70
     0
  0
ENDTAB
  0
TABLE
  2
APPID
  5
E
330
0
100
AcDbSymbolTable
 70
     1
  0
APPID
  5
F
330
E
100
AcDbSymbolTableRecord
100
AcDbRegAppTableRecord
  2
ACAD
 70
     0
  0
ENDTAB
  0
TABLE
  2
DIMSTYLE
  5
10
330
0
100
AcDbSymbolTable
 70
     0
100
AcDbDimStyleTable
 71
     0
  0
ENDTAB
  0
TABLE
  2
BLOCK_RECORD
  5
11
330
0
100
AcDbSymbolTable
 70
     6
  0
BLOCK_RECORD
  5
12
330
11
100
AcDbSymbolTableRecord
100
AcDbBlockTableRecord
  2
*Model_Space
340
1B
  0
BLOCK_RECORD
  5
13
330
11
100
AcDbSymbolTableRecord
100
AcDbBlockTableRecord
  2
*Paper_Space
340
1C
  0
BLOCK_RECORD
  5
14
330
11
100
AcDbSymbolTableRecord
100
AcDbBlockTableRecord
  2
ROUND_1
340
0
  0
BLOCK_RECORD
  5
15
330
11
100
AcDbSymbolTableRecord
100
AcDbBlockTableRecord
  2
ROUND_19
340
0
  0
BLOCK_RECORD
  5
16
330
11
100
AcDbSymbolTableRecord
100
AcDbBlockTableRecord
  2
ROUND_29
340
0
  0
BLOCK_RECORD
  5
17
330
11
100
AcDbSymbolTableRecord
100
AcDbBlockTableRecord
  2
ROUND_47
340
0
  0
ENDTAB
  0
ENDSEC
  0
SECTION
  2
BLOCKS
  0
BLOCK
  5
1E
330
12
100
AcDbEntity
  8
0
100
AcDbBlockBegin
  2
*Model_Space
 70
     0
 10
0.0
 20
0.0
 30
0.0
  3
*Model_Space
  1

  0
ENDBLK
  5
1F
330
12
100
AcDbEntity
  8
0
100
AcDbBlockEnd
  0
BLOCK
  5
20
330
13
100
AcDbEntity
  8
0
100
AcDbBlockBegin
  2
*Paper_Space
 70
     0
 10
0.0
 20
0.0
 30
0.0
  3
*Paper_Space
  1

  0
ENDBLK
  5
21
330
13
100
AcDbEntity
  8
0
100
AcDbBlockEnd
  0
BLOCK
  5
22
330
14
100
AcDbEntity
  8
0
100
AcDbBlockBegin
  2
ROUND_1
 70
     0
 10
0.0
 20
0.0
 30
0.0
  3
ROUND_1
  1

  0
HATCH
  5
24
330
14
100
AcDbEntity
  8
0
100
AcDbHatch
 10
0.0
 20
0.0
 30
0.0
210
0.0
220
0.0
230
1.0
  2
SOLID
 70
     1
 71
     0
 91
     1
 92
     0
 93
     1
 72
     2
 10
0.0
 20
0.0
 40
0.011
 50
0.0
 51
360.0
 73
     1
 97
     0
 75
     0
 76
     1
 98
     1
 10
0.0
 20
0.0
  0
ENDBLK
  5
23
330
14
100
AcDbEntity
  8
0
100
AcDbBlockEnd
  0
BLOCK
  5
25
330
15
100
AcDbEntity
  8
0
100
AcDbBlockBegin
  2
ROUND_19
 70
     0
 10
0.0
 20
0.0
 30
0.0
  3
ROUND_19
  1

  0
HATCH
  5
27
330
15
100
AcDbEntity
  8
0
100
AcDbHatch
 10
0.0
 20
0.0
 30
0.0
210
0.0
220
0.0
230
1.0
  2
SOLID
 70
     1
 71
     0
 91
     1
 92
     0
 93
     1
 72
     2
 10
0.0
 20
0.0
 40
0.005
 50
0.0
 51
360.0
 73
     1
 97
     0
 75
     0
 76
     1
 98
     1
 10
0.0
 20
0.0
  0
ENDBLK
  5
26
330
15
100
AcDbEntity
  8
0
100
AcDbBlockEnd
  0
BLOCK
  5
28
330
16
100
AcDbEntity
  8
0
100
AcDbBlockBegin
  2
ROUND_29
 70
     0
 10
0.0
 20
0.0
 30
0.0
  3
ROUND_29
  1

  0
HATCH
  5
2A
330
16
100
AcDbEntity
  8
0
100
AcDbHatch
 10
0.0
 20
0.0
 30
0.0
210
0.0
220
0.0
230
1.0
  2
SOLID
 70
     1
 71
     0
 91
     1
 92
     0
 93
     1
 72
     2
 10
0.0
 20
0.0
 40
0.003
 50
0.0
 51
360.0
 73
     1
 97
     0
 75
     0
 76
     1
 98
     1
 10
0.0
 20
0.0
  0
ENDBLK
  5
29
330
16
100
AcDbEntity
  8
0
100
AcDbBlockEnd
  0
BLOCK
  5
2B
330
17
100
AcDbEntity
  8
0
100
AcDbBlockBegin
  2
ROUND_47
 70
     0
 10
0.0
 20
0.0
 30
0.0
  3
ROUND_47
  1

  0
HATCH
  5
2D
330
17
100
AcDbEntity
  8
0
100
AcDbHatch
 10
0.0
 20
0.0
 30
0.0
210
0.0
220
0.0
230
1.0
  2
SOLID
 70
     1
 71
     0
 91
     1
 92
     0
 93
     1
 72
     2
 10
0.0
 20
0.0
 40
0.0125
 50
0.0
 51
360.0
 73
     1
 97
     0
 75
     0
 76
     1
 98
     1
 10
0.0
 20
0.0
  0
ENDBLK
  5
2C
330
17
100
AcDbEntity
  8
0
100
AcDbBlockEnd
  0
ENDSEC
  0
SECTION
  2
ENTITIES
  0
LWPOLYLINE
  5
2E
330
12
100
AcDbEntity
  8
SPL_200MHZ_A1_DRD
  6
BYLAYER
370
   211
 62
   256
100
AcDbPolyline
 90
     7
 70
     0
 43
0.01
 10
2.3111
 20
-2.3777
 10
2.3195
 20
-2.3943
 10
2.3695
 20
-2.3943
 10
2.3778
 20
-2.3777
 10
2.3778
 20
-2.3443
 10
2.3611
 20
-2.3277
 10
2.3112
 20
-2.3277
  0
LWPOLYLINE
  5
2F
330
12
100
AcDbEntity
  8
SPL_200MHZ_A1_DRD
  6
BYLAYER
370
   211
 62
   256
100
AcDbPolyline
 90
     2
 70
     0
 43
0.01
 10
2.3111
 20
-2.3277
 10
2.3112
 20
-2.2943
  0
LWPOLYLINE
  5
30
330
12
100
AcDbEntity
  8
SPL_200MHZ_A1_DRD
  6
BYLAYER
370
   211
 62
   256
100
AcDbPolyline
 90
     2
 70
     0
 43
0.01
 10
2.3111
 20
-2.2943
 10
2.3778
 20
-2.2943
  0
LWPOLYLINE
  5
31
330
12
100
AcDbEntity
  8
SPL_200MHZ_A1_DRD
  6
BYLAYER
370
   211
 62
   256
100
AcDbPolyline
 90
     7
 70
     0
 43
0.01
 10
2.2245
 20
-2.3443
 10
2.2745
 20
-2.3443
 10
2.2828
 20
-2.361
 10
2.2828
 20
-2.3777
 10
2.2745
 20
-2.3943
 10
2.2245
 20
-2.3943
 10
2.2162
 20
-2.3777
  0
LWPOLYLINE
  5
32
330
12
100
AcDbEntity
  8
SPL_200MHZ_A1_DRD
  6
BYLAYER
370
   211
 62
   256
100
AcDbPolyline
 90
     2
 70
     0
 43
0.01
 10
2.2161
 20
-2.3777
 10
2.2162
 20
-2.361
  0
LWPOLYLINE
  5
33
330
12
100
AcDbEntity
  8
SPL_200MHZ_A1_DRD
  6
BYLAYER
370
   211
 62
   256
100
AcDbPolyline
 90
     2
 70
     0
 43
0.01
 10
2.2161
 20
-2.361
 10
2.2495
 20
-2.2943
  0
LWPOLYLINE
  5
34
330
12
100
AcDbEntity
  8
SPL_200MHZ_A1_DRD
  6
BYLAYER
370
   211
 62
   256
100
AcDbPolyline
 90
     2
 70
     0
 43
0.01
 10
2.1878
 20
-2.3943
 10
2.1212
 20
-2.3943
  0
LWPOLYLINE
  5
35
330
12
100
AcDbEntity
  8
SPL_200MHZ_A1_DRD
  6
BYLAYER
370
   211
 62
   256
100
AcDbPolyline
 90
     6
 70
     0
 43
0.01
 10
2.1211
 20
-2.3943
 10
2.1878
 20
-2.3277
 10
2.1878
 20
-2.311
 10
2.1795
 20
-2.2943
 10
2.1295
 20
-2.2943
 10
2.1212
 20
-2.311
  0
LWPOLYLINE
  5
36
330
12
100
AcDbEntity
  8
SPL_200MHZ_A1_DRD
  6
BYLAYER
370
   211
 62
   256
100
AcDbPolyline
 90
     3
 70
     0
 43
0.01
 10
1.1382
 20
-2.3943
 10
1.0799
 20
-2.3943
 10
1.0799
 20
-2.2943
  0
LWPOLYLINE
  5
37
330
12
100
AcDbEntity
  8
SPL_200MHZ_A1_DRD
  6
BYLAYER
370
   211
 62
   256
100
AcDbPolyline
 90
     2
 70
     0
 43
0.01
 10
1.0516
 20
-2.361
 10
0.9849
 20
-2.361
  0
LWPOLYLINE
  5
38
330
12
100
AcDbEntity
  8
SPL_200MHZ_A1_DRD
  6
BYLAYER
370
   211
 62
   256
100
AcDbPolyline
 90
     6
 70
     0
 43
0.01
 10
1.0516
 20
-2.3943
 10
1.0516
 20
-2.3443
 10
1.0266
 20
-2.2943
 10
1.0099
 20
-2.2943
 10
0.9849
 20
-2.3443
 10
0.9849
 20
-2.3943
  0
LWPOLYLINE
  5
39
330
12
100
AcDbEntity
  8
SPL_200MHZ_A1_DRD
  6
BYLAYER
370
   211
 62
   256
100
AcDbPolyline
 90
     2
 70
     0
 43
0.01
 10
0.9232
 20
-2.3943
 10
0.9232
 20
-2.2943
  0
LWPOLYLINE
  5
3A
330
12
100
AcDbEntity
  8
SPL_200MHZ_A1_DRD
  6
BYLAYER
370
   211
 62
   256
100
AcDbPolyline
 90
     2
 70
     0
 43
0.01
 10
0.9566
 20
-2.2943
 10
0.8899
 20
-2.2943
  0
LWPOLYLINE
  5
3B
330
12
100
AcDbEntity
  8
SPL_200MHZ_A1_DRD
  6
BYLAYER
370
   211
 62
   256
100
AcDbPolyline
 90
     9
 70
     0
 43
0.01
 10
0.8032
 20
-2.3943
 10
0.7949
 20
-2.3777
 10
0.7949
 20
-2.311
 10
0.8032
 20
-2.2943
 10
0.8532
 20
-2.2943
 10
0.8616
 20
-2.311
 10
0.8616
 20
-2.3777
 10
0.8532
 20
-2.3943
 10
0.8032
 20
-2.3943
  0
LWPOLYLINE
  5
3C
330
12
100
AcDbEntity
  8
SPL_200MHZ_A1_DRD
  6
BYLAYER
370
   211
 62
   256
100
AcDbPolyline
 90
     2
 70
     0
 43
0.01
 10
0.7332
 20
-2.3943
 10
0.7332
 20
-2.2943
  0
LWPOLYLINE
  5
3D
330
12
100
AcDbEntity
  8
SPL_200MHZ_A1_DRD
  6
BYLAYER
370
   211
 62
   256
100
AcDbPolyline
 90
     2
 70
     0
 43
0.01
 10
0.7666
 20
-2.2943
 10
0.6999
 20
-2.2943
  0
LWPOLYLINE
  5
3E
330
12
100
AcDbEntity
  8
SPL_200MHZ_A1_DRD
  6
BYLAYER
370
   211
 62
   256
100
AcDbPolyline
 90
     3
 70
     0
 43
0.01
 10
2.3445
 20
-2.2082
 10
2.3778
 20
-2.1416
 10
2.3334
 20
-2.1416
  0
LWPOLYLINE
  5
3F
330
12
100
AcDbEntity
  8
SPL_200MHZ_A1_DRD
  6
BYLAYER
370
   211
 62
   256
100
AcDbPolyline
 90
    13
 70
     0
 43
0.01
 10
0.9884
 20
-2.2082
 10
0.9773
 20
-2.1971
 10
0.9717
 20
-2.186
 10
0.9717
 20
-2.1638
 10
0.9773
 20
-2.1527
 10
0.9884
 20
-2.1416
 10
0.9995
 20
-2.1416
 10
1.0106
 20
-2.1527
 10
1.0162
 20
-2.1638
 10
1.0162
 20
-2.186
 10
1.0106
 20
-2.1971
 10
0.9995
 20
-2.2082
 10
0.9884
 20
-2.2082
  0
LWPOLYLINE
  5
40
330
12
100
AcDbEntity
  8
SPL_200MHZ_A1_DRD
  6
BYLAYER
370
   211
 62
   256
100
AcDbPolyline
 90
     3
 70
     0
 43
0.01
 10
0.9128
 20
-2.2082
 10
0.9462
 20
-2.1416
 10
0.9017
 20
-2.1416
  0
LWPOLYLINE
  5
41
330
12
100
AcDbEntity
  8
SPL_200MHZ_A1_DRD
  6
BYLAYER
370
   211
 62
   256
100
AcDbPolyline
 90
     7
 70
     0
 43
0.01
 10
0.8762
 20
-2.2082
 10
0.8317
 20
-2.2082
 10
0.8762
 20
-2.1638
 10
0.8762
 20
-2.1527
 10
0.8706
 20
-2.1416
 10
0.8373
 20
-2.1416
 10
0.8317
 20
-2.1527
  0
LWPOLYLINE
  5
42
330
12
100
AcDbEntity
  8
SPL_200MHZ_A1_DRD
  6
BYLAYER
370
   211
 62
   256
100
AcDbPolyline
 90
     4
 70
     0
 43
0.01
 10
0.795
 20
-2.2082
 10
0.8062
 20
-2.2082
 10
0.8062
 20
-2.1971
 10
0.7951
 20
-2.1971
  0
LWPOLYLINE
  5
43
330
12
100
AcDbEntity
  8
SPL_200MHZ_A1_DRD
  6
BYLAYER
370
   211
 62
   256
100
AcDbPolyline
 90
     2
 70
     0
 43
0.01
 10
0.795
 20
-2.1971
 10
0.7951
 20
-2.2082
  0
LWPOLYLINE
  5
44
330
12
100
AcDbEntity
  8
SPL_200MHZ_A1_DRD
  6
BYLAYER
370
   211
 62
   256
100
AcDbPolyline
 90
    13
 70
     0
 43
0.01
 10
0.7306
 20
-2.2082
 10
0.7195
 20
-2.1971
 10
0.7139
 20
-2.186
 10
0.7139
 20
-2.1638
 10
0.7195
 20
-2.1527
 10
0.7306
 20
-2.1416
 10
0.7417
 20
-2.1416
 10
0.7528
 20
-2.1527
 10
0.7584
 20
-2.1638
 10
0.7584
 20
-2.186
 10
0.7528
 20
-2.1971
 10
0.7417
 20
-2.2082
 10
0.7306
 20
-2.2082
  0
LWPOLYLINE
  5
45
330
12
100
AcDbEntity
  8
SPL_200MHZ_A1_DRD
  6
BYLAYER
370
   211
 62
   256
100
AcDbPolyline
 90
     7
 70
     0
 43
0.01
 10
2.35
 20
-2.0582
 10
2.3389
 20
-2.0471
 10
2.3334
 20
-2.036
 10
2.3334
 20
-2.0138
 10
2.3389
 20
-2.0027
 10
2.35
 20
-1.9916
 10
2.3612
 20
-1.9916
  0
LWPOLYLINE
  5
46
330
12
100
AcDbEntity
  8
SPL_200MHZ_A1_DRD
  6
BYLAYER
370
   211
 62
   256
100
AcDbPolyline
 90
     6
 70
     0
 43
0.01
 10
2.3611
 20
-1.9916
 10
2.3723
 20
-2.0027
 10
2.3778
 20
-2.0138
 10
2.3778
 20
-2.036
 10
2.3723
 20
-2.0471
 10
2.3612
 20
-2.0582
  0
LWPOLYLINE
  5
47
330
12
100
AcDbEntity
  8
SPL_200MHZ_A1_DRD
  6
BYLAYER
370
   211
 62
   256
100
AcDbPolyline
 90
     2
 70
     0
 43
0.01
 10
2.3611
 20
-2.0582
 10
2.35
 20
-2.0582
  0
LWPOLYLINE
  5
48
330
12
100
AcDbEntity
  8
SPL_200MHZ_A1_DRD
  6
BYLAYER
370
   211
 62
   256
100
AcDbPolyline
 90
     7
 70
     0
 43
0.01
 10
2.3078
 20
-2.0582
 10
2.2634
 20
-2.0582
 10
2.3078
 20
-2.0138
 10
2.3078
 20
-2.0027
 10
2.3023
 20
-1.9916
 10
2.2689
 20
-1.9916
 10
2.2634
 20
-2.0027
  0
LWPOLYLINE
  5
49
330
12
100
AcDbEntity
  8
SPL_200MHZ_A1_DRD
  6
BYLAYER
370
   211
 62
   256
100
AcDbPolyline
 90
    13
 70
     0
 43
0.01
 10
0.9884
 20
-2.0582
 10
0.9773
 20
-2.0471
 10
0.9717
 20
-2.036
 10
0.9717
 20
-2.0138
 10
0.9773
 20
-2.0027
 10
0.9884
 20
-1.9916
 10
0.9995
 20
-1.9916
 10
1.0106
 20
-2.0027
 10
1.0162
 20
-2.0138
 10
1.0162
 20
-2.036
 10
1.0106
 20
-2.0471
 10
0.9995
 20
-2.0582
 10
0.9884
 20
-2.0582
  0
LWPOLYLINE
  5
4A
330
12
100
AcDbEntity
  8
SPL_200MHZ_A1_DRD
  6
BYLAYER
370
   211
 62
   256
100
AcDbPolyline
 90
     7
 70
     0
 43
0.01
 10
0.9462
 20
-2.0582
 10
0.9017
 20
-2.0582
 10
0.9462
 20
-2.0138
 10
0.9462
 20
-2.0027
 10
0.9406
 20
-1.9916
 10
0.9073
 20
-1.9916
 10
0.9017
 20
-2.0027
  0
LWPOLYLINE
  5
4B
330
12
100
AcDbEntity
  8
SPL_200MHZ_A1_DRD
  6
BYLAYER
370
   211
 62
   256
100
AcDbPolyline
 90
     2
 70
     0
 43
0.01
 10
0.8762
 20
-2.0582
 10
0.8539
 20
-2.0582
  0
LWPOLYLINE
  5
4C
330
12
100
AcDbEntity
  8
SPL_200MHZ_A1_DRD
  6
BYLAYER
370
   211
 62
   256
100
AcDbPolyline
 90
     3
 70
     0
 43
0.01
 10
0.865
 20
-2.0582
 10
0.865
 20
-1.9916
 10
0.8539
 20
-2.0027
  0
LWPOLYLINE
  5
4D
330
12
100
AcDbEntity
  8
SPL_200MHZ_A1_DRD
  6
BYLAYER
370
   211
 62
   256
100
AcDbPolyline
 90
     5
 70
     0
 43
0.01
 10
0.8062
 20
-2.0582
 10
0.8173
 20
-2.0582
 10
0.8173
 20
-2.0471
 10
0.8062
 20
-2.0471
 10
0.8062
 20
-2.0582
  0
LWPOLYLINE
  5
4E
330
12
100
AcDbEntity
  8
SPL_200MHZ_A1_DRD
  6
BYLAYER
370
   211
 62
   256
100
AcDbPolyline
 90
    13
 70
     0
 43
0.01
 10
0.7417
 20
-2.0582
 10
0.7306
 20
-2.0471
 10
0.7251
 20
-2.036
 10
0.7251
 20
-2.0138
 10
0.7306
 20
-2.0027
 10
0.7417
 20
-1.9916
 10
0.7528
 20
-1.9916
 10
0.7639
 20
-2.0027
 10
0.7695
 20
-2.0138
 10
0.7695
 20
-2.036
 10
0.7639
 20
-2.0471
 10
0.7528
 20
-2.0582
 10
0.7417
 20
-2.0582
  0
LWPOLYLINE
  5
4F
330
12
100
AcDbEntity
  8
SPL_200MHZ_A1_DRD
  6
BYLAYER
370
   211
 62
   256
100
AcDbPolyline
 90
     2
 70
     0
 43
0.01
 10
3.2182
 20
-1.6943
 10
3.1682
 20
-1.6943
  0
LWPOLYLINE
  5
50
330
12
100
AcDbEntity
  8
SPL_200MHZ_A1_DRD
  6
BYLAYER
370
   211
 62
   256
100
AcDbPolyline
 90
     4
 70
     0
 43
0.01
 10
3.2349
 20
-1.7443
 10
3.1682
 20
-1.7443
 10
3.1682
 20
-1.6443
 10
3.2349
 20
-1.6443
  0
LWPOLYLINE
  5
51
330
12
100
AcDbEntity
  8
SPL_200MHZ_A1_DRD
  6
BYLAYER
370
   211
 62
   256
100
AcDbPolyline
 90
     2
 70
     0
 43
0.01
 10
3.1066
 20
-1.7443
 10
3.1066
 20
-1.6443
  0
LWPOLYLINE
  5
52
330
12
100
AcDbEntity
  8
SPL_200MHZ_A1_DRD
  6
BYLAYER
370
   211
 62
   256
100
AcDbPolyline
 90
     2
 70
     0
 43
0.01
 10
3.1399
 20
-1.6443
 10
3.0732
 20
-1.6443
  0
LWPOLYLINE
  5
53
330
12
100
AcDbEntity
  8
SPL_200MHZ_A1_DRD
  6
BYLAYER
370
   211
 62
   256
100
AcDbPolyline
 90
     4
 70
     0
 43
0.01
 10
2.9865
 20
-1.7443
 10
2.9782
 20
-1.7277
 10
2.9782
 20
-1.661
 10
2.9866
 20
-1.6443
  0
LWPOLYLINE
  5
54
330
12
100
AcDbEntity
  8
SPL_200MHZ_A1_DRD
  6
BYLAYER
370
   211
 62
   256
100
AcDbPolyline
 90
     2
 70
     0
 43
0.01
 10
2.9865
 20
-1.6443
 10
3.0366
 20
-1.6443
  0
LWPOLYLINE
  5
55
330
12
100
AcDbEntity
  8
SPL_200MHZ_A1_DRD
  6
BYLAYER
370
   211
 62
   256
100
AcDbPolyline
 90
     4
 70
     0
 43
0.01
 10
3.0365
 20
-1.6443
 10
3.0449
 20
-1.661
 10
3.0449
 20
-1.7277
 10
3.0366
 20
-1.7443
  0
LWPOLYLINE
  5
56
330
12
100
AcDbEntity
  8
SPL_200MHZ_A1_DRD
  6
BYLAYER
370
   211
 62
   256
100
AcDbPolyline
 90
     2
 70
     0
 43
0.01
 10
3.0365
 20
-1.7443
 10
2.9866
 20
-1.7443
  0
LWPOLYLINE
  5
57
330
12
100
AcDbEntity
  8
SPL_200MHZ_A1_DRD
  6
BYLAYER
370
   211
 62
   256
100
AcDbPolyline
 90
     6
 70
     0
 43
0.01
 10
2.9499
 20
-1.6443
 10
2.9499
 20
-1.7443
 10
2.9332
 20
-1.7277
 10
2.8999
 20
-1.661
 10
2.8832
 20
-1.6443
 10
2.8832
 20
-1.7443
  0
LWPOLYLINE
  5
58
330
12
100
AcDbEntity
  8
SPL_200MHZ_A1_DRD
  6
BYLAYER
370
   211
 62
   256
100
AcDbPolyline
 90
     2
 70
     0
 43
0.01
 10
2.2995
 20
-1.7443
 10
2.2995
 20
-1.6943
  0
LWPOLYLINE
  5
59
330
12
100
AcDbEntity
  8
SPL_200MHZ_A1_DRD
  6
BYLAYER
370
   211
 62
   256
100
AcDbPolyline
 90
     3
 70
     0
 43
0.01
 10
2.3328
 20
-1.6443
 10
2.3078
 20
-1.6943
 10
2.2912
 20
-1.6943
  0
LWPOLYLINE
  5
5A
330
12
100
AcDbEntity
  8
SPL_200MHZ_A1_DRD
  6
BYLAYER
370
   211
 62
   256
100
AcDbPolyline
 90
     2
 70
     0
 43
0.01
 10
2.2911
 20
-1.6943
 10
2.2662
 20
-1.6443
  0
LWPOLYLINE
  5
5B
330
12
100
AcDbEntity
  8
SPL_200MHZ_A1_DRD
  6
BYLAYER
370
   211
 62
   256
100
AcDbPolyline
 90
     2
 70
     0
 43
0.01
 10
2.2045
 20
-1.7443
 10
2.2045
 20
-1.6443
  0
LWPOLYLINE
  5
5C
330
12
100
AcDbEntity
  8
SPL_200MHZ_A1_DRD
  6
BYLAYER
370
   211
 62
   256
100
AcDbPolyline
 90
     2
 70
     0
 43
0.01
 10
2.2378
 20
-1.6443
 10
2.1712
 20
-1.6443
  0
LWPOLYLINE
  5
5D
330
12
100
AcDbEntity
  8
SPL_200MHZ_A1_DRD
  6
BYLAYER
370
   211
 62
   256
100
AcDbPolyline
 90
     2
 70
     0
 43
0.01
 10
2.1095
 20
-1.711
 10
2.1428
 20
-1.7443
  0
LWPOLYLINE
  5
5E
330
12
100
AcDbEntity
  8
SPL_200MHZ_A1_DRD
  6
BYLAYER
370
   211
 62
   256
100
AcDbPolyline
 90
     9
 70
     0
 43
0.01
 10
2.0761
 20
-1.7277
 10
2.0845
 20
-1.7443
 10
2.1178
 20
-1.7443
 10
2.1261
 20
-1.7277
 10
2.1428
 20
-1.711
 10
2.1428
 20
-1.661
 10
2.1345
 20
-1.6443
 10
2.0845
 20
-1.6443
 10
2.0762
 20
-1.661
  0
LWPOLYLINE
  5
5F
330
12
100
AcDbEntity
  8
SPL_200MHZ_A1_DRD
  6
BYLAYER
370
   211
 62
   256
100
AcDbPolyline
 90
     2
 70
     0
 43
0.01
 10
2.0761
 20
-1.661
 10
2.0762
 20
-1.7277
  0
LWPOLYLINE
  5
60
330
12
100
AcDbEntity
  8
SPL_200MHZ_A1_DRD
  6
BYLAYER
370
   211
 62
   256
100
AcDbPolyline
 90
     3
 70
     0
 43
0.01
 10
1.6478
 20
-1.7443
 10
1.5895
 20
-1.7443
 10
1.5895
 20
-1.6443
  0
LWPOLYLINE
  5
61
330
12
100
AcDbEntity
  8
SPL_200MHZ_A1_DRD
  6
BYLAYER
370
   211
 62
   256
100
AcDbPolyline
 90
     9
 70
     0
 43
0.01
 10
1.5028
 20
-1.7443
 10
1.4945
 20
-1.7277
 10
1.4945
 20
-1.661
 10
1.5028
 20
-1.6443
 10
1.5528
 20
-1.6443
 10
1.5612
 20
-1.661
 10
1.5612
 20
-1.7277
 10
1.5528
 20
-1.7443
 10
1.5028
 20
-1.7443
  0
LWPOLYLINE
  5
62
330
12
100
AcDbEntity
  8
SPL_200MHZ_A1_DRD
  6
BYLAYER
370
   211
 62
   256
100
AcDbPolyline
 90
     2
 70
     0
 43
0.01
 10
1.4328
 20
-1.7443
 10
1.4328
 20
-1.6443
  0
LWPOLYLINE
  5
63
330
12
100
AcDbEntity
  8
SPL_200MHZ_A1_DRD
  6
BYLAYER
370
   211
 62
   256
100
AcDbPolyline
 90
     2
 70
     0
 43
0.01
 10
1.4662
 20
-1.6443
 10
1.3995
 20
-1.6443
  0
LWPOLYLINE
  5
64
330
12
100
AcDbEntity
  8
SPL_200MHZ_A1_DRD
  6
BYLAYER
370
   211
 62
   256
100
AcDbPolyline
 90
     6
 70
     0
 43
0.01
 10
0.8657
 20
-1.7443
 10
0.8657
 20
-1.6443
 10
0.849
 20
-1.661
 10
0.8324
 20
-1.6943
 10
0.8157
 20
-1.661
 10
0.7991
 20
-1.6443
  0
LWPOLYLINE
  5
65
330
12
100
AcDbEntity
  8
SPL_200MHZ_A1_DRD
  6
BYLAYER
370
   211
 62
   256
100
AcDbPolyline
 90
     2
 70
     0
 43
0.01
 10
0.799
 20
-1.6443
 10
0.7991
 20
-1.7443
  0
LWPOLYLINE
  5
66
330
12
100
AcDbEntity
  8
SPL_200MHZ_A1_DRD
  6
BYLAYER
370
   211
 62
   256
100
AcDbPolyline
 90
     2
 70
     0
 43
0.01
 10
0.7707
 20
-1.711
 10
0.7041
 20
-1.711
  0
LWPOLYLINE
  5
67
330
12
100
AcDbEntity
  8
SPL_200MHZ_A1_DRD
  6
BYLAYER
370
   211
 62
   256
100
AcDbPolyline
 90
     4
 70
     0
 43
0.01
 10
0.7707
 20
-1.7443
 10
0.7707
 20
-1.6943
 10
0.7457
 20
-1.6443
 10
0.7291
 20
-1.6443
  0
LWPOLYLINE
  5
68
330
12
100
AcDbEntity
  8
SPL_200MHZ_A1_DRD
  6
BYLAYER
370
   211
 62
   256
100
AcDbPolyline
 90
     2
 70
     0
 43
0.01
 10
0.729
 20
-1.6443
 10
0.7041
 20
-1.6943
  0
LWPOLYLINE
  5
69
330
12
100
AcDbEntity
  8
SPL_200MHZ_A1_DRD
  6
BYLAYER
370
   211
 62
   256
100
AcDbPolyline
 90
     2
 70
     0
 43
0.01
 10
0.704
 20
-1.6943
 10
0.7041
 20
-1.7443
  0
LWPOLYLINE
  5
6A
330
12
100
AcDbEntity
  8
SPL_200MHZ_A1_DRD
  6
BYLAYER
370
   211
 62
   256
100
AcDbPolyline
 90
     2
 70
     0
 43
0.01
 10
0.6757
 20
-1.7443
 10
0.6424
 20
-1.7443
  0
LWPOLYLINE
  5
6B
330
12
100
AcDbEntity
  8
SPL_200MHZ_A1_DRD
  6
BYLAYER
370
   211
 62
   256
100
AcDbPolyline
 90
     2
 70
     0
 43
0.01
 10
0.6591
 20
-1.7443
 10
0.6591
 20
-1.6443
  0
LWPOLYLINE
  5
6C
330
12
100
AcDbEntity
  8
SPL_200MHZ_A1_DRD
  6
BYLAYER
370
   211
 62
   256
100
AcDbPolyline
 90
     2
 70
     0
 43
0.01
 10
0.6757
 20
-1.6443
 10
0.6424
 20
-1.6443
  0
LWPOLYLINE
  5
6D
330
12
100
AcDbEntity
  8
SPL_200MHZ_A1_DRD
  6
BYLAYER
370
   211
 62
   256
100
AcDbPolyline
 90
     2
 70
     0
 43
0.01
 10
0.5391
 20
-1.7443
 10
0.5391
 20
-1.6443
  0
LWPOLYLINE
  5
6E
330
12
100
AcDbEntity
  8
SPL_200MHZ_A1_DRD
  6
BYLAYER
370
   211
 62
   256
100
AcDbPolyline
 90
     6
 70
     0
 43
0.01
 10
0.5307
 20
-1.7443
 10
0.5807
 20
-1.7443
 10
0.5974
 20
-1.711
 10
0.5974
 20
-1.6777
 10
0.5807
 20
-1.6443
 10
0.5307
 20
-1.6443
  0
LWPOLYLINE
  5
6F
330
12
100
AcDbEntity
  8
SPL_200MHZ_A1_DRD
  6
BYLAYER
370
   211
 62
   256
100
AcDbPolyline
 90
     7
 70
     0
 43
0.01
 10
0.222
 20
-1.7443
 10
0.222
 20
-1.6443
 10
0.2053
 20
-1.661
 10
0.1887
 20
-1.6943
 10
0.172
 20
-1.661
 10
0.1553
 20
-1.6443
 10
0.1553
 20
-1.7443
  0
LWPOLYLINE
  5
70
330
12
100
AcDbEntity
  8
SPL_200MHZ_A1_DRD
  6
BYLAYER
370
   211
 62
   256
100
AcDbPolyline
 90
     2
 70
     0
 43
0.01
 10
0.0937
 20
-1.7443
 10
0.0937
 20
-1.6943
  0
LWPOLYLINE
  5
71
330
12
100
AcDbEntity
  8
SPL_200MHZ_A1_DRD
  6
BYLAYER
370
   211
 62
   256
100
AcDbPolyline
 90
     4
 70
     0
 43
0.01
 10
0.127
 20
-1.6443
 10
0.102
 20
-1.6943
 10
0.0853
 20
-1.6943
 10
0.0603
 20
-1.6443
  0
LWPOLYLINE
  5
72
330
12
100
AcDbEntity
  8
SPL_200MHZ_A1_DRD
  6
BYLAYER
370
   211
 62
   256
100
AcDbPolyline
 90
     2
 70
     0
 43
0.01
 10
0.032
 20
-1.661
 10
0.0237
 20
-1.6443
  0
LWPOLYLINE
  5
73
330
12
100
AcDbEntity
  8
SPL_200MHZ_A1_DRD
  6
BYLAYER
370
   211
 62
   256
100
AcDbPolyline
 90
     6
 70
     0
 43
0.01
 10
0.0236
 20
-1.6443
 10
-0.0263
 20
-1.6443
 10
-0.0347
 20
-1.661
 10
-0.0347
 20
-1.6777
 10
-0.0263
 20
-1.6943
 10
0.0237
 20
-1.6943
  0
LWPOLYLINE
  5
74
330
12
100
AcDbEntity
  8
SPL_200MHZ_A1_DRD
  6
BYLAYER
370
   211
 62
   256
100
AcDbPolyline
 90
     4
 70
     0
 43
0.01
 10
0.0236
 20
-1.6943
 10
0.032
 20
-1.711
 10
0.032
 20
-1.7277
 10
0.0237
 20
-1.7443
  0
LWPOLYLINE
  5
75
330
12
100
AcDbEntity
  8
SPL_200MHZ_A1_DRD
  6
BYLAYER
370
   211
 62
   256
100
AcDbPolyline
 90
     3
 70
     0
 43
0.01
 10
0.0236
 20
-1.7443
 10
-0.0263
 20
-1.7443
 10
-0.0347
 20
-1.7277
  0
LWPOLYLINE
  5
76
330
12
100
AcDbEntity
  8
SPL_200MHZ_A1_DRD
  6
BYLAYER
370
   211
 62
   256
100
AcDbPolyline
 90
     2
 70
     0
 43
0.01
 10
2.2507
 20
-1.5443
 10
2.2507
 20
-1.4443
  0
LWPOLYLINE
  5
77
330
12
100
AcDbEntity
  8
SPL_200MHZ_A1_DRD
  6
BYLAYER
370
   211
 62
   256
100
AcDbPolyline
 90
     2
 70
     0
 43
0.01
 10
2.284
 20
-1.4443
 10
2.2174
 20
-1.4443
  0
LWPOLYLINE
  5
78
330
12
100
AcDbEntity
  8
SPL_200MHZ_A1_DRD
  6
BYLAYER
370
   211
 62
   256
100
AcDbPolyline
 90
     2
 70
     0
 43
0.01
 10
2.164
 20
-1.4943
 10
2.189
 20
-1.5443
  0
LWPOLYLINE
  5
79
330
12
100
AcDbEntity
  8
SPL_200MHZ_A1_DRD
  6
BYLAYER
370
   211
 62
   256
100
AcDbPolyline
 90
     7
 70
     0
 43
0.01
 10
2.1224
 20
-1.4943
 10
2.1724
 20
-1.4943
 10
2.189
 20
-1.4777
 10
2.189
 20
-1.461
 10
2.1724
 20
-1.4443
 10
2.1224
 20
-1.4443
 10
2.1224
 20
-1.5443
  0
LWPOLYLINE
  5
7A
330
12
100
AcDbEntity
  8
SPL_200MHZ_A1_DRD
  6
BYLAYER
370
   211
 62
   256
100
AcDbPolyline
 90
     2
 70
     0
 43
0.01
 10
2.094
 20
-1.511
 10
2.0274
 20
-1.511
  0
LWPOLYLINE
  5
7B
330
12
100
AcDbEntity
  8
SPL_200MHZ_A1_DRD
  6
BYLAYER
370
   211
 62
   256
100
AcDbPolyline
 90
     6
 70
     0
 43
0.01
 10
2.094
 20
-1.5443
 10
2.094
 20
-1.4943
 10
2.069
 20
-1.4443
 10
2.0524
 20
-1.4443
 10
2.0274
 20
-1.4943
 10
2.0274
 20
-1.5443
  0
LWPOLYLINE
  5
7C
330
12
100
AcDbEntity
  8
SPL_200MHZ_A1_DRD
  6
BYLAYER
370
   211
 62
   256
100
AcDbPolyline
 90
     2
 70
     0
 43
0.01
 10
1.999
 20
-1.4943
 10
1.9324
 20
-1.4943
  0
LWPOLYLINE
  5
7D
330
12
100
AcDbEntity
  8
SPL_200MHZ_A1_DRD
  6
BYLAYER
370
   211
 62
   256
100
AcDbPolyline
 90
     2
 70
     0
 43
0.01
 10
1.999
 20
-1.5443
 10
1.999
 20
-1.4443
  0
LWPOLYLINE
  5
7E
330
12
100
AcDbEntity
  8
SPL_200MHZ_A1_DRD
  6
BYLAYER
370
   211
 62
   256
100
AcDbPolyline
 90
     2
 70
     0
 43
0.01
 10
1.9324
 20
-1.5443
 10
1.9324
 20
-1.4443
  0
LWPOLYLINE
  5
7F
330
12
100
AcDbEntity
  8
SPL_200MHZ_A1_DRD
  6
BYLAYER
370
   211
 62
   256
100
AcDbPolyline
 90
     8
 70
     0
 43
0.01
 10
1.904
 20
-1.5277
 10
1.8957
 20
-1.5443
 10
1.8457
 20
-1.5443
 10
1.8374
 20
-1.5277
 10
1.8374
 20
-1.461
 10
1.8457
 20
-1.4443
 10
1.8957
 20
-1.4443
 10
1.904
 20
-1.461
  0
LWPOLYLINE
  5
80
330
12
100
AcDbEntity
  8
SPL_200MHZ_A1_DRD
  6
BYLAYER
370
   211
 62
   256
100
AcDbPolyline
 90
     3
 70
     0
 43
0.01
 10
1.6765
 20
-1.5443
 10
1.6182
 20
-1.5443
 10
1.6182
 20
-1.4443
  0
LWPOLYLINE
  5
81
330
12
100
AcDbEntity
  8
SPL_200MHZ_A1_DRD
  6
BYLAYER
370
   211
 62
   256
100
AcDbPolyline
 90
     3
 70
     0
 43
0.01
 10
1.5899
 20
-1.5443
 10
1.5316
 20
-1.5443
 10
1.5316
 20
-1.4443
  0
LWPOLYLINE
  5
82
330
12
100
AcDbEntity
  8
SPL_200MHZ_A1_DRD
  6
BYLAYER
370
   211
 62
   256
100
AcDbPolyline
 90
     2
 70
     0
 43
0.01
 10
1.5032
 20
-1.5443
 10
1.4699
 20
-1.5443
  0
LWPOLYLINE
  5
83
330
12
100
AcDbEntity
  8
SPL_200MHZ_A1_DRD
  6
BYLAYER
370
   211
 62
   256
100
AcDbPolyline
 90
     2
 70
     0
 43
0.01
 10
1.4866
 20
-1.5443
 10
1.4866
 20
-1.4443
  0
LWPOLYLINE
  5
84
330
12
100
AcDbEntity
  8
SPL_200MHZ_A1_DRD
  6
BYLAYER
370
   211
 62
   256
100
AcDbPolyline
 90
     2
 70
     0
 43
0.01
 10
1.5032
 20
-1.4443
 10
1.4699
 20
-1.4443
  0
LWPOLYLINE
  5
85
330
12
100
AcDbEntity
  8
SPL_200MHZ_A1_DRD
  6
BYLAYER
370
   211
 62
   256
100
AcDbPolyline
 90
     2
 70
     0
 43
0.01
 10
1.3999
 20
-1.4943
 10
1.4249
 20
-1.5443
  0
LWPOLYLINE
  5
86
330
12
100
AcDbEntity
  8
SPL_200MHZ_A1_DRD
  6
BYLAYER
370
   211
 62
   256
100
AcDbPolyline
 90
     6
 70
     0
 43
0.01
 10
1.3582
 20
-1.4943
 10
1.4082
 20
-1.4943
 10
1.4249
 20
-1.4777
 10
1.4249
 20
-1.461
 10
1.4082
 20
-1.4443
 10
1.3583
 20
-1.4443
  0
LWPOLYLINE
  5
87
330
12
100
AcDbEntity
  8
SPL_200MHZ_A1_DRD
  6
BYLAYER
370
   211
 62
   256
100
AcDbPolyline
 90
     2
 70
     0
 43
0.01
 10
1.3582
 20
-1.4443
 10
1.3583
 20
-1.5443
  0
LWPOLYLINE
  5
88
330
12
100
AcDbEntity
  8
SPL_200MHZ_A1_DRD
  6
BYLAYER
370
   211
 62
   256
100
AcDbPolyline
 90
     2
 70
     0
 43
0.01
 10
1.2716
 20
-1.5443
 10
1.2716
 20
-1.4443
  0
LWPOLYLINE
  5
89
330
12
100
AcDbEntity
  8
SPL_200MHZ_A1_DRD
  6
BYLAYER
370
   211
 62
   256
100
AcDbPolyline
 90
     6
 70
     0
 43
0.01
 10
1.2632
 20
-1.5443
 10
1.3132
 20
-1.5443
 10
1.3299
 20
-1.511
 10
1.3299
 20
-1.4777
 10
1.3132
 20
-1.4443
 10
1.2633
 20
-1.4443
  0
LWPOLYLINE
  5
8A
330
12
100
AcDbEntity
  8
SPL_200MHZ_A1_DRD
  6
BYLAYER
370
   211
 62
   256
100
AcDbPolyline
 90
     3
 70
     0
 43
0.01
 10
-0.1712
 20
1.8128
 10
-0.1628
 20
1.8211
 10
-0.1545
 20
1.8252
  0
LWPOLYLINE
  5
8B
330
12
100
AcDbEntity
  8
SPL_200MHZ_A1_DRD
  6
BYLAYER
370
   211
 62
   256
100
AcDbPolyline
 90
     2
 70
     0
 43
0.01
 10
-0.1545
 20
1.8253
 10
-0.1378
 20
1.8252
  0
LWPOLYLINE
  5
8C
330
12
100
AcDbEntity
  8
SPL_200MHZ_A1_DRD
  6
BYLAYER
370
   211
 62
   256
100
AcDbPolyline
 90
     3
 70
     0
 43
0.01
 10
-0.1378
 20
1.8253
 10
-0.1295
 20
1.8211
 10
-0.1212
 20
1.8127
  0
LWPOLYLINE
  5
8D
330
12
100
AcDbEntity
  8
SPL_200MHZ_A1_DRD
  6
BYLAYER
370
   211
 62
   256
100
AcDbPolyline
 90
     8
 70
     0
 43
0.01
 10
-0.1212
 20
1.8128
 10
-0.1212
 20
1.8044
 10
-0.1295
 20
1.7961
 10
-0.1378
 20
1.7919
 10
-0.1545
 20
1.7919
 10
-0.1628
 20
1.7961
 10
-0.1712
 20
1.8044
 10
-0.1712
 20
1.8127
  0
LWPOLYLINE
  5
8E
330
12
100
AcDbEntity
  8
SPL_200MHZ_A1_DRD
  6
BYLAYER
370
   211
 62
   256
100
AcDbPolyline
 90
     3
 70
     0
 43
0.01
 10
-0.1712
 20
1.8703
 10
-0.1628
 20
1.8786
 10
-0.1545
 20
1.8827
  0
LWPOLYLINE
  5
8F
330
12
100
AcDbEntity
  8
SPL_200MHZ_A1_DRD
  6
BYLAYER
370
   211
 62
   256
100
AcDbPolyline
 90
     2
 70
     0
 43
0.01
 10
-0.1545
 20
1.8828
 10
-0.1378
 20
1.8827
  0
LWPOLYLINE
  5
90
330
12
100
AcDbEntity
  8
SPL_200MHZ_A1_DRD
  6
BYLAYER
370
   211
 62
   256
100
AcDbPolyline
 90
     3
 70
     0
 43
0.01
 10
-0.1378
 20
1.8828
 10
-0.1295
 20
1.8786
 10
-0.1212
 20
1.8702
  0
LWPOLYLINE
  5
91
330
12
100
AcDbEntity
  8
SPL_200MHZ_A1_DRD
  6
BYLAYER
370
   211
 62
   256
100
AcDbPolyline
 90
     8
 70
     0
 43
0.01
 10
-0.1212
 20
1.8703
 10
-0.1212
 20
1.8619
 10
-0.1295
 20
1.8536
 10
-0.1378
 20
1.8494
 10
-0.1545
 20
1.8494
 10
-0.1628
 20
1.8536
 10
-0.1712
 20
1.8619
 10
-0.1712
 20
1.8702
  0
LWPOLYLINE
  5
92
330
12
100
AcDbEntity
  8
SPL_200MHZ_A1_DRD
  6
BYLAYER
370
   211
 62
   256
100
AcDbPolyline
 90
     6
 70
     0
 43
0.01
 10
-0.1462
 20
1.9111
 10
-0.1378
 20
1.9069
 10
-0.1295
 20
1.9069
 10
-0.1212
 20
1.9111
 10
-0.1212
 20
1.9361
 10
-0.1295
 20
1.9402
  0
LWPOLYLINE
  5
93
330
12
100
AcDbEntity
  8
SPL_200MHZ_A1_DRD
  6
BYLAYER
370
   211
 62
   256
100
AcDbPolyline
 90
     2
 70
     0
 43
0.01
 10
-0.1295
 20
1.9403
 10
-0.1378
 20
1.9402
  0
LWPOLYLINE
  5
94
330
12
100
AcDbEntity
  8
SPL_200MHZ_A1_DRD
  6
BYLAYER
370
   211
 62
   256
100
AcDbPolyline
 90
     8
 70
     0
 43
0.01
 10
-0.1378
 20
1.9403
 10
-0.1462
 20
1.9361
 10
-0.1462
 20
1.9111
 10
-0.1545
 20
1.9069
 10
-0.1628
 20
1.9069
 10
-0.1712
 20
1.9111
 10
-0.1712
 20
1.9361
 10
-0.1628
 20
1.9402
  0
LWPOLYLINE
  5
95
330
12
100
AcDbEntity
  8
SPL_200MHZ_A1_DRD
  6
BYLAYER
370
   211
 62
   256
100
AcDbPolyline
 90
     2
 70
     0
 43
0.01
 10
-0.1628
 20
1.9403
 10
-0.1545
 20
1.9402
  0
LWPOLYLINE
  5
96
330
12
100
AcDbEntity
  8
SPL_200MHZ_A1_DRD
  6
BYLAYER
370
   211
 62
   256
100
AcDbPolyline
 90
     2
 70
     0
 43
0.01
 10
-0.1545
 20
1.9403
 10
-0.1462
 20
1.9361
  0
LWPOLYLINE
  5
97
330
12
100
AcDbEntity
  8
SPL_200MHZ_A1_DRD
  6
BYLAYER
370
   211
 62
   256
100
AcDbPolyline
 90
     8
 70
     0
 43
0.01
 10
-0.1628
 20
1.9978
 10
-0.1712
 20
1.9894
 10
-0.1712
 20
1.9728
 10
-0.1628
 20
1.9644
 10
-0.1545
 20
1.9644
 10
-0.1378
 20
1.9811
 10
-0.1212
 20
1.9644
 10
-0.1212
 20
1.9977
  0
LWPOLYLINE
  5
98
330
12
100
AcDbEntity
  8
SPL_200MHZ_A1_DRD
  6
BYLAYER
370
   211
 62
   256
100
AcDbPolyline
 90
     9
 70
     0
 43
0.01
 10
4.4112
 20
3.9281
 10
4.4154
 20
3.9198
 10
4.4404
 20
3.9198
 10
4.4446
 20
3.9281
 10
4.4446
 20
3.9448
 10
4.4362
 20
3.9532
 10
4.4112
 20
3.9532
 10
4.4112
 20
3.9698
 10
4.4446
 20
3.9698
  0
LWPOLYLINE
  5
99
330
12
100
AcDbEntity
  8
SPL_200MHZ_A1_DRD
  6
BYLAYER
370
   211
 62
   256
100
AcDbPolyline
 90
     3
 70
     0
 43
0.01
 10
4.3621
 20
3.9198
 10
4.3871
 20
3.9698
 10
4.3537
 20
3.9698
  0
LWPOLYLINE
  5
9A
330
12
100
AcDbEntity
  8
SPL_200MHZ_A1_DRD
  6
BYLAYER
370
   211
 62
   256
100
AcDbPolyline
 90
     9
 70
     0
 43
0.01
 10
4.3004
 20
3.9448
 10
4.3254
 20
3.9448
 10
4.3296
 20
3.9365
 10
4.3296
 20
3.9281
 10
4.3254
 20
3.9198
 10
4.3004
 20
3.9198
 10
4.2962
 20
3.9281
 10
4.2962
 20
3.9365
 10
4.3129
 20
3.9698
  0
LWPOLYLINE
  5
9B
330
12
100
AcDbEntity
  8
SPL_200MHZ_A1_DRD
  6
BYLAYER
370
   211
 62
   256
100
AcDbPolyline
 90
    16
 70
     0
 43
0.01
 10
4.2679
 20
3.9448
 10
4.2721
 20
3.9532
 10
4.2721
 20
3.9615
 10
4.2679
 20
3.9698
 10
4.2429
 20
3.9698
 10
4.2387
 20
3.9615
 10
4.2387
 20
3.9532
 10
4.2429
 20
3.9448
 10
4.2679
 20
3.9448
 10
4.2721
 20
3.9365
 10
4.2721
 20
3.9281
 10
4.2679
 20
3.9198
 10
4.2429
 20
3.9198
 10
4.2387
 20
3.9281
 10
4.2387
 20
3.9365
 10
4.2429
 20
3.9448
  0
LWPOLYLINE
  5
9C
330
12
100
AcDbEntity
  8
SPL_200MHZ_A1_DRD
  6
BYLAYER
370
   211
 62
   256
100
AcDbPolyline
 90
     2
 70
     0
 43
0.01
 10
1.6434
 20
1.7895
 10
1.6434
 20
1.9229
  0
LWPOLYLINE
  5
9D
330
12
100
AcDbEntity
  8
SPL_200MHZ_A1_DRD
  6
BYLAYER
370
   211
 62
   256
100
AcDbPolyline
 90
     2
 70
     0
 43
0.01
 10
1.6879
 20
1.9229
 10
1.599
 20
1.9229
  0
LWPOLYLINE
  5
9E
330
12
100
AcDbEntity
  8
SPL_200MHZ_A1_DRD
  6
BYLAYER
370
   211
 62
   256
100
AcDbPolyline
 90
     9
 70
     0
 43
0.01
 10
1.4901
 20
1.7895
 10
1.479
 20
1.8118
 10
1.479
 20
1.9007
 10
1.4901
 20
1.9229
 10
1.5568
 20
1.9229
 10
1.5679
 20
1.9007
 10
1.5679
 20
1.8118
 10
1.5568
 20
1.7895
 10
1.4901
 20
1.7895
  0
LWPOLYLINE
  5
9F
330
12
100
AcDbEntity
  8
SPL_200MHZ_A1_DRD
  6
BYLAYER
370
   211
 62
   256
100
AcDbPolyline
 90
     3
 70
     0
 43
0.01
 10
1.4479
 20
1.7895
 10
1.3701
 20
1.7895
 10
1.3701
 20
1.9229
  0
LWPOLYLINE
  5
A0
330
12
100
AcDbEntity
  8
SPL_200MHZ_A1_DRD
  6
BYLAYER
370
   211
 62
   256
100
AcDbPolyline
 90
    12
 70
     0
 43
0.01
 10
1.339
 20
1.9007
 10
1.3279
 20
1.9229
 10
1.2612
 20
1.9229
 10
1.2501
 20
1.9007
 10
1.2501
 20
1.8784
 10
1.2612
 20
1.8562
 10
1.3279
 20
1.8562
 10
1.339
 20
1.834
 10
1.339
 20
1.8118
 10
1.3279
 20
1.7895
 10
1.2612
 20
1.7895
 10
1.2501
 20
1.8118
  0
LWPOLYLINE
  5
A1
330
12
100
AcDbEntity
  8
SPL_200MHZ_A1_DRD
  6
BYLAYER
370
   211
 62
   256
100
AcDbPolyline
 90
     7
 70
     0
 43
0.01
 10
1.8008
 20
2.2049
 10
1.8008
 20
2.0715
 10
1.7341
 20
2.0715
 10
1.723
 20
2.0938
 10
1.723
 20
2.1382
 10
1.7341
 20
2.1604
 10
1.8008
 20
2.1604
  0
LWPOLYLINE
  5
A2
330
12
100
AcDbEntity
  8
SPL_200MHZ_A1_DRD
  6
BYLAYER
370
   211
 62
   256
100
AcDbPolyline
 90
     9
 70
     0
 43
0.01
 10
1.6808
 20
2.0715
 10
1.6141
 20
2.0715
 10
1.603
 20
2.0938
 10
1.603
 20
2.1382
 10
1.6141
 20
2.1604
 10
1.6808
 20
2.1604
 10
1.6919
 20
2.1382
 10
1.6919
 20
2.116
 10
1.603
 20
2.116
  0
LWPOLYLINE
  5
A3
330
12
100
AcDbEntity
  8
SPL_200MHZ_A1_DRD
  6
BYLAYER
370
   211
 62
   256
100
AcDbPolyline
 90
     2
 70
     0
 43
0.01
 10
1.5608
 20
2.1604
 10
1.4941
 20
2.1604
  0
LWPOLYLINE
  5
A4
330
12
100
AcDbEntity
  8
SPL_200MHZ_A1_DRD
  6
BYLAYER
370
   211
 62
   256
100
AcDbPolyline
 90
     4
 70
     0
 43
0.01
 10
1.5719
 20
2.0715
 10
1.5274
 20
2.0715
 10
1.5163
 20
2.0938
 10
1.5163
 20
2.2049
  0
LWPOLYLINE
  5
A5
330
12
100
AcDbEntity
  8
SPL_200MHZ_A1_DRD
  6
BYLAYER
370
   211
 62
   256
100
AcDbPolyline
 90
     2
 70
     0
 43
0.01
 10
1.4519
 20
2.1604
 10
1.4519
 20
2.0715
  0
LWPOLYLINE
  5
A6
330
12
100
AcDbEntity
  8
SPL_200MHZ_A1_DRD
  6
BYLAYER
370
   211
 62
   256
100
AcDbPolyline
 90
     4
 70
     0
 43
0.01
 10
1.463
 20
2.0715
 10
1.3852
 20
2.0715
 10
1.3741
 20
2.0938
 10
1.3741
 20
2.1604
  0
LWPOLYLINE
  5
A7
330
12
100
AcDbEntity
  8
SPL_200MHZ_A1_DRD
  6
BYLAYER
370
   211
 62
   256
100
AcDbPolyline
 90
     9
 70
     0
 43
0.01
 10
1.2652
 20
2.0715
 10
1.2541
 20
2.0938
 10
1.2541
 20
2.1382
 10
1.2652
 20
2.1604
 10
1.3319
 20
2.1604
 10
1.343
 20
2.1382
 10
1.343
 20
2.0938
 10
1.3319
 20
2.0715
 10
1.2652
 20
2.0715
  0
LWPOLYLINE
  5
A8
330
12
100
AcDbEntity
  8
SPL_200MHZ_A1_DRD
  6
BYLAYER
370
   211
 62
   256
100
AcDbPolyline
 90
     2
 70
     0
 43
0.01
 10
1.1896
 20
2.1382
 10
1.223
 20
2.0715
  0
LWPOLYLINE
  5
A9
330
12
100
AcDbEntity
  8
SPL_200MHZ_A1_DRD
  6
BYLAYER
370
   211
 62
   256
100
AcDbPolyline
 90
     7
 70
     0
 43
0.01
 10
1.1341
 20
2.1382
 10
1.2008
 20
2.1382
 10
1.223
 20
2.1604
 10
1.223
 20
2.1827
 10
1.2008
 20
2.2049
 10
1.1341
 20
2.2049
 10
1.1341
 20
2.0715
  0
LWPOLYLINE
  5
AA
330
12
100
AcDbEntity
  8
SPL_200MHZ_A1_DRD
  6
BYLAYER
370
   211
 62
   256
100
AcDbPolyline
 90
     2
 70
     0
 43
0.01
 10
0.1145
 20
-2.161
 10
0.0645
 20
-2.211
  0
LWPOLYLINE
  5
AB
330
12
100
AcDbEntity
  8
SPL_200MHZ_A1_DRD
  6
BYLAYER
370
   211
 62
   256
100
AcDbPolyline
 90
     2
 70
     0
 43
0.01
 10
0.1145
 20
-2.211
 10
0.0645
 20
-2.161
  0
LWPOLYLINE
  5
AC
330
12
100
AcDbEntity
  8
SPL_200MHZ_A1_DRD
  6
BYLAYER
370
   211
 62
   256
100
AcDbPolyline
 90
     2
 70
     0
 43
0.01
 10
0.0645
 20
-2.011
 10
0.0645
 20
-2.061
  0
LWPOLYLINE
  5
AD
330
12
100
AcDbEntity
  8
SPL_200MHZ_A1_DRD
  6
BYLAYER
370
   211
 62
   256
100
AcDbPolyline
 90
     2
 70
     0
 43
0.01
 10
0.1145
 20
-2.011
 10
0.0645
 20
-2.011
  0
LWPOLYLINE
  5
AE
330
12
100
AcDbEntity
  8
SPL_200MHZ_A1_DRD
  6
BYLAYER
370
   211
 62
   256
100
AcDbPolyline
 90
     2
 70
     0
 43
0.01
 10
0.1145
 20
-2.061
 10
0.1145
 20
-2.011
  0
LWPOLYLINE
  5
AF
330
12
100
AcDbEntity
  8
SPL_200MHZ_A1_DRD
  6
BYLAYER
370
   211
 62
   256
100
AcDbPolyline
 90
     2
 70
     0
 43
0.01
 10
0.0645
 20
-2.061
 10
0.1145
 20
-2.061
  0
LWPOLYLINE
  5
B0
330
12
100
AcDbEntity
  8
SPL_200MHZ_A1_DRD
  6
BYLAYER
370
   211
 62
   256
100
AcDbPolyline
 90
     2
 70
     0
 43
0.01
 10
0.1145
 20
-2.036
 10
0.0645
 20
-2.036
  0
LWPOLYLINE
  5
B1
330
12
100
AcDbEntity
  8
SPL_200MHZ_A1_DRD
  6
BYLAYER
370
   211
 62
   256
100
AcDbPolyline
 90
     2
 70
     0
 43
0.01
 10
0.0895
 20
-2.011
 10
0.0895
 20
-2.061
  0
LWPOLYLINE
  5
B2
330
12
100
AcDbEntity
  8
SPL_200MHZ_A1_DRD
  6
BYLAYER
370
   211
 62
   256
100
AcDbPolyline
 90
     2
 70
     0
 43
0.01
 10
3.637
 20
-2.466
 10
-0.098
 20
-2.466
  0
LWPOLYLINE
  5
B3
330
12
100
AcDbEntity
  8
SPL_200MHZ_A1_DRD
  6
BYLAYER
370
   211
 62
   256
100
AcDbPolyline
 90
     2
 70
     0
 43
0.01
 10
3.632
 20
-2.461
 10
-0.093
 20
-2.461
  0
LWPOLYLINE
  5
B4
330
12
100
AcDbEntity
  8
SPL_200MHZ_A1_DRD
  6
BYLAYER
370
   211
 62
   256
100
AcDbPolyline
 90
     2
 70
     0
 43
0.01
 10
3.632
 20
-2.261
 10
-0.093
 20
-2.261
  0
LWPOLYLINE
  5
B5
330
12
100
AcDbEntity
  8
SPL_200MHZ_A1_DRD
  6
BYLAYER
370
   211
 62
   256
100
AcDbPolyline
 90
     2
 70
     0
 43
0.01
 10
3.632
 20
-2.111
 10
-0.093
 20
-2.111
  0
LWPOLYLINE
  5
B6
330
12
100
AcDbEntity
  8
SPL_200MHZ_A1_DRD
  6
BYLAYER
370
   211
 62
   256
100
AcDbPolyline
 90
     2
 70
     0
 43
0.01
 10
3.632
 20
-1.961
 10
-0.093
 20
-1.961
  0
LWPOLYLINE
  5
B7
330
12
100
AcDbEntity
  8
SPL_200MHZ_A1_DRD
  6
BYLAYER
370
   211
 62
   256
100
AcDbPolyline
 90
     2
 70
     0
 43
0.01
 10
3.632
 20
-1.811
 10
-0.093
 20
-1.811
  0
LWPOLYLINE
  5
B8
330
12
100
AcDbEntity
  8
SPL_200MHZ_A1_DRD
  6
BYLAYER
370
   211
 62
   256
100
AcDbPolyline
 90
     2
 70
     0
 43
0.01
 10
3.632
 20
-1.806
 10
-0.093
 20
-1.806
  0
LWPOLYLINE
  5
B9
330
12
100
AcDbEntity
  8
SPL_200MHZ_A1_DRD
  6
BYLAYER
370
   211
 62
   256
100
AcDbPolyline
 90
     2
 70
     0
 43
0.01
 10
3.632
 20
-1.611
 10
-0.093
 20
-1.611
  0
LWPOLYLINE
  5
BA
330
12
100
AcDbEntity
  8
SPL_200MHZ_A1_DRD
  6
BYLAYER
370
   211
 62
   256
100
AcDbPolyline
 90
     2
 70
     0
 43
0.01
 10
3.632
 20
-1.606
 10
-0.093
 20
-1.606
  0
LWPOLYLINE
  5
BB
330
12
100
AcDbEntity
  8
SPL_200MHZ_A1_DRD
  6
BYLAYER
370
   211
 62
   256
100
AcDbPolyline
 90
     2
 70
     0
 43
0.01
 10
3.632
 20
-1.411
 10
-0.093
 20
-1.411
  0
LWPOLYLINE
  5
BC
330
12
100
AcDbEntity
  8
SPL_200MHZ_A1_DRD
  6
BYLAYER
370
   211
 62
   256
100
AcDbPolyline
 90
     2
 70
     0
 43
0.01
 10
3.637
 20
-1.406
 10
-0.098
 20
-1.406
  0
LWPOLYLINE
  5
BD
330
12
100
AcDbEntity
  8
SPL_200MHZ_A1_DRD
  6
BYLAYER
370
   211
 62
   256
100
AcDbPolyline
 90
     2
 70
     0
 43
0.01
 10
3.637
 20
-2.461
 10
3.637
 20
-1.411
  0
LWPOLYLINE
  5
BE
330
12
100
AcDbEntity
  8
SPL_200MHZ_A1_DRD
  6
BYLAYER
370
   211
 62
   256
100
AcDbPolyline
 90
     2
 70
     0
 43
0.01
 10
3.632
 20
-2.461
 10
3.632
 20
-1.411
  0
LWPOLYLINE
  5
BF
330
12
100
AcDbEntity
  8
SPL_200MHZ_A1_DRD
  6
BYLAYER
370
   211
 62
   256
100
AcDbPolyline
 90
     2
 70
     0
 43
0.01
 10
2.4778
 20
-2.461
 10
2.4778
 20
-1.611
  0
LWPOLYLINE
  5
C0
330
12
100
AcDbEntity
  8
SPL_200MHZ_A1_DRD
  6
BYLAYER
370
   211
 62
   256
100
AcDbPolyline
 90
     2
 70
     0
 43
0.01
 10
1.9228
 20
-2.461
 10
1.9228
 20
-1.611
  0
LWPOLYLINE
  5
C1
330
12
100
AcDbEntity
  8
SPL_200MHZ_A1_DRD
  6
BYLAYER
370
   211
 62
   256
100
AcDbPolyline
 90
     2
 70
     0
 43
0.01
 10
1.1162
 20
-2.261
 10
1.1162
 20
-1.611
  0
LWPOLYLINE
  5
C2
330
12
100
AcDbEntity
  8
SPL_200MHZ_A1_DRD
  6
BYLAYER
370
   211
 62
   256
100
AcDbPolyline
 90
     2
 70
     0
 43
0.01
 10
0.277
 20
-2.261
 10
0.277
 20
-1.611
  0
LWPOLYLINE
  5
C3
330
12
100
AcDbEntity
  8
SPL_200MHZ_A1_DRD
  6
BYLAYER
370
   211
 62
   256
100
AcDbPolyline
 90
     2
 70
     0
 43
0.01
 10
0.272
 20
-2.261
 10
0.272
 20
-1.611
  0
LWPOLYLINE
  5
C4
330
12
100
AcDbEntity
  8
SPL_200MHZ_A1_DRD
  6
BYLAYER
370
   211
 62
   256
100
AcDbPolyline
 90
     2
 70
     0
 43
0.01
 10
-0.098
 20
-2.461
 10
-0.098
 20
-1.411
  0
LWPOLYLINE
  5
C5
330
12
100
AcDbEntity
  8
SPL_200MHZ_A1_DRD
  6
BYLAYER
370
   211
 62
   256
100
AcDbPolyline
 90
     2
 70
     0
 43
0.01
 10
-0.093
 20
-2.461
 10
-0.093
 20
-1.411
  0
LWPOLYLINE
  5
C6
330
12
100
AcDbEntity
  8
SPL_200MHZ_A1_DRD
  6
BYLAYER
370
   211
 62
   256
100
AcDbPolyline
 90
     2
 70
     0
 43
0.01
 10
-0.2545
 20
-0.001
 10
-0.0295
 20
-0.001
  0
LWPOLYLINE
  5
C7
330
12
100
AcDbEntity
  8
SPL_200MHZ_A1_DRD
  6
BYLAYER
370
   211
 62
   256
100
AcDbPolyline
 90
     2
 70
     0
 43
0.01
 10
-0.142
 20
1.7398
 10
-0.142
 20
-0.001
  0
LWPOLYLINE
  5
C8
330
12
100
AcDbEntity
  8
SPL_200MHZ_A1_DRD
  6
BYLAYER
370
   211
 62
   256
100
AcDbPolyline
 90
     3
 70
     0
 43
0.01
 10
-0.1232
 20
0.0552
 10
-0.142
 20
-0.001
 10
-0.1607
 20
0.0552
  0
LWPOLYLINE
  5
C9
330
12
100
AcDbEntity
  8
SPL_200MHZ_A1_DRD
  6
BYLAYER
370
   211
 62
   256
100
AcDbPolyline
 90
     2
 70
     0
 43
0.01
 10
-0.2545
 20
3.799
 10
-0.0295
 20
3.799
  0
LWPOLYLINE
  5
CA
330
12
100
AcDbEntity
  8
SPL_200MHZ_A1_DRD
  6
BYLAYER
370
   211
 62
   256
100
AcDbPolyline
 90
     2
 70
     0
 43
0.01
 10
-0.142
 20
2.0582
 10
-0.142
 20
3.799
  0
LWPOLYLINE
  5
CB
330
12
100
AcDbEntity
  8
SPL_200MHZ_A1_DRD
  6
BYLAYER
370
   211
 62
   256
100
AcDbPolyline
 90
     3
 70
     0
 43
0.01
 10
-0.1607
 20
3.7427
 10
-0.142
 20
3.799
 10
-0.1232
 20
3.7427
  0
LWPOLYLINE
  5
CC
330
12
100
AcDbEntity
  8
SPL_200MHZ_A1_DRD
  6
BYLAYER
370
   211
 62
   256
100
AcDbPolyline
 90
     2
 70
     0
 43
0.01
 10
8.675
 20
3.8365
 10
8.675
 20
4.0615
  0
LWPOLYLINE
  5
CD
330
12
100
AcDbEntity
  8
SPL_200MHZ_A1_DRD
  6
BYLAYER
370
   211
 62
   256
100
AcDbPolyline
 90
     2
 70
     0
 43
0.01
 10
4.4967
 20
3.949
 10
8.675
 20
3.949
  0
LWPOLYLINE
  5
CE
330
12
100
AcDbEntity
  8
SPL_200MHZ_A1_DRD
  6
BYLAYER
370
   211
 62
   256
100
AcDbPolyline
 90
     3
 70
     0
 43
0.01
 10
8.6187
 20
3.9677
 10
8.675
 20
3.949
 10
8.6187
 20
3.9302
  0
LWPOLYLINE
  5
CF
330
12
100
AcDbEntity
  8
SPL_200MHZ_A1_DRD
  6
BYLAYER
370
   211
 62
   256
100
AcDbPolyline
 90
     2
 70
     0
 43
0.01
 10
0.0
 20
3.8365
 10
0.0
 20
4.0615
  0
LWPOLYLINE
  5
D0
330
12
100
AcDbEntity
  8
SPL_200MHZ_A1_DRD
  6
BYLAYER
370
   211
 62
   256
100
AcDbPolyline
 90
     2
 70
     0
 43
0.01
 10
4.1783
 20
3.949
 10
0.0
 20
3.949
  0
LWPOLYLINE
  5
D1
330
12
100
AcDbEntity
  8
SPL_200MHZ_A1_DRD
  6
BYLAYER
370
   211
 62
   256
100
AcDbPolyline
 90
     3
 70
     0
 43
0.01
 10
0.0562
 20
3.9302
 10
0.0
 20
3.949
 10
0.0562
 20
3.9677
  0
LWPOLYLINE
  5
D2
330
12
100
AcDbEntity
  8
SPL_200MHZ_A1_DRD
  6
BYLAYER
370
   211
 62
   256
100
AcDbPolyline
 90
     9
 70
     0
 43
0.01
 10
1.555
 20
0.893
 10
0.456
 20
1.528
 10
0.447
 20
1.533
 10
0.447
 20
2.557
 10
1.566
 20
3.209
 10
2.049
 20
2.93
 10
2.451
 20
2.694
 10
2.451
 20
1.411
 10
1.555
 20
0.893
  0
LWPOLYLINE
  5
D3
330
12
100
AcDbEntity
  8
SPL_200MHZ_A1_DRD
  6
BYLAYER
370
   211
 62
   256
100
AcDbPolyline
 90
     5
 70
     0
 43
0.01
 10
0.0
 20
3.799
 10
8.675
 20
3.799
 10
8.675
 20
-0.001
 10
0.0
 20
-0.001
 10
0.0
 20
3.799
  0
LWPOLYLINE
  5
D4
330
12
100
AcDbEntity
  8
SPL_200MHZ_A1_DRD
  6
BYLAYER
370
   211
 62
   256
100
AcDbPolyline
 90
     2
 70
     0
 43
0.01
 10
1.85
 20
0.15
 10
1.85
 20
0.1
  0
LWPOLYLINE
  5
D5
330
12
100
AcDbEntity
  8
SPL_200MHZ_A1_DRD
  6
BYLAYER
370
   211
 62
   256
100
AcDbPolyline
 90
     2
 70
     0
 43
0.01
 10
1.9
 20
0.15
 10
1.85
 20
0.15
  0
LWPOLYLINE
  5
D6
330
12
100
AcDbEntity
  8
SPL_200MHZ_A1_DRD
  6
BYLAYER
370
   211
 62
   256
100
AcDbPolyline
 90
     2
 70
     0
 43
0.01
 10
1.9
 20
0.1
 10
1.9
 20
0.15
  0
LWPOLYLINE
  5
D7
330
12
100
AcDbEntity
  8
SPL_200MHZ_A1_DRD
  6
BYLAYER
370
   211
 62
   256
100
AcDbPolyline
 90
     2
 70
     0
 43
0.01
 10
1.85
 20
0.1
 10
1.9
 20
0.1
  0
LWPOLYLINE
  5
D8
330
12
100
AcDbEntity
  8
SPL_200MHZ_A1_DRD
  6
BYLAYER
370
   211
 62
   256
100
AcDbPolyline
 90
     2
 70
     0
 43
0.01
 10
1.9
 20
0.125
 10
1.85
 20
0.125
  0
LWPOLYLINE
  5
D9
330
12
100
AcDbEntity
  8
SPL_200MHZ_A1_DRD
  6
BYLAYER
370
   211
 62
   256
100
AcDbPolyline
 90
     2
 70
     0
 43
0.01
 10
1.875
 20
0.15
 10
1.875
 20
0.1
  0
LWPOLYLINE
  5
DA
330
12
100
AcDbEntity
  8
SPL_200MHZ_A1_DRD
  6
BYLAYER
370
   211
 62
   256
100
AcDbPolyline
 90
     2
 70
     0
 43
0.01
 10
7.245
 20
3.545
 10
7.195
 20
3.495
  0
LWPOLYLINE
  5
DB
330
12
100
AcDbEntity
  8
SPL_200MHZ_A1_DRD
  6
BYLAYER
370
   211
 62
   256
100
AcDbPolyline
 90
     2
 70
     0
 43
0.01
 10
7.245
 20
3.495
 10
7.195
 20
3.545
  0
LWPOLYLINE
  5
DC
330
12
100
AcDbEntity
  8
SPL_200MHZ_A1_DRD
  6
BYLAYER
370
   211
 62
   256
100
AcDbPolyline
 90
     2
 70
     0
 43
0.01
 10
3.55
 20
0.955
 10
3.5
 20
0.905
  0
LWPOLYLINE
  5
DD
330
12
100
AcDbEntity
  8
SPL_200MHZ_A1_DRD
  6
BYLAYER
370
   211
 62
   256
100
AcDbPolyline
 90
     2
 70
     0
 43
0.01
 10
3.55
 20
0.905
 10
3.5
 20
0.955
  0
LWPOLYLINE
  5
DE
330
12
100
AcDbEntity
  8
SPL_200MHZ_A1_DRD
  6
BYLAYER
370
   211
 62
   256
100
AcDbPolyline
 90
     2
 70
     0
 43
0.01
 10
0.435
 20
0.71
 10
0.385
 20
0.66
  0
LWPOLYLINE
  5
DF
330
12
100
AcDbEntity
  8
SPL_200MHZ_A1_DRD
  6
BYLAYER
370
   211
 62
   256
100
AcDbPolyline
 90
     2
 70
     0
 43
0.01
 10
0.435
 20
0.66
 10
0.385
 20
0.71
  0
LWPOLYLINE
  5
E0
330
12
100
AcDbEntity
  8
SPL_200MHZ_A1_DRD
  6
BYLAYER
370
   211
 62
   256
100
AcDbPolyline
 90
     2
 70
     0
 43
0.01
 10
0.435
 20
3.325
 10
0.385
 20
3.275
  0
LWPOLYLINE
  5
E1
330
12
100
AcDbEntity
  8
SPL_200MHZ_A1_DRD
  6
BYLAYER
370
   211
 62
   256
100
AcDbPolyline
 90
     2
 70
     0
 43
0.01
 10
0.435
 20
3.275
 10
0.385
 20
3.325
  0
LWPOLYLINE
  5
E2
330
12
100
AcDbEntity
  8
SPL_200MHZ_A1_DRD
  6
BYLAYER
370
   211
 62
   256
100
AcDbPolyline
 90
     2
 70
     0
 43
0.01
 10
2.59
 20
3.13
 10
2.54
 20
3.08
  0
LWPOLYLINE
  5
E3
330
12
100
AcDbEntity
  8
SPL_200MHZ_A1_DRD
  6
BYLAYER
370
   211
 62
   256
100
AcDbPolyline
 90
     2
 70
     0
 43
0.01
 10
2.59
 20
3.08
 10
2.54
 20
3.13
  0
LWPOLYLINE
  5
E4
330
12
100
AcDbEntity
  8
SPL_200MHZ_A1_DRD
  6
BYLAYER
370
   211
 62
   256
100
AcDbPolyline
 90
     2
 70
     0
 43
0.01
 10
5.01
 20
1.625
 10
4.96
 20
1.575
  0
LWPOLYLINE
  5
E5
330
12
100
AcDbEntity
  8
SPL_200MHZ_A1_DRD
  6
BYLAYER
370
   211
 62
   256
100
AcDbPolyline
 90
     2
 70
     0
 43
0.01
 10
5.01
 20
1.575
 10
4.96
 20
1.625
  0
LWPOLYLINE
  5
E6
330
12
100
AcDbEntity
  8
SPL_200MHZ_A1_DRD
  6
BYLAYER
370
   211
 62
   256
100
AcDbPolyline
 90
     2
 70
     0
 43
0.01
 10
6.4
 20
0.725
 10
6.35
 20
0.675
  0
LWPOLYLINE
  5
E7
330
12
100
AcDbEntity
  8
SPL_200MHZ_A1_DRD
  6
BYLAYER
370
   211
 62
   256
100
AcDbPolyline
 90
     2
 70
     0
 43
0.01
 10
6.4
 20
0.675
 10
6.35
 20
0.725
  0
LWPOLYLINE
  5
E8
330
12
100
AcDbEntity
  8
SPL_200MHZ_A1_DRD
  6
BYLAYER
370
   211
 62
   256
100
AcDbPolyline
 90
     2
 70
     0
 43
0.01
 10
7.12
 20
2.95
 10
7.12
 20
2.9
  0
LWPOLYLINE
  5
E9
330
12
100
AcDbEntity
  8
SPL_200MHZ_A1_DRD
  6
BYLAYER
370
   211
 62
   256
100
AcDbPolyline
 90
     2
 70
     0
 43
0.01
 10
7.17
 20
2.95
 10
7.12
 20
2.95
  0
LWPOLYLINE
  5
EA
330
12
100
AcDbEntity
  8
SPL_200MHZ_A1_DRD
  6
BYLAYER
370
   211
 62
   256
100
AcDbPolyline
 90
     2
 70
     0
 43
0.01
 10
7.17
 20
2.9
 10
7.17
 20
2.95
  0
LWPOLYLINE
  5
EB
330
12
100
AcDbEntity
  8
SPL_200MHZ_A1_DRD
  6
BYLAYER
370
   211
 62
   256
100
AcDbPolyline
 90
     2
 70
     0
 43
0.01
 10
7.12
 20
2.9
 10
7.17
 20
2.9
  0
LWPOLYLINE
  5
EC
330
12
100
AcDbEntity
  8
SPL_200MHZ_A1_DRD
  6
BYLAYER
370
   211
 62
   256
100
AcDbPolyline
 90
     2
 70
     0
 43
0.01
 10
7.17
 20
2.925
 10
7.12
 20
2.925
  0
LWPOLYLINE
  5
ED
330
12
100
AcDbEntity
  8
SPL_200MHZ_A1_DRD
  6
BYLAYER
370
   211
 62
   256
100
AcDbPolyline
 90
     2
 70
     0
 43
0.01
 10
7.145
 20
2.95
 10
7.145
 20
2.9
  0
LWPOLYLINE
  5
EE
330
12
100
AcDbEntity
  8
SPL_200MHZ_A1_DRD
  6
BYLAYER
370
   211
 62
   256
100
AcDbPolyline
 90
     2
 70
     0
 43
0.01
 10
4.61
 20
2.105
 10
4.61
 20
2.055
  0
LWPOLYLINE
  5
EF
330
12
100
AcDbEntity
  8
SPL_200MHZ_A1_DRD
  6
BYLAYER
370
   211
 62
   256
100
AcDbPolyline
 90
     2
 70
     0
 43
0.01
 10
4.66
 20
2.105
 10
4.61
 20
2.105
  0
LWPOLYLINE
  5
F0
330
12
100
AcDbEntity
  8
SPL_200MHZ_A1_DRD
  6
BYLAYER
370
   211
 62
   256
100
AcDbPolyline
 90
     2
 70
     0
 43
0.01
 10
4.66
 20
2.055
 10
4.66
 20
2.105
  0
LWPOLYLINE
  5
F1
330
12
100
AcDbEntity
  8
SPL_200MHZ_A1_DRD
  6
BYLAYER
370
   211
 62
   256
100
AcDbPolyline
 90
     2
 70
     0
 43
0.01
 10
4.61
 20
2.055
 10
4.66
 20
2.055
  0
LWPOLYLINE
  5
F2
330
12
100
AcDbEntity
  8
SPL_200MHZ_A1_DRD
  6
BYLAYER
370
   211
 62
   256
100
AcDbPolyline
 90
     2
 70
     0
 43
0.01
 10
4.66
 20
2.08
 10
4.61
 20
2.08
  0
LWPOLYLINE
  5
F3
330
12
100
AcDbEntity
  8
SPL_200MHZ_A1_DRD
  6
BYLAYER
370
   211
 62
   256
100
AcDbPolyline
 90
     2
 70
     0
 43
0.01
 10
4.635
 20
2.105
 10
4.635
 20
2.055
  0
LWPOLYLINE
  5
F4
330
12
100
AcDbEntity
  8
SPL_200MHZ_A1_DRD
  6
BYLAYER
370
   211
 62
   256
100
AcDbPolyline
 90
     2
 70
     0
 43
0.01
 10
8.05
 20
0.45
 10
8.05
 20
0.4
  0
LWPOLYLINE
  5
F5
330
12
100
AcDbEntity
  8
SPL_200MHZ_A1_DRD
  6
BYLAYER
370
   211
 62
   256
100
AcDbPolyline
 90
     2
 70
     0
 43
0.01
 10
8.1
 20
0.45
 10
8.05
 20
0.45
  0
LWPOLYLINE
  5
F6
330
12
100
AcDbEntity
  8
SPL_200MHZ_A1_DRD
  6
BYLAYER
370
   211
 62
   256
100
AcDbPolyline
 90
     2
 70
     0
 43
0.01
 10
8.1
 20
0.4
 10
8.1
 20
0.45
  0
LWPOLYLINE
  5
F7
330
12
100
AcDbEntity
  8
SPL_200MHZ_A1_DRD
  6
BYLAYER
370
   211
 62
   256
100
AcDbPolyline
 90
     2
 70
     0
 43
0.01
 10
8.05
 20
0.4
 10
8.1
 20
0.4
  0
LWPOLYLINE
  5
F8
330
12
100
AcDbEntity
  8
SPL_200MHZ_A1_DRD
  6
BYLAYER
370
   211
 62
   256
100
AcDbPolyline
 90
     2
 70
     0
 43
0.01
 10
8.1
 20
0.425
 10
8.05
 20
0.425
  0
LWPOLYLINE
  5
F9
330
12
100
AcDbEntity
  8
SPL_200MHZ_A1_DRD
  6
BYLAYER
370
   211
 62
   256
100
AcDbPolyline
 90
     2
 70
     0
 43
0.01
 10
8.075
 20
0.45
 10
8.075
 20
0.4
  0
LWPOLYLINE
  5
FA
330
12
100
AcDbEntity
  8
SPL_200MHZ_A1_DRD
  6
BYLAYER
370
   211
 62
   256
100
AcDbPolyline
 90
     2
 70
     0
 43
0.01
 10
6.085
 20
1.575
 10
6.085
 20
1.525
  0
LWPOLYLINE
  5
FB
330
12
100
AcDbEntity
  8
SPL_200MHZ_A1_DRD
  6
BYLAYER
370
   211
 62
   256
100
AcDbPolyline
 90
     2
 70
     0
 43
0.01
 10
6.135
 20
1.575
 10
6.085
 20
1.575
  0
LWPOLYLINE
  5
FC
330
12
100
AcDbEntity
  8
SPL_200MHZ_A1_DRD
  6
BYLAYER
370
   211
 62
   256
100
AcDbPolyline
 90
     2
 70
     0
 43
0.01
 10
6.135
 20
1.525
 10
6.135
 20
1.575
  0
LWPOLYLINE
  5
FD
330
12
100
AcDbEntity
  8
SPL_200MHZ_A1_DRD
  6
BYLAYER
370
   211
 62
   256
100
AcDbPolyline
 90
     2
 70
     0
 43
0.01
 10
6.085
 20
1.525
 10
6.135
 20
1.525
  0
LWPOLYLINE
  5
FE
330
12
100
AcDbEntity
  8
SPL_200MHZ_A1_DRD
  6
BYLAYER
370
   211
 62
   256
100
AcDbPolyline
 90
     2
 70
     0
 43
0.01
 10
6.135
 20
1.55
 10
6.085
 20
1.55
  0
LWPOLYLINE
  5
FF
330
12
100
AcDbEntity
  8
SPL_200MHZ_A1_DRD
  6
BYLAYER
370
   211
 62
   256
100
AcDbPolyline
 90
     2
 70
     0
 43
0.01
 10
6.11
 20
1.575
 10
6.11
 20
1.525
  0
LWPOLYLINE
  5
100
330
12
100
AcDbEntity
  8
SPL_200MHZ_A1_DRD
  6
BYLAYER
370
   211
 62
   256
100
AcDbPolyline
 90
     2
 70
     0
 43
0.01
 10
3.62
 20
1.35
 10
3.62
 20
1.3
  0
LWPOLYLINE
  5
101
330
12
100
AcDbEntity
  8
SPL_200MHZ_A1_DRD
  6
BYLAYER
370
   211
 62
   256
100
AcDbPolyline
 90
     2
 70
     0
 43
0.01
 10
3.67
 20
1.35
 10
3.62
 20
1.35
  0
LWPOLYLINE
  5
102
330
12
100
AcDbEntity
  8
SPL_200MHZ_A1_DRD
  6
BYLAYER
370
   211
 62
   256
100
AcDbPolyline
 90
     2
 70
     0
 43
0.01
 10
3.67
 20
1.3
 10
3.67
 20
1.35
  0
LWPOLYLINE
  5
103
330
12
100
AcDbEntity
  8
SPL_200MHZ_A1_DRD
  6
BYLAYER
370
   211
 62
   256
100
AcDbPolyline
 90
     2
 70
     0
 43
0.01
 10
3.62
 20
1.3
 10
3.67
 20
1.3
  0
LWPOLYLINE
  5
104
330
12
100
AcDbEntity
  8
SPL_200MHZ_A1_DRD
  6
BYLAYER
370
   211
 62
   256
100
AcDbPolyline
 90
     2
 70
     0
 43
0.01
 10
3.67
 20
1.325
 10
3.62
 20
1.325
  0
LWPOLYLINE
  5
105
330
12
100
AcDbEntity
  8
SPL_200MHZ_A1_DRD
  6
BYLAYER
370
   211
 62
   256
100
AcDbPolyline
 90
     2
 70
     0
 43
0.01
 10
3.645
 20
1.35
 10
3.645
 20
1.3
  0
LWPOLYLINE
  5
106
330
12
100
AcDbEntity
  8
SPL_200MHZ_A1_DRD
  6
BYLAYER
370
   211
 62
   256
100
AcDbPolyline
 90
     2
 70
     0
 43
0.01
 10
6.1
 20
2.695
 10
6.1
 20
2.645
  0
LWPOLYLINE
  5
107
330
12
100
AcDbEntity
  8
SPL_200MHZ_A1_DRD
  6
BYLAYER
370
   211
 62
   256
100
AcDbPolyline
 90
     2
 70
     0
 43
0.01
 10
6.15
 20
2.695
 10
6.1
 20
2.695
  0
LWPOLYLINE
  5
108
330
12
100
AcDbEntity
  8
SPL_200MHZ_A1_DRD
  6
BYLAYER
370
   211
 62
   256
100
AcDbPolyline
 90
     2
 70
     0
 43
0.01
 10
6.15
 20
2.645
 10
6.15
 20
2.695
  0
LWPOLYLINE
  5
109
330
12
100
AcDbEntity
  8
SPL_200MHZ_A1_DRD
  6
BYLAYER
370
   211
 62
   256
100
AcDbPolyline
 90
     2
 70
     0
 43
0.01
 10
6.1
 20
2.645
 10
6.15
 20
2.645
  0
LWPOLYLINE
  5
10A
330
12
100
AcDbEntity
  8
SPL_200MHZ_A1_DRD
  6
BYLAYER
370
   211
 62
   256
100
AcDbPolyline
 90
     2
 70
     0
 43
0.01
 10
6.15
 20
2.67
 10
6.1
 20
2.67
  0
LWPOLYLINE
  5
10B
330
12
100
AcDbEntity
  8
SPL_200MHZ_A1_DRD
  6
BYLAYER
370
   211
 62
   256
100
AcDbPolyline
 90
     2
 70
     0
 43
0.01
 10
6.125
 20
2.695
 10
6.125
 20
2.645
  0
LWPOLYLINE
  5
10C
330
12
100
AcDbEntity
  8
SPL_200MHZ_A1_DRD
  6
BYLAYER
370
   211
 62
   256
100
AcDbPolyline
 90
     2
 70
     0
 43
0.01
 10
8.525
 20
3.71
 10
8.525
 20
3.66
  0
LWPOLYLINE
  5
10D
330
12
100
AcDbEntity
  8
SPL_200MHZ_A1_DRD
  6
BYLAYER
370
   211
 62
   256
100
AcDbPolyline
 90
     2
 70
     0
 43
0.01
 10
8.575
 20
3.71
 10
8.525
 20
3.71
  0
LWPOLYLINE
  5
10E
330
12
100
AcDbEntity
  8
SPL_200MHZ_A1_DRD
  6
BYLAYER
370
   211
 62
   256
100
AcDbPolyline
 90
     2
 70
     0
 43
0.01
 10
8.575
 20
3.66
 10
8.575
 20
3.71
  0
LWPOLYLINE
  5
10F
330
12
100
AcDbEntity
  8
SPL_200MHZ_A1_DRD
  6
BYLAYER
370
   211
 62
   256
100
AcDbPolyline
 90
     2
 70
     0
 43
0.01
 10
8.525
 20
3.66
 10
8.575
 20
3.66
  0
LWPOLYLINE
  5
110
330
12
100
AcDbEntity
  8
SPL_200MHZ_A1_DRD
  6
BYLAYER
370
   211
 62
   256
100
AcDbPolyline
 90
     2
 70
     0
 43
0.01
 10
8.575
 20
3.685
 10
8.525
 20
3.685
  0
LWPOLYLINE
  5
111
330
12
100
AcDbEntity
  8
SPL_200MHZ_A1_DRD
  6
BYLAYER
370
   211
 62
   256
100
AcDbPolyline
 90
     2
 70
     0
 43
0.01
 10
8.55
 20
3.71
 10
8.55
 20
3.66
  0
LWPOLYLINE
  5
112
330
12
100
AcDbEntity
  8
SPL_200MHZ_A1_DRD
  6
BYLAYER
370
   211
 62
   256
100
AcDbPolyline
 90
     2
 70
     0
 43
0.01
 10
4.42
 20
3.34
 10
4.42
 20
3.29
  0
LWPOLYLINE
  5
113
330
12
100
AcDbEntity
  8
SPL_200MHZ_A1_DRD
  6
BYLAYER
370
   211
 62
   256
100
AcDbPolyline
 90
     2
 70
     0
 43
0.01
 10
4.47
 20
3.34
 10
4.42
 20
3.34
  0
LWPOLYLINE
  5
114
330
12
100
AcDbEntity
  8
SPL_200MHZ_A1_DRD
  6
BYLAYER
370
   211
 62
   256
100
AcDbPolyline
 90
     2
 70
     0
 43
0.01
 10
4.47
 20
3.29
 10
4.47
 20
3.34
  0
LWPOLYLINE
  5
115
330
12
100
AcDbEntity
  8
SPL_200MHZ_A1_DRD
  6
BYLAYER
370
   211
 62
   256
100
AcDbPolyline
 90
     2
 70
     0
 43
0.01
 10
4.42
 20
3.29
 10
4.47
 20
3.29
  0
LWPOLYLINE
  5
116
330
12
100
AcDbEntity
  8
SPL_200MHZ_A1_DRD
  6
BYLAYER
370
   211
 62
   256
100
AcDbPolyline
 90
     2
 70
     0
 43
0.01
 10
4.47
 20
3.315
 10
4.42
 20
3.315
  0
LWPOLYLINE
  5
117
330
12
100
AcDbEntity
  8
SPL_200MHZ_A1_DRD
  6
BYLAYER
370
   211
 62
   256
100
AcDbPolyline
 90
     2
 70
     0
 43
0.01
 10
4.445
 20
3.34
 10
4.445
 20
3.29
  0
LWPOLYLINE
  5
118
330
12
100
AcDbEntity
  8
SPL_200MHZ_A1_DRD
  6
BYLAYER
370
   211
 62
   256
100
AcDbPolyline
 90
     2
 70
     0
 43
0.01
 10
5.39
 20
0.535
 10
5.39
 20
0.485
  0
LWPOLYLINE
  5
119
330
12
100
AcDbEntity
  8
SPL_200MHZ_A1_DRD
  6
BYLAYER
370
   211
 62
   256
100
AcDbPolyline
 90
     2
 70
     0
 43
0.01
 10
5.44
 20
0.535
 10
5.39
 20
0.535
  0
LWPOLYLINE
  5
11A
330
12
100
AcDbEntity
  8
SPL_200MHZ_A1_DRD
  6
BYLAYER
370
   211
 62
   256
100
AcDbPolyline
 90
     2
 70
     0
 43
0.01
 10
5.44
 20
0.485
 10
5.44
 20
0.535
  0
LWPOLYLINE
  5
11B
330
12
100
AcDbEntity
  8
SPL_200MHZ_A1_DRD
  6
BYLAYER
370
   211
 62
   256
100
AcDbPolyline
 90
     2
 70
     0
 43
0.01
 10
5.39
 20
0.485
 10
5.44
 20
0.485
  0
LWPOLYLINE
  5
11C
330
12
100
AcDbEntity
  8
SPL_200MHZ_A1_DRD
  6
BYLAYER
370
   211
 62
   256
100
AcDbPolyline
 90
     2
 70
     0
 43
0.01
 10
5.44
 20
0.51
 10
5.39
 20
0.51
  0
LWPOLYLINE
  5
11D
330
12
100
AcDbEntity
  8
SPL_200MHZ_A1_DRD
  6
BYLAYER
370
   211
 62
   256
100
AcDbPolyline
 90
     2
 70
     0
 43
0.01
 10
5.415
 20
0.535
 10
5.415
 20
0.485
  0
LWPOLYLINE
  5
11E
330
12
100
AcDbEntity
  8
SPL_200MHZ_A1_DRD
  6
BYLAYER
370
   211
 62
   256
100
AcDbPolyline
 90
     2
 70
     0
 43
0.01
 10
2.15
 20
3.29
 10
2.15
 20
3.24
  0
LWPOLYLINE
  5
11F
330
12
100
AcDbEntity
  8
SPL_200MHZ_A1_DRD
  6
BYLAYER
370
   211
 62
   256
100
AcDbPolyline
 90
     2
 70
     0
 43
0.01
 10
2.2
 20
3.29
 10
2.15
 20
3.29
  0
LWPOLYLINE
  5
120
330
12
100
AcDbEntity
  8
SPL_200MHZ_A1_DRD
  6
BYLAYER
370
   211
 62
   256
100
AcDbPolyline
 90
     2
 70
     0
 43
0.01
 10
2.2
 20
3.24
 10
2.2
 20
3.29
  0
LWPOLYLINE
  5
121
330
12
100
AcDbEntity
  8
SPL_200MHZ_A1_DRD
  6
BYLAYER
370
   211
 62
   256
100
AcDbPolyline
 90
     2
 70
     0
 43
0.01
 10
2.15
 20
3.24
 10
2.2
 20
3.24
  0
LWPOLYLINE
  5
122
330
12
100
AcDbEntity
  8
SPL_200MHZ_A1_DRD
  6
BYLAYER
370
   211
 62
   256
100
AcDbPolyline
 90
     2
 70
     0
 43
0.01
 10
2.2
 20
3.265
 10
2.15
 20
3.265
  0
LWPOLYLINE
  5
123
330
12
100
AcDbEntity
  8
SPL_200MHZ_A1_DRD
  6
BYLAYER
370
   211
 62
   256
100
AcDbPolyline
 90
     2
 70
     0
 43
0.01
 10
2.175
 20
3.29
 10
2.175
 20
3.24
  0
LWPOLYLINE
  5
124
330
12
100
AcDbEntity
  8
SPL_200MHZ_A1_DRD
  6
BYLAYER
370
   211
 62
   256
100
AcDbPolyline
 90
     2
 70
     0
 43
0.01
 10
3.55
 20
0.15
 10
3.55
 20
0.1
  0
LWPOLYLINE
  5
125
330
12
100
AcDbEntity
  8
SPL_200MHZ_A1_DRD
  6
BYLAYER
370
   211
 62
   256
100
AcDbPolyline
 90
     2
 70
     0
 43
0.01
 10
3.6
 20
0.15
 10
3.55
 20
0.15
  0
LWPOLYLINE
  5
126
330
12
100
AcDbEntity
  8
SPL_200MHZ_A1_DRD
  6
BYLAYER
370
   211
 62
   256
100
AcDbPolyline
 90
     2
 70
     0
 43
0.01
 10
3.6
 20
0.1
 10
3.6
 20
0.15
  0
LWPOLYLINE
  5
127
330
12
100
AcDbEntity
  8
SPL_200MHZ_A1_DRD
  6
BYLAYER
370
   211
 62
   256
100
AcDbPolyline
 90
     2
 70
     0
 43
0.01
 10
3.55
 20
0.1
 10
3.6
 20
0.1
  0
LWPOLYLINE
  5
128
330
12
100
AcDbEntity
  8
SPL_200MHZ_A1_DRD
  6
BYLAYER
370
   211
 62
   256
100
AcDbPolyline
 90
     2
 70
     0
 43
0.01
 10
3.6
 20
0.125
 10
3.55
 20
0.125
  0
LWPOLYLINE
  5
129
330
12
100
AcDbEntity
  8
SPL_200MHZ_A1_DRD
  6
BYLAYER
370
   211
 62
   256
100
AcDbPolyline
 90
     2
 70
     0
 43
0.01
 10
3.575
 20
0.15
 10
3.575
 20
0.1
  0
LWPOLYLINE
  5
12A
330
12
100
AcDbEntity
  8
SPL_200MHZ_A1_DRD
  6
BYLAYER
370
   211
 62
   256
100
AcDbPolyline
 90
     2
 70
     0
 43
0.01
 10
0.375
 20
2.875
 10
0.375
 20
2.825
  0
LWPOLYLINE
  5
12B
330
12
100
AcDbEntity
  8
SPL_200MHZ_A1_DRD
  6
BYLAYER
370
   211
 62
   256
100
AcDbPolyline
 90
     2
 70
     0
 43
0.01
 10
0.425
 20
2.875
 10
0.375
 20
2.875
  0
LWPOLYLINE
  5
12C
330
12
100
AcDbEntity
  8
SPL_200MHZ_A1_DRD
  6
BYLAYER
370
   211
 62
   256
100
AcDbPolyline
 90
     2
 70
     0
 43
0.01
 10
0.425
 20
2.825
 10
0.425
 20
2.875
  0
LWPOLYLINE
  5
12D
330
12
100
AcDbEntity
  8
SPL_200MHZ_A1_DRD
  6
BYLAYER
370
   211
 62
   256
100
AcDbPolyline
 90
     2
 70
     0
 43
0.01
 10
0.375
 20
2.825
 10
0.425
 20
2.825
  0
LWPOLYLINE
  5
12E
330
12
100
AcDbEntity
  8
SPL_200MHZ_A1_DRD
  6
BYLAYER
370
   211
 62
   256
100
AcDbPolyline
 90
     2
 70
     0
 43
0.01
 10
0.425
 20
2.85
 10
0.375
 20
2.85
  0
LWPOLYLINE
  5
12F
330
12
100
AcDbEntity
  8
SPL_200MHZ_A1_DRD
  6
BYLAYER
370
   211
 62
   256
100
AcDbPolyline
 90
     2
 70
     0
 43
0.01
 10
0.4
 20
2.875
 10
0.4
 20
2.825
  0
LWPOLYLINE
  5
130
330
12
100
AcDbEntity
  8
SPL_200MHZ_A1_DRD
  6
BYLAYER
370
   211
 62
   256
100
AcDbPolyline
 90
     2
 70
     0
 43
0.01
 10
0.375
 20
1.175
 10
0.375
 20
1.125
  0
LWPOLYLINE
  5
131
330
12
100
AcDbEntity
  8
SPL_200MHZ_A1_DRD
  6
BYLAYER
370
   211
 62
   256
100
AcDbPolyline
 90
     2
 70
     0
 43
0.01
 10
0.425
 20
1.175
 10
0.375
 20
1.175
  0
LWPOLYLINE
  5
132
330
12
100
AcDbEntity
  8
SPL_200MHZ_A1_DRD
  6
BYLAYER
370
   211
 62
   256
100
AcDbPolyline
 90
     2
 70
     0
 43
0.01
 10
0.425
 20
1.125
 10
0.425
 20
1.175
  0
LWPOLYLINE
  5
133
330
12
100
AcDbEntity
  8
SPL_200MHZ_A1_DRD
  6
BYLAYER
370
   211
 62
   256
100
AcDbPolyline
 90
     2
 70
     0
 43
0.01
 10
0.375
 20
1.125
 10
0.425
 20
1.125
  0
LWPOLYLINE
  5
134
330
12
100
AcDbEntity
  8
SPL_200MHZ_A1_DRD
  6
BYLAYER
370
   211
 62
   256
100
AcDbPolyline
 90
     2
 70
     0
 43
0.01
 10
0.425
 20
1.15
 10
0.375
 20
1.15
  0
LWPOLYLINE
  5
135
330
12
100
AcDbEntity
  8
SPL_200MHZ_A1_DRD
  6
BYLAYER
370
   211
 62
   256
100
AcDbPolyline
 90
     2
 70
     0
 43
0.01
 10
0.4
 20
1.175
 10
0.4
 20
1.125
  0
LWPOLYLINE
  5
136
330
12
100
AcDbEntity
  8
SPL_200MHZ_A1_DRD
  6
BYLAYER
370
   211
 62
   256
100
AcDbPolyline
 90
     2
 70
     0
 43
0.01
 10
2.625
 20
2.63
 10
2.625
 20
2.58
  0
LWPOLYLINE
  5
137
330
12
100
AcDbEntity
  8
SPL_200MHZ_A1_DRD
  6
BYLAYER
370
   211
 62
   256
100
AcDbPolyline
 90
     2
 70
     0
 43
0.01
 10
2.675
 20
2.63
 10
2.625
 20
2.63
  0
LWPOLYLINE
  5
138
330
12
100
AcDbEntity
  8
SPL_200MHZ_A1_DRD
  6
BYLAYER
370
   211
 62
   256
100
AcDbPolyline
 90
     2
 70
     0
 43
0.01
 10
2.675
 20
2.58
 10
2.675
 20
2.63
  0
LWPOLYLINE
  5
139
330
12
100
AcDbEntity
  8
SPL_200MHZ_A1_DRD
  6
BYLAYER
370
   211
 62
   256
100
AcDbPolyline
 90
     2
 70
     0
 43
0.01
 10
2.625
 20
2.58
 10
2.675
 20
2.58
  0
LWPOLYLINE
  5
13A
330
12
100
AcDbEntity
  8
SPL_200MHZ_A1_DRD
  6
BYLAYER
370
   211
 62
   256
100
AcDbPolyline
 90
     2
 70
     0
 43
0.01
 10
2.675
 20
2.605
 10
2.625
 20
2.605
  0
LWPOLYLINE
  5
13B
330
12
100
AcDbEntity
  8
SPL_200MHZ_A1_DRD
  6
BYLAYER
370
   211
 62
   256
100
AcDbPolyline
 90
     2
 70
     0
 43
0.01
 10
2.65
 20
2.63
 10
2.65
 20
2.58
  0
LWPOLYLINE
  5
13C
330
12
100
AcDbEntity
  8
SPL_200MHZ_A1_DRD
  6
BYLAYER
370
   211
 62
   256
100
AcDbPolyline
 90
     2
 70
     0
 43
0.01
 10
2.11
 20
0.98
 10
2.11
 20
0.93
  0
LWPOLYLINE
  5
13D
330
12
100
AcDbEntity
  8
SPL_200MHZ_A1_DRD
  6
BYLAYER
370
   211
 62
   256
100
AcDbPolyline
 90
     2
 70
     0
 43
0.01
 10
2.16
 20
0.98
 10
2.11
 20
0.98
  0
LWPOLYLINE
  5
13E
330
12
100
AcDbEntity
  8
SPL_200MHZ_A1_DRD
  6
BYLAYER
370
   211
 62
   256
100
AcDbPolyline
 90
     2
 70
     0
 43
0.01
 10
2.16
 20
0.93
 10
2.16
 20
0.98
  0
LWPOLYLINE
  5
13F
330
12
100
AcDbEntity
  8
SPL_200MHZ_A1_DRD
  6
BYLAYER
370
   211
 62
   256
100
AcDbPolyline
 90
     2
 70
     0
 43
0.01
 10
2.11
 20
0.93
 10
2.16
 20
0.93
  0
LWPOLYLINE
  5
140
330
12
100
AcDbEntity
  8
SPL_200MHZ_A1_DRD
  6
BYLAYER
370
   211
 62
   256
100
AcDbPolyline
 90
     2
 70
     0
 43
0.01
 10
2.16
 20
0.955
 10
2.11
 20
0.955
  0
LWPOLYLINE
  5
141
330
12
100
AcDbEntity
  8
SPL_200MHZ_A1_DRD
  6
BYLAYER
370
   211
 62
   256
100
AcDbPolyline
 90
     2
 70
     0
 43
0.01
 10
2.135
 20
0.98
 10
2.135
 20
0.93
  0
LWPOLYLINE
  5
142
330
12
100
AcDbEntity
  8
SPL_200MHZ_A1_DRD
  6
BYLAYER
370
   211
 62
   256
100
AcDbPolyline
 90
     2
 70
     0
 43
0.01
 10
6.59
 20
0.15
 10
6.59
 20
0.1
  0
LWPOLYLINE
  5
143
330
12
100
AcDbEntity
  8
SPL_200MHZ_A1_DRD
  6
BYLAYER
370
   211
 62
   256
100
AcDbPolyline
 90
     2
 70
     0
 43
0.01
 10
6.64
 20
0.15
 10
6.59
 20
0.15
  0
LWPOLYLINE
  5
144
330
12
100
AcDbEntity
  8
SPL_200MHZ_A1_DRD
  6
BYLAYER
370
   211
 62
   256
100
AcDbPolyline
 90
     2
 70
     0
 43
0.01
 10
6.64
 20
0.1
 10
6.64
 20
0.15
  0
LWPOLYLINE
  5
145
330
12
100
AcDbEntity
  8
SPL_200MHZ_A1_DRD
  6
BYLAYER
370
   211
 62
   256
100
AcDbPolyline
 90
     2
 70
     0
 43
0.01
 10
6.59
 20
0.1
 10
6.64
 20
0.1
  0
LWPOLYLINE
  5
146
330
12
100
AcDbEntity
  8
SPL_200MHZ_A1_DRD
  6
BYLAYER
370
   211
 62
   256
100
AcDbPolyline
 90
     2
 70
     0
 43
0.01
 10
6.64
 20
0.125
 10
6.59
 20
0.125
  0
LWPOLYLINE
  5
147
330
12
100
AcDbEntity
  8
SPL_200MHZ_A1_DRD
  6
BYLAYER
370
   211
 62
   256
100
AcDbPolyline
 90
     2
 70
     0
 43
0.01
 10
6.615
 20
0.15
 10
6.615
 20
0.1
  0
LWPOLYLINE
  5
148
330
12
100
AcDbEntity
  8
SPL_200MHZ_A1_DRD
  6
BYLAYER
370
   211
 62
   256
100
AcDbPolyline
 90
     2
 70
     0
 43
0.01
 10
0.09
 20
3.71
 10
0.09
 20
3.66
  0
LWPOLYLINE
  5
149
330
12
100
AcDbEntity
  8
SPL_200MHZ_A1_DRD
  6
BYLAYER
370
   211
 62
   256
100
AcDbPolyline
 90
     2
 70
     0
 43
0.01
 10
0.14
 20
3.71
 10
0.09
 20
3.71
  0
LWPOLYLINE
  5
14A
330
12
100
AcDbEntity
  8
SPL_200MHZ_A1_DRD
  6
BYLAYER
370
   211
 62
   256
100
AcDbPolyline
 90
     2
 70
     0
 43
0.01
 10
0.14
 20
3.66
 10
0.14
 20
3.71
  0
LWPOLYLINE
  5
14B
330
12
100
AcDbEntity
  8
SPL_200MHZ_A1_DRD
  6
BYLAYER
370
   211
 62
   256
100
AcDbPolyline
 90
     2
 70
     0
 43
0.01
 10
0.09
 20
3.66
 10
0.14
 20
3.66
  0
LWPOLYLINE
  5
14C
330
12
100
AcDbEntity
  8
SPL_200MHZ_A1_DRD
  6
BYLAYER
370
   211
 62
   256
100
AcDbPolyline
 90
     2
 70
     0
 43
0.01
 10
0.14
 20
3.685
 10
0.09
 20
3.685
  0
LWPOLYLINE
  5
14D
330
12
100
AcDbEntity
  8
SPL_200MHZ_A1_DRD
  6
BYLAYER
370
   211
 62
   256
100
AcDbPolyline
 90
     2
 70
     0
 43
0.01
 10
0.115
 20
3.71
 10
0.115
 20
3.66
  0
LWPOLYLINE
  5
14E
330
12
100
AcDbEntity
  8
SPL_200MHZ_A1_DRD
  6
BYLAYER
370
   211
 62
   256
100
AcDbPolyline
 90
     2
 70
     0
 43
0.01
 10
0.09
 20
1.925
 10
0.09
 20
1.875
  0
LWPOLYLINE
  5
14F
330
12
100
AcDbEntity
  8
SPL_200MHZ_A1_DRD
  6
BYLAYER
370
   211
 62
   256
100
AcDbPolyline
 90
     2
 70
     0
 43
0.01
 10
0.14
 20
1.925
 10
0.09
 20
1.925
  0
LWPOLYLINE
  5
150
330
12
100
AcDbEntity
  8
SPL_200MHZ_A1_DRD
  6
BYLAYER
370
   211
 62
   256
100
AcDbPolyline
 90
     2
 70
     0
 43
0.01
 10
0.14
 20
1.875
 10
0.14
 20
1.925
  0
LWPOLYLINE
  5
151
330
12
100
AcDbEntity
  8
SPL_200MHZ_A1_DRD
  6
BYLAYER
370
   211
 62
   256
100
AcDbPolyline
 90
     2
 70
     0
 43
0.01
 10
0.09
 20
1.875
 10
0.14
 20
1.875
  0
LWPOLYLINE
  5
152
330
12
100
AcDbEntity
  8
SPL_200MHZ_A1_DRD
  6
BYLAYER
370
   211
 62
   256
100
AcDbPolyline
 90
     2
 70
     0
 43
0.01
 10
0.14
 20
1.9
 10
0.09
 20
1.9
  0
LWPOLYLINE
  5
153
330
12
100
AcDbEntity
  8
SPL_200MHZ_A1_DRD
  6
BYLAYER
370
   211
 62
   256
100
AcDbPolyline
 90
     2
 70
     0
 43
0.01
 10
0.115
 20
1.925
 10
0.115
 20
1.875
  0
LWPOLYLINE
  5
154
330
12
100
AcDbEntity
  8
SPL_200MHZ_A1_DRD
  6
BYLAYER
370
   211
 62
   256
100
AcDbPolyline
 90
     2
 70
     0
 43
0.01
 10
0.09
 20
0.14
 10
0.09
 20
0.09
  0
LWPOLYLINE
  5
155
330
12
100
AcDbEntity
  8
SPL_200MHZ_A1_DRD
  6
BYLAYER
370
   211
 62
   256
100
AcDbPolyline
 90
     2
 70
     0
 43
0.01
 10
0.14
 20
0.14
 10
0.09
 20
0.14
  0
LWPOLYLINE
  5
156
330
12
100
AcDbEntity
  8
SPL_200MHZ_A1_DRD
  6
BYLAYER
370
   211
 62
   256
100
AcDbPolyline
 90
     2
 70
     0
 43
0.01
 10
0.14
 20
0.09
 10
0.14
 20
0.14
  0
LWPOLYLINE
  5
157
330
12
100
AcDbEntity
  8
SPL_200MHZ_A1_DRD
  6
BYLAYER
370
   211
 62
   256
100
AcDbPolyline
 90
     2
 70
     0
 43
0.01
 10
0.09
 20
0.09
 10
0.14
 20
0.09
  0
LWPOLYLINE
  5
158
330
12
100
AcDbEntity
  8
SPL_200MHZ_A1_DRD
  6
BYLAYER
370
   211
 62
   256
100
AcDbPolyline
 90
     2
 70
     0
 43
0.01
 10
0.14
 20
0.115
 10
0.09
 20
0.115
  0
LWPOLYLINE
  5
159
330
12
100
AcDbEntity
  8
SPL_200MHZ_A1_DRD
  6
BYLAYER
370
   211
 62
   256
100
AcDbPolyline
 90
     2
 70
     0
 43
0.01
 10
0.115
 20
0.14
 10
0.115
 20
0.09
  0
LWPOLYLINE
  5
15A
330
12
100
AcDbEntity
  8
SPL_200MHZ_A1_DRD
  6
BYLAYER
370
   211
 62
   256
100
AcDbPolyline
 90
     2
 70
     0
 43
0.006
 10
2.7678
 20
-2.1535
 10
2.7678
 20
-2.2093
  0
LWPOLYLINE
  5
15B
330
12
100
AcDbEntity
  8
SPL_200MHZ_A1_DRD
  6
BYLAYER
370
   211
 62
   256
100
AcDbPolyline
 90
     2
 70
     0
 43
0.006
 10
2.7678
 20
-2.1535
 10
2.805
 20
-2.2093
  0
LWPOLYLINE
  5
15C
330
12
100
AcDbEntity
  8
SPL_200MHZ_A1_DRD
  6
BYLAYER
370
   211
 62
   256
100
AcDbPolyline
 90
     2
 70
     0
 43
0.006
 10
2.805
 20
-2.1535
 10
2.805
 20
-2.2093
  0
LWPOLYLINE
  5
15D
330
12
100
AcDbEntity
  8
SPL_200MHZ_A1_DRD
  6
BYLAYER
370
   211
 62
   256
100
AcDbPolyline
 90
    21
 70
     0
 43
0.006
 10
2.8395
 20
-2.1535
 10
2.8342
 20
-2.1562
 10
2.8289
 20
-2.1615
 10
2.8263
 20
-2.1668
 10
2.8236
 20
-2.1748
 10
2.8236
 20
-2.1881
 10
2.8263
 20
-2.196
 10
2.8289
 20
-2.2013
 10
2.8342
 20
-2.2066
 10
2.8395
 20
-2.2093
 10
2.8502
 20
-2.2093
 10
2.8555
 20
-2.2066
 10
2.8608
 20
-2.2013
 10
2.8634
 20
-2.196
 10
2.8661
 20
-2.1881
 10
2.8661
 20
-2.1748
 10
2.8634
 20
-2.1668
 10
2.8608
 20
-2.1615
 10
2.8555
 20
-2.1562
 10
2.8502
 20
-2.1535
 10
2.8395
 20
-2.1535
  0
LWPOLYLINE
  5
15E
330
12
100
AcDbEntity
  8
SPL_200MHZ_A1_DRD
  6
BYLAYER
370
   211
 62
   256
100
AcDbPolyline
 90
     2
 70
     0
 43
0.006
 10
2.8847
 20
-2.1535
 10
2.8847
 20
-2.2093
  0
LWPOLYLINE
  5
15F
330
12
100
AcDbEntity
  8
SPL_200MHZ_A1_DRD
  6
BYLAYER
370
   211
 62
   256
100
AcDbPolyline
 90
     2
 70
     0
 43
0.006
 10
2.8847
 20
-2.1535
 10
2.9219
 20
-2.2093
  0
LWPOLYLINE
  5
160
330
12
100
AcDbEntity
  8
SPL_200MHZ_A1_DRD
  6
BYLAYER
370
   211
 62
   256
100
AcDbPolyline
 90
     2
 70
     0
 43
0.006
 10
2.9219
 20
-2.1535
 10
2.9219
 20
-2.2093
  0
LWPOLYLINE
  5
161
330
12
100
AcDbEntity
  8
SPL_200MHZ_A1_DRD
  6
BYLAYER
370
   211
 62
   256
100
AcDbPolyline
 90
     2
 70
     0
 43
0.006
 10
2.9431
 20
-2.1854
 10
2.9909
 20
-2.1854
  0
LWPOLYLINE
  5
162
330
12
100
AcDbEntity
  8
SPL_200MHZ_A1_DRD
  6
BYLAYER
370
   211
 62
   256
100
AcDbPolyline
 90
     2
 70
     0
 43
0.006
 10
3.0122
 20
-2.1535
 10
3.0122
 20
-2.2093
  0
LWPOLYLINE
  5
163
330
12
100
AcDbEntity
  8
SPL_200MHZ_A1_DRD
  6
BYLAYER
370
   211
 62
   256
100
AcDbPolyline
 90
    10
 70
     0
 43
0.006
 10
3.0122
 20
-2.1535
 10
3.0361
 20
-2.1535
 10
3.0441
 20
-2.1562
 10
3.0467
 20
-2.1588
 10
3.0494
 20
-2.1641
 10
3.0494
 20
-2.1721
 10
3.0467
 20
-2.1774
 10
3.0441
 20
-2.1801
 10
3.0361
 20
-2.1827
 10
3.0122
 20
-2.1827
  0
LWPOLYLINE
  5
164
330
12
100
AcDbEntity
  8
SPL_200MHZ_A1_DRD
  6
BYLAYER
370
   211
 62
   256
100
AcDbPolyline
 90
     2
 70
     0
 43
0.006
 10
3.068
 20
-2.1535
 10
3.068
 20
-2.2093
  0
LWPOLYLINE
  5
165
330
12
100
AcDbEntity
  8
SPL_200MHZ_A1_DRD
  6
BYLAYER
370
   211
 62
   256
100
AcDbPolyline
 90
     2
 70
     0
 43
0.006
 10
3.1184
 20
-2.1721
 10
3.1184
 20
-2.2093
  0
LWPOLYLINE
  5
166
330
12
100
AcDbEntity
  8
SPL_200MHZ_A1_DRD
  6
BYLAYER
370
   211
 62
   256
100
AcDbPolyline
 90
    14
 70
     0
 43
0.006
 10
3.1184
 20
-2.1801
 10
3.1131
 20
-2.1748
 10
3.1078
 20
-2.1721
 10
3.0999
 20
-2.1721
 10
3.0945
 20
-2.1748
 10
3.0892
 20
-2.1801
 10
3.0866
 20
-2.1881
 10
3.0866
 20
-2.1934
 10
3.0892
 20
-2.2013
 10
3.0945
 20
-2.2066
 10
3.0999
 20
-2.2093
 10
3.1078
 20
-2.2093
 10
3.1131
 20
-2.2066
 10
3.1184
 20
-2.2013
  0
LWPOLYLINE
  5
167
330
12
100
AcDbEntity
  8
SPL_200MHZ_A1_DRD
  6
BYLAYER
370
   211
 62
   256
100
AcDbPolyline
 90
     5
 70
     0
 43
0.006
 10
3.1424
 20
-2.1535
 10
3.1424
 20
-2.1987
 10
3.145
 20
-2.2066
 10
3.1503
 20
-2.2093
 10
3.1556
 20
-2.2093
  0
LWPOLYLINE
  5
168
330
12
100
AcDbEntity
  8
SPL_200MHZ_A1_DRD
  6
BYLAYER
370
   211
 62
   256
100
AcDbPolyline
 90
     2
 70
     0
 43
0.006
 10
3.1344
 20
-2.1721
 10
3.153
 20
-2.1721
  0
LWPOLYLINE
  5
169
330
12
100
AcDbEntity
  8
SPL_200MHZ_A1_DRD
  6
BYLAYER
370
   211
 62
   256
100
AcDbPolyline
 90
    17
 70
     0
 43
0.006
 10
3.1689
 20
-2.1881
 10
3.2008
 20
-2.1881
 10
3.2008
 20
-2.1827
 10
3.1981
 20
-2.1774
 10
3.1955
 20
-2.1748
 10
3.1902
 20
-2.1721
 10
3.1822
 20
-2.1721
 10
3.1769
 20
-2.1748
 10
3.1716
 20
-2.1801
 10
3.1689
 20
-2.1881
 10
3.1689
 20
-2.1934
 10
3.1716
 20
-2.2013
 10
3.1769
 20
-2.2066
 10
3.1822
 20
-2.2093
 10
3.1902
 20
-2.2093
 10
3.1955
 20
-2.2066
 10
3.2008
 20
-2.2013
  0
LWPOLYLINE
  5
16A
330
12
100
AcDbEntity
  8
SPL_200MHZ_A1_DRD
  6
BYLAYER
370
   211
 62
   256
100
AcDbPolyline
 90
     2
 70
     0
 43
0.006
 10
3.2486
 20
-2.1535
 10
3.2486
 20
-2.2093
  0
LWPOLYLINE
  5
16B
330
12
100
AcDbEntity
  8
SPL_200MHZ_A1_DRD
  6
BYLAYER
370
   211
 62
   256
100
AcDbPolyline
 90
    14
 70
     0
 43
0.006
 10
3.2486
 20
-2.1801
 10
3.2433
 20
-2.1748
 10
3.238
 20
-2.1721
 10
3.23
 20
-2.1721
 10
3.2247
 20
-2.1748
 10
3.2194
 20
-2.1801
 10
3.2167
 20
-2.1881
 10
3.2167
 20
-2.1934
 10
3.2194
 20
-2.2013
 10
3.2247
 20
-2.2066
 10
3.23
 20
-2.2093
 10
3.238
 20
-2.2093
 10
3.2433
 20
-2.2066
 10
3.2486
 20
-2.2013
  0
TEXT
  5
16C
330
12
100
AcDbEntity
  8
SPL_200MHZ_A1_DRD
  6
BYLAYER
100
AcDbText
 10
2.793
 20
2.0261
 30
0.0
 40
0.0404191428167
  1
INPUT
 50
0.0
 51
0.0
  7
SIMPLE
100
AcDbText
  0
TEXT
  5
16D
330
12
100
AcDbEntity
  8
SPL_200MHZ_A1_DRD
  6
BYLAYER
100
AcDbText
 10
0.7245
 20
3.3457
 30
0.0
 40
0.0404191428167
  1
INPUT
 50
0.0
 51
0.0
  7
SIMPLE
100
AcDbText
  0
LWPOLYLINE
  5
16E
330
12
100
AcDbEntity
  8
SPL_200MHZ_A1_DRD
  6
BYLAYER
370
   211
 62
   256
100
AcDbPolyline
 90
     2
 70
     0
 43
0.006
 10
0.846
 20
3.3295
 10
0.853
 20
3.1419
  0
TEXT
  5
16F
330
12
100
AcDbEntity
  8
SPL_200MHZ_A1_DRD
  6
BYLAYER
100
AcDbText
 10
0.6203
 20
0.739
 30
0.0
 40
0.0404191428167
  1
INPUT
 50
0.0
 51
0.0
  7
SIMPLE
100
AcDbText
  0
LWPOLYLINE
  5
170
330
12
100
AcDbEntity
  8
SPL_200MHZ_A1_DRD
  6
BYLAYER
370
   211
 62
   256
100
AcDbPolyline
 90
     2
 70
     0
 43
0.006
 10
0.7916
 20
0.8177
 10
0.861
 20
0.9357
  0
TEXT
  5
171
330
12
100
AcDbEntity
  8
SPL_200MHZ_A1_DRD
  6
BYLAYER
100
AcDbText
 10
8.348
 20
0.5861
 30
0.0
 40
0.0404191428167
  1
OUT
 50
0.0
 51
0.0
  7
SIMPLE
100
AcDbText
  0
INSERT
  5
172
330
12
100
AcDbEntity
  8
SPL_200MHZ_A1_SMT
100
AcDbBlockReference
  2
ROUND_47
 10
2.51
 20
2.235
 30
0.0
  0
INSERT
  5
173
330
12
100
AcDbEntity
  8
SPL_200MHZ_A1_SMT
100
AcDbBlockReference
  2
ROUND_47
 10
2.51
 20
2.31
 30
0.0
  0
INSERT
  5
174
330
12
100
AcDbEntity
  8
SPL_200MHZ_A1_SMT
100
AcDbBlockReference
  2
ROUND_47
 10
2.51
 20
2.385
 30
0.0
  0
INSERT
  5
175
330
12
100
AcDbEntity
  8
SPL_200MHZ_A1_SMT
100
AcDbBlockReference
  2
ROUND_47
 10
2.59
 20
2.235
 30
0.0
  0
INSERT
  5
176
330
12
100
AcDbEntity
  8
SPL_200MHZ_A1_SMT
100
AcDbBlockReference
  2
ROUND_47
 10
2.675
 20
2.235
 30
0.0
  0
INSERT
  5
177
330
12
100
AcDbEntity
  8
SPL_200MHZ_A1_SMT
100
AcDbBlockReference
  2
ROUND_47
 10
0.705
 20
1.085
 30
0.0
  0
INSERT
  5
178
330
12
100
AcDbEntity
  8
SPL_200MHZ_A1_SMT
100
AcDbBlockReference
  2
ROUND_47
 10
0.74
 20
1.145
 30
0.0
  0
INSERT
  5
179
330
12
100
AcDbEntity
  8
SPL_200MHZ_A1_SMT
100
AcDbBlockReference
  2
ROUND_47
 10
0.77
 20
1.205
 30
0.0
  0
INSERT
  5
17A
330
12
100
AcDbEntity
  8
SPL_200MHZ_A1_SMT
100
AcDbBlockReference
  2
ROUND_47
 10
0.805
 20
1.26
 30
0.0
  0
INSERT
  5
17B
330
12
100
AcDbEntity
  8
SPL_200MHZ_A1_SMT
100
AcDbBlockReference
  2
ROUND_47
 10
0.69
 20
1.325
 30
0.0
  0
INSERT
  5
17C
330
12
100
AcDbEntity
  8
SPL_200MHZ_A1_SMT
100
AcDbBlockReference
  2
ROUND_47
 10
0.745
 20
1.295
 30
0.0
  0
INSERT
  5
17D
330
12
100
AcDbEntity
  8
SPL_200MHZ_A1_SMT
100
AcDbBlockReference
  2
ROUND_47
 10
0.71
 20
2.755
 30
0.0
  0
INSERT
  5
17E
330
12
100
AcDbEntity
  8
SPL_200MHZ_A1_SMT
100
AcDbBlockReference
  2
ROUND_47
 10
0.73
 20
2.96
 30
0.0
  0
INSERT
  5
17F
330
12
100
AcDbEntity
  8
SPL_200MHZ_A1_SMT
100
AcDbBlockReference
  2
ROUND_47
 10
0.76
 20
2.91
 30
0.0
  0
INSERT
  5
180
330
12
100
AcDbEntity
  8
SPL_200MHZ_A1_SMT
100
AcDbBlockReference
  2
ROUND_47
 10
0.785
 20
2.865
 30
0.0
  0
INSERT
  5
181
330
12
100
AcDbEntity
  8
SPL_200MHZ_A1_SMT
100
AcDbBlockReference
  2
ROUND_47
 10
0.815
 20
2.815
 30
0.0
  0
INSERT
  5
182
330
12
100
AcDbEntity
  8
SPL_200MHZ_A1_SMT
100
AcDbBlockReference
  2
ROUND_47
 10
0.765
 20
2.785
 30
0.0
  0
INSERT
  5
183
330
12
100
AcDbEntity
  8
SPL_200MHZ_A1_SMT
100
AcDbBlockReference
  2
ROUND_47
 10
0.7
 20
3.015
 30
0.0
  0
LWPOLYLINE
  5
184
330
12
100
AcDbEntity
  8
SPL_200MHZ_A1_SMT
  6
BYLAYER
370
   211
 62
   256
100
AcDbPolyline
 90
     2
 70
     0
 43
0.01
 10
0.7478
 20
2.9693
 10
0.7478
 20
2.7545
  0
LWPOLYLINE
  5
185
330
12
100
AcDbEntity
  8
SPL_200MHZ_A1_SMT
  6
BYLAYER
370
   211
 62
   256
100
AcDbPolyline
 90
     2
 70
     0
 43
0.01
 10
0.7388
 20
2.9849
 10
0.7388
 20
2.7493
  0
LWPOLYLINE
  5
186
330
12
100
AcDbEntity
  8
SPL_200MHZ_A1_SMT
  6
BYLAYER
370
   211
 62
   256
100
AcDbPolyline
 90
     2
 70
     0
 43
0.01
 10
0.7298
 20
3.0005
 10
0.7298
 20
2.7441
  0
LWPOLYLINE
  5
187
330
12
100
AcDbEntity
  8
SPL_200MHZ_A1_SMT
  6
BYLAYER
370
   211
 62
   256
100
AcDbPolyline
 90
     2
 70
     0
 43
0.01
 10
0.7208
 20
3.0161
 10
0.7208
 20
2.7389
  0
LWPOLYLINE
  5
188
330
12
100
AcDbEntity
  8
SPL_200MHZ_A1_SMT
  6
BYLAYER
370
   211
 62
   256
100
AcDbPolyline
 90
     2
 70
     0
 43
0.01
 10
0.7118
 20
3.0317
 10
0.7118
 20
2.7337
  0
LWPOLYLINE
  5
189
330
12
100
AcDbEntity
  8
SPL_200MHZ_A1_SMT
  6
BYLAYER
370
   211
 62
   256
100
AcDbPolyline
 90
     2
 70
     0
 43
0.01
 10
0.7028
 20
3.0422
 10
0.7028
 20
2.7285
  0
LWPOLYLINE
  5
18A
330
12
100
AcDbEntity
  8
SPL_200MHZ_A1_SMT
  6
BYLAYER
370
   211
 62
   256
100
AcDbPolyline
 90
     2
 70
     0
 43
0.01
 10
0.6938
 20
3.037
 10
0.6938
 20
2.7233
  0
LWPOLYLINE
  5
18B
330
12
100
AcDbEntity
  8
SPL_200MHZ_A1_SMT
  6
BYLAYER
370
   211
 62
   256
100
AcDbPolyline
 90
     2
 70
     0
 43
0.01
 10
0.6848
 20
3.0318
 10
0.6848
 20
2.7181
  0
LWPOLYLINE
  5
18C
330
12
100
AcDbEntity
  8
SPL_200MHZ_A1_SMT
  6
BYLAYER
370
   211
 62
   256
100
AcDbPolyline
 90
     2
 70
     0
 43
0.01
 10
0.6758
 20
3.0266
 10
0.6758
 20
2.7129
  0
LWPOLYLINE
  5
18D
330
12
100
AcDbEntity
  8
SPL_200MHZ_A1_SMT
  6
BYLAYER
370
   211
 62
   256
100
AcDbPolyline
 90
     2
 70
     0
 43
0.01
 10
0.6668
 20
3.0214
 10
0.6668
 20
2.7077
  0
LWPOLYLINE
  5
18E
330
12
100
AcDbEntity
  8
SPL_200MHZ_A1_SMT
  6
BYLAYER
370
   211
 62
   256
100
AcDbPolyline
 90
     2
 70
     0
 43
0.01
 10
0.6578
 20
3.0162
 10
0.6578
 20
2.7025
  0
LWPOLYLINE
  5
18F
330
12
100
AcDbEntity
  8
SPL_200MHZ_A1_SMT
  6
BYLAYER
370
   211
 62
   256
100
AcDbPolyline
 90
     2
 70
     0
 43
0.01
 10
0.6488
 20
3.011
 10
0.6488
 20
2.7107
  0
LWPOLYLINE
  5
190
330
12
100
AcDbEntity
  8
SPL_200MHZ_A1_SMT
  6
BYLAYER
370
   211
 62
   256
100
AcDbPolyline
 90
     2
 70
     0
 43
0.01
 10
0.6398
 20
3.0058
 10
0.6398
 20
2.7263
  0
LWPOLYLINE
  5
191
330
12
100
AcDbEntity
  8
SPL_200MHZ_A1_SMT
  6
BYLAYER
370
   211
 62
   256
100
AcDbPolyline
 90
     2
 70
     0
 43
0.01
 10
0.6308
 20
3.0006
 10
0.6308
 20
2.7419
  0
LWPOLYLINE
  5
192
330
12
100
AcDbEntity
  8
SPL_200MHZ_A1_SMT
  6
BYLAYER
370
   211
 62
   256
100
AcDbPolyline
 90
     2
 70
     0
 43
0.01
 10
0.6218
 20
2.9954
 10
0.6218
 20
2.7575
  0
LWPOLYLINE
  5
193
330
12
100
AcDbEntity
  8
SPL_200MHZ_A1_SMT
  6
BYLAYER
370
   211
 62
   256
100
AcDbPolyline
 90
     2
 70
     0
 43
0.01
 10
0.6128
 20
2.9902
 10
0.6128
 20
2.773
  0
LWPOLYLINE
  5
194
330
12
100
AcDbEntity
  8
SPL_200MHZ_A1_SMT
  6
BYLAYER
370
   211
 62
   256
100
AcDbPolyline
 90
     2
 70
     0
 43
0.01
 10
0.6038
 20
2.985
 10
0.6038
 20
2.7886
  0
LWPOLYLINE
  5
195
330
12
100
AcDbEntity
  8
SPL_200MHZ_A1_SMT
  6
BYLAYER
370
   211
 62
   256
100
AcDbPolyline
 90
     2
 70
     0
 43
0.01
 10
0.5948
 20
2.9798
 10
0.5948
 20
2.8042
  0
LWPOLYLINE
  5
196
330
12
100
AcDbEntity
  8
SPL_200MHZ_A1_SMT
  6
BYLAYER
370
   211
 62
   256
100
AcDbPolyline
 90
     2
 70
     0
 43
0.01
 10
0.5858
 20
2.9746
 10
0.5858
 20
2.8198
  0
LWPOLYLINE
  5
197
330
12
100
AcDbEntity
  8
SPL_200MHZ_A1_SMT
  6
BYLAYER
370
   211
 62
   256
100
AcDbPolyline
 90
     2
 70
     0
 43
0.01
 10
0.5768
 20
2.9694
 10
0.5768
 20
2.8354
  0
LWPOLYLINE
  5
198
330
12
100
AcDbEntity
  8
SPL_200MHZ_A1_SMT
  6
BYLAYER
370
   211
 62
   256
100
AcDbPolyline
 90
     2
 70
     0
 43
0.01
 10
0.5678
 20
2.9642
 10
0.5678
 20
2.851
  0
LWPOLYLINE
  5
199
330
12
100
AcDbEntity
  8
SPL_200MHZ_A1_SMT
  6
BYLAYER
370
   211
 62
   256
100
AcDbPolyline
 90
     2
 70
     0
 43
0.01
 10
0.5588
 20
2.959
 10
0.5588
 20
2.8666
  0
LWPOLYLINE
  5
19A
330
12
100
AcDbEntity
  8
SPL_200MHZ_A1_SMT
  6
BYLAYER
370
   211
 62
   256
100
AcDbPolyline
 90
     2
 70
     0
 43
0.01
 10
0.5498
 20
2.9538
 10
0.5498
 20
2.8822
  0
LWPOLYLINE
  5
19B
330
12
100
AcDbEntity
  8
SPL_200MHZ_A1_SMT
  6
BYLAYER
370
   211
 62
   256
100
AcDbPolyline
 90
     2
 70
     0
 43
0.01
 10
0.5408
 20
2.9486
 10
0.5408
 20
2.8977
  0
LWPOLYLINE
  5
19C
330
12
100
AcDbEntity
  8
SPL_200MHZ_A1_SMT
  6
BYLAYER
370
   211
 62
   256
100
AcDbPolyline
 90
     2
 70
     0
 43
0.01
 10
0.5318
 20
2.9434
 10
0.5318
 20
2.9133
  0
LWPOLYLINE
  5
19D
330
12
100
AcDbEntity
  8
SPL_200MHZ_A1_SMT
  6
BYLAYER
370
   211
 62
   256
100
AcDbPolyline
 90
     2
 70
     0
 43
0.01
 10
0.5228
 20
2.9382
 10
0.5228
 20
2.9289
  0
LWPOLYLINE
  5
19E
330
12
100
AcDbEntity
  8
SPL_200MHZ_A1_SMT
  6
BYLAYER
370
   211
 62
   256
100
AcDbPolyline
 90
     2
 70
     0
 43
0.01
 10
0.7083
 20
3.0377
 10
0.6949
 20
3.0377
  0
LWPOLYLINE
  5
19F
330
12
100
AcDbEntity
  8
SPL_200MHZ_A1_SMT
  6
BYLAYER
370
   211
 62
   256
100
AcDbPolyline
 90
     2
 70
     0
 43
0.01
 10
0.7135
 20
3.0287
 10
0.6794
 20
3.0287
  0
LWPOLYLINE
  5
1A0
330
12
100
AcDbEntity
  8
SPL_200MHZ_A1_SMT
  6
BYLAYER
370
   211
 62
   256
100
AcDbPolyline
 90
     2
 70
     0
 43
0.01
 10
0.7187
 20
3.0197
 10
0.6638
 20
3.0197
  0
LWPOLYLINE
  5
1A1
330
12
100
AcDbEntity
  8
SPL_200MHZ_A1_SMT
  6
BYLAYER
370
   211
 62
   256
100
AcDbPolyline
 90
     2
 70
     0
 43
0.01
 10
0.7239
 20
3.0107
 10
0.6482
 20
3.0107
  0
LWPOLYLINE
  5
1A2
330
12
100
AcDbEntity
  8
SPL_200MHZ_A1_SMT
  6
BYLAYER
370
   211
 62
   256
100
AcDbPolyline
 90
     2
 70
     0
 43
0.01
 10
0.7291
 20
3.0017
 10
0.6326
 20
3.0017
  0
LWPOLYLINE
  5
1A3
330
12
100
AcDbEntity
  8
SPL_200MHZ_A1_SMT
  6
BYLAYER
370
   211
 62
   256
100
AcDbPolyline
 90
     2
 70
     0
 43
0.01
 10
0.7343
 20
2.9927
 10
0.6171
 20
2.9927
  0
LWPOLYLINE
  5
1A4
330
12
100
AcDbEntity
  8
SPL_200MHZ_A1_SMT
  6
BYLAYER
370
   211
 62
   256
100
AcDbPolyline
 90
     2
 70
     0
 43
0.01
 10
0.7395
 20
2.9837
 10
0.6015
 20
2.9837
  0
LWPOLYLINE
  5
1A5
330
12
100
AcDbEntity
  8
SPL_200MHZ_A1_SMT
  6
BYLAYER
370
   211
 62
   256
100
AcDbPolyline
 90
     2
 70
     0
 43
0.01
 10
0.7447
 20
2.9747
 10
0.5859
 20
2.9747
  0
LWPOLYLINE
  5
1A6
330
12
100
AcDbEntity
  8
SPL_200MHZ_A1_SMT
  6
BYLAYER
370
   211
 62
   256
100
AcDbPolyline
 90
     2
 70
     0
 43
0.01
 10
0.7499
 20
2.9657
 10
0.5704
 20
2.9657
  0
LWPOLYLINE
  5
1A7
330
12
100
AcDbEntity
  8
SPL_200MHZ_A1_SMT
  6
BYLAYER
370
   211
 62
   256
100
AcDbPolyline
 90
     2
 70
     0
 43
0.01
 10
0.7551
 20
2.9567
 10
0.5548
 20
2.9567
  0
LWPOLYLINE
  5
1A8
330
12
100
AcDbEntity
  8
SPL_200MHZ_A1_SMT
  6
BYLAYER
370
   211
 62
   256
100
AcDbPolyline
 90
     2
 70
     0
 43
0.01
 10
0.7603
 20
2.9477
 10
0.5392
 20
2.9477
  0
LWPOLYLINE
  5
1A9
330
12
100
AcDbEntity
  8
SPL_200MHZ_A1_SMT
  6
BYLAYER
370
   211
 62
   256
100
AcDbPolyline
 90
     2
 70
     0
 43
0.01
 10
0.7655
 20
2.9387
 10
0.5236
 20
2.9387
  0
LWPOLYLINE
  5
1AA
330
12
100
AcDbEntity
  8
SPL_200MHZ_A1_SMT
  6
BYLAYER
370
   211
 62
   256
100
AcDbPolyline
 90
     2
 70
     0
 43
0.01
 10
0.7707
 20
2.9297
 10
0.5224
 20
2.9297
  0
LWPOLYLINE
  5
1AB
330
12
100
AcDbEntity
  8
SPL_200MHZ_A1_SMT
  6
BYLAYER
370
   211
 62
   256
100
AcDbPolyline
 90
     2
 70
     0
 43
0.01
 10
0.7759
 20
2.9207
 10
0.5276
 20
2.9207
  0
LWPOLYLINE
  5
1AC
330
12
100
AcDbEntity
  8
SPL_200MHZ_A1_SMT
  6
BYLAYER
370
   211
 62
   256
100
AcDbPolyline
 90
     2
 70
     0
 43
0.01
 10
0.7811
 20
2.9117
 10
0.5328
 20
2.9117
  0
LWPOLYLINE
  5
1AD
330
12
100
AcDbEntity
  8
SPL_200MHZ_A1_SMT
  6
BYLAYER
370
   211
 62
   256
100
AcDbPolyline
 90
     2
 70
     0
 43
0.01
 10
0.7863
 20
2.9027
 10
0.538
 20
2.9027
  0
LWPOLYLINE
  5
1AE
330
12
100
AcDbEntity
  8
SPL_200MHZ_A1_SMT
  6
BYLAYER
370
   211
 62
   256
100
AcDbPolyline
 90
     2
 70
     0
 43
0.01
 10
0.7915
 20
2.8937
 10
0.5431
 20
2.8937
  0
LWPOLYLINE
  5
1AF
330
12
100
AcDbEntity
  8
SPL_200MHZ_A1_SMT
  6
BYLAYER
370
   211
 62
   256
100
AcDbPolyline
 90
     2
 70
     0
 43
0.01
 10
0.7967
 20
2.8847
 10
0.5483
 20
2.8847
  0
LWPOLYLINE
  5
1B0
330
12
100
AcDbEntity
  8
SPL_200MHZ_A1_SMT
  6
BYLAYER
370
   211
 62
   256
100
AcDbPolyline
 90
     2
 70
     0
 43
0.01
 10
0.8019
 20
2.8757
 10
0.5535
 20
2.8757
  0
LWPOLYLINE
  5
1B1
330
12
100
AcDbEntity
  8
SPL_200MHZ_A1_SMT
  6
BYLAYER
370
   211
 62
   256
100
AcDbPolyline
 90
     2
 70
     0
 43
0.01
 10
0.8071
 20
2.8667
 10
0.5587
 20
2.8667
  0
LWPOLYLINE
  5
1B2
330
12
100
AcDbEntity
  8
SPL_200MHZ_A1_SMT
  6
BYLAYER
370
   211
 62
   256
100
AcDbPolyline
 90
     2
 70
     0
 43
0.01
 10
0.8123
 20
2.8577
 10
0.5639
 20
2.8577
  0
LWPOLYLINE
  5
1B3
330
12
100
AcDbEntity
  8
SPL_200MHZ_A1_SMT
  6
BYLAYER
370
   211
 62
   256
100
AcDbPolyline
 90
     2
 70
     0
 43
0.01
 10
0.8175
 20
2.8487
 10
0.5691
 20
2.8487
  0
LWPOLYLINE
  5
1B4
330
12
100
AcDbEntity
  8
SPL_200MHZ_A1_SMT
  6
BYLAYER
370
   211
 62
   256
100
AcDbPolyline
 90
     2
 70
     0
 43
0.01
 10
0.8227
 20
2.8397
 10
0.5743
 20
2.8397
  0
LWPOLYLINE
  5
1B5
330
12
100
AcDbEntity
  8
SPL_200MHZ_A1_SMT
  6
BYLAYER
370
   211
 62
   256
100
AcDbPolyline
 90
     2
 70
     0
 43
0.01
 10
0.8279
 20
2.8307
 10
0.5795
 20
2.8307
  0
LWPOLYLINE
  5
1B6
330
12
100
AcDbEntity
  8
SPL_200MHZ_A1_SMT
  6
BYLAYER
370
   211
 62
   256
100
AcDbPolyline
 90
     2
 70
     0
 43
0.01
 10
0.833
 20
2.8217
 10
0.5847
 20
2.8217
  0
LWPOLYLINE
  5
1B7
330
12
100
AcDbEntity
  8
SPL_200MHZ_A1_SMT
  6
BYLAYER
370
   211
 62
   256
100
AcDbPolyline
 90
     2
 70
     0
 43
0.01
 10
0.8382
 20
2.8127
 10
0.5899
 20
2.8127
  0
LWPOLYLINE
  5
1B8
330
12
100
AcDbEntity
  8
SPL_200MHZ_A1_SMT
  6
BYLAYER
370
   211
 62
   256
100
AcDbPolyline
 90
     2
 70
     0
 43
0.01
 10
0.8328
 20
2.8037
 10
0.5951
 20
2.8037
  0
LWPOLYLINE
  5
1B9
330
12
100
AcDbEntity
  8
SPL_200MHZ_A1_SMT
  6
BYLAYER
370
   211
 62
   256
100
AcDbPolyline
 90
     2
 70
     0
 43
0.01
 10
0.8172
 20
2.7947
 10
0.6003
 20
2.7947
  0
LWPOLYLINE
  5
1BA
330
12
100
AcDbEntity
  8
SPL_200MHZ_A1_SMT
  6
BYLAYER
370
   211
 62
   256
100
AcDbPolyline
 90
     2
 70
     0
 43
0.01
 10
0.8017
 20
2.7857
 10
0.6055
 20
2.7857
  0
LWPOLYLINE
  5
1BB
330
12
100
AcDbEntity
  8
SPL_200MHZ_A1_SMT
  6
BYLAYER
370
   211
 62
   256
100
AcDbPolyline
 90
     2
 70
     0
 43
0.01
 10
0.7861
 20
2.7767
 10
0.6107
 20
2.7767
  0
LWPOLYLINE
  5
1BC
330
12
100
AcDbEntity
  8
SPL_200MHZ_A1_SMT
  6
BYLAYER
370
   211
 62
   256
100
AcDbPolyline
 90
     2
 70
     0
 43
0.01
 10
0.7705
 20
2.7677
 10
0.6159
 20
2.7677
  0
LWPOLYLINE
  5
1BD
330
12
100
AcDbEntity
  8
SPL_200MHZ_A1_SMT
  6
BYLAYER
370
   211
 62
   256
100
AcDbPolyline
 90
     2
 70
     0
 43
0.01
 10
0.755
 20
2.7587
 10
0.6211
 20
2.7587
  0
LWPOLYLINE
  5
1BE
330
12
100
AcDbEntity
  8
SPL_200MHZ_A1_SMT
  6
BYLAYER
370
   211
 62
   256
100
AcDbPolyline
 90
     2
 70
     0
 43
0.01
 10
0.7394
 20
2.7497
 10
0.6263
 20
2.7497
  0
LWPOLYLINE
  5
1BF
330
12
100
AcDbEntity
  8
SPL_200MHZ_A1_SMT
  6
BYLAYER
370
   211
 62
   256
100
AcDbPolyline
 90
     2
 70
     0
 43
0.01
 10
0.7238
 20
2.7407
 10
0.6315
 20
2.7407
  0
LWPOLYLINE
  5
1C0
330
12
100
AcDbEntity
  8
SPL_200MHZ_A1_SMT
  6
BYLAYER
370
   211
 62
   256
100
AcDbPolyline
 90
     2
 70
     0
 43
0.01
 10
0.7082
 20
2.7317
 10
0.6367
 20
2.7317
  0
LWPOLYLINE
  5
1C1
330
12
100
AcDbEntity
  8
SPL_200MHZ_A1_SMT
  6
BYLAYER
370
   211
 62
   256
100
AcDbPolyline
 90
     2
 70
     0
 43
0.01
 10
0.6927
 20
2.7227
 10
0.6419
 20
2.7227
  0
LWPOLYLINE
  5
1C2
330
12
100
AcDbEntity
  8
SPL_200MHZ_A1_SMT
  6
BYLAYER
370
   211
 62
   256
100
AcDbPolyline
 90
     2
 70
     0
 43
0.01
 10
0.6771
 20
2.7137
 10
0.6471
 20
2.7137
  0
LWPOLYLINE
  5
1C3
330
12
100
AcDbEntity
  8
SPL_200MHZ_A1_SMT
  6
BYLAYER
370
   211
 62
   256
100
AcDbPolyline
 90
     2
 70
     0
 43
0.01
 10
0.6615
 20
2.7047
 10
0.6523
 20
2.7047
  0
LWPOLYLINE
  5
1C4
330
12
100
AcDbEntity
  8
SPL_200MHZ_A1_SMT
  6
BYLAYER
370
   211
 62
   256
100
AcDbPolyline
 90
     2
 70
     0
 43
0.01
 10
0.705
 20
3.0435
 10
0.5188
 20
2.9359
  0
LWPOLYLINE
  5
1C5
330
12
100
AcDbEntity
  8
SPL_200MHZ_A1_SMT
  6
BYLAYER
370
   211
 62
   256
100
AcDbPolyline
 90
     3
 70
     0
 43
0.01
 10
0.705
 20
3.0435
 10
0.8408
 20
2.8083
 10
0.6546
 20
2.7007
  0
LWPOLYLINE
  5
1C6
330
12
100
AcDbEntity
  8
SPL_200MHZ_A1_SMT
  6
BYLAYER
370
   211
 62
   256
100
AcDbPolyline
 90
     2
 70
     0
 43
0.01
 10
0.5188
 20
2.9359
 10
0.6546
 20
2.7007
  0
LWPOLYLINE
  5
1C7
330
12
100
AcDbEntity
  8
SPL_200MHZ_A1_SMT
  6
BYLAYER
370
   211
 62
   256
100
AcDbPolyline
 90
     2
 70
     0
 43
0.01
 10
0.8378
 20
2.8134
 10
0.8378
 20
2.8065
  0
LWPOLYLINE
  5
1C8
330
12
100
AcDbEntity
  8
SPL_200MHZ_A1_SMT
  6
BYLAYER
370
   211
 62
   256
100
AcDbPolyline
 90
     2
 70
     0
 43
0.01
 10
0.8288
 20
2.829
 10
0.8288
 20
2.8013
  0
LWPOLYLINE
  5
1C9
330
12
100
AcDbEntity
  8
SPL_200MHZ_A1_SMT
  6
BYLAYER
370
   211
 62
   256
100
AcDbPolyline
 90
     2
 70
     0
 43
0.01
 10
0.8198
 20
2.8446
 10
0.8198
 20
2.7961
  0
LWPOLYLINE
  5
1CA
330
12
100
AcDbEntity
  8
SPL_200MHZ_A1_SMT
  6
BYLAYER
370
   211
 62
   256
100
AcDbPolyline
 90
     2
 70
     0
 43
0.01
 10
0.8108
 20
2.8602
 10
0.8108
 20
2.7909
  0
LWPOLYLINE
  5
1CB
330
12
100
AcDbEntity
  8
SPL_200MHZ_A1_SMT
  6
BYLAYER
370
   211
 62
   256
100
AcDbPolyline
 90
     2
 70
     0
 43
0.01
 10
0.8018
 20
2.8758
 10
0.8018
 20
2.7857
  0
LWPOLYLINE
  5
1CC
330
12
100
AcDbEntity
  8
SPL_200MHZ_A1_SMT
  6
BYLAYER
370
   211
 62
   256
100
AcDbPolyline
 90
     2
 70
     0
 43
0.01
 10
0.7928
 20
2.8914
 10
0.7928
 20
2.7805
  0
LWPOLYLINE
  5
1CD
330
12
100
AcDbEntity
  8
SPL_200MHZ_A1_SMT
  6
BYLAYER
370
   211
 62
   256
100
AcDbPolyline
 90
     2
 70
     0
 43
0.01
 10
0.7838
 20
2.907
 10
0.7838
 20
2.7753
  0
LWPOLYLINE
  5
1CE
330
12
100
AcDbEntity
  8
SPL_200MHZ_A1_SMT
  6
BYLAYER
370
   211
 62
   256
100
AcDbPolyline
 90
     2
 70
     0
 43
0.01
 10
0.7748
 20
2.9226
 10
0.7748
 20
2.7701
  0
LWPOLYLINE
  5
1CF
330
12
100
AcDbEntity
  8
SPL_200MHZ_A1_SMT
  6
BYLAYER
370
   211
 62
   256
100
AcDbPolyline
 90
     2
 70
     0
 43
0.01
 10
0.7658
 20
2.9381
 10
0.7658
 20
2.7649
  0
LWPOLYLINE
  5
1D0
330
12
100
AcDbEntity
  8
SPL_200MHZ_A1_SMT
  6
BYLAYER
370
   211
 62
   256
100
AcDbPolyline
 90
     2
 70
     0
 43
0.01
 10
0.7568
 20
2.9537
 10
0.7568
 20
2.7597
  0
LWPOLYLINE
  5
1D1
330
12
100
AcDbEntity
  8
SPL_200MHZ_A1_SMT
  6
BYLAYER
370
   211
 62
   256
100
AcDbPolyline
 90
     2
 70
     0
 43
0.01
 10
2.565
 20
2.444
 10
2.565
 20
2.214
  0
LWPOLYLINE
  5
1D2
330
12
100
AcDbEntity
  8
SPL_200MHZ_A1_SMT
  6
BYLAYER
370
   211
 62
   256
100
AcDbPolyline
 90
     2
 70
     0
 43
0.01
 10
2.556
 20
2.444
 10
2.556
 20
2.214
  0
LWPOLYLINE
  5
1D3
330
12
100
AcDbEntity
  8
SPL_200MHZ_A1_SMT
  6
BYLAYER
370
   211
 62
   256
100
AcDbPolyline
 90
     2
 70
     0
 43
0.01
 10
2.547
 20
2.444
 10
2.547
 20
2.214
  0
LWPOLYLINE
  5
1D4
330
12
100
AcDbEntity
  8
SPL_200MHZ_A1_SMT
  6
BYLAYER
370
   211
 62
   256
100
AcDbPolyline
 90
     2
 70
     0
 43
0.01
 10
2.538
 20
2.444
 10
2.538
 20
2.214
  0
LWPOLYLINE
  5
1D5
330
12
100
AcDbEntity
  8
SPL_200MHZ_A1_SMT
  6
BYLAYER
370
   211
 62
   256
100
AcDbPolyline
 90
     2
 70
     0
 43
0.01
 10
2.529
 20
2.444
 10
2.529
 20
2.214
  0
LWPOLYLINE
  5
1D6
330
12
100
AcDbEntity
  8
SPL_200MHZ_A1_SMT
  6
BYLAYER
370
   211
 62
   256
100
AcDbPolyline
 90
     2
 70
     0
 43
0.01
 10
2.52
 20
2.444
 10
2.52
 20
2.214
  0
LWPOLYLINE
  5
1D7
330
12
100
AcDbEntity
  8
SPL_200MHZ_A1_SMT
  6
BYLAYER
370
   211
 62
   256
100
AcDbPolyline
 90
     2
 70
     0
 43
0.01
 10
2.511
 20
2.444
 10
2.511
 20
2.214
  0
LWPOLYLINE
  5
1D8
330
12
100
AcDbEntity
  8
SPL_200MHZ_A1_SMT
  6
BYLAYER
370
   211
 62
   256
100
AcDbPolyline
 90
     2
 70
     0
 43
0.01
 10
2.502
 20
2.444
 10
2.502
 20
2.214
  0
LWPOLYLINE
  5
1D9
330
12
100
AcDbEntity
  8
SPL_200MHZ_A1_SMT
  6
BYLAYER
370
   211
 62
   256
100
AcDbPolyline
 90
     2
 70
     0
 43
0.01
 10
2.493
 20
2.444
 10
2.493
 20
2.214
  0
LWPOLYLINE
  5
1DA
330
12
100
AcDbEntity
  8
SPL_200MHZ_A1_SMT
  6
BYLAYER
370
   211
 62
   256
100
AcDbPolyline
 90
     2
 70
     0
 43
0.01
 10
2.484
 20
2.444
 10
2.484
 20
2.214
  0
LWPOLYLINE
  5
1DB
330
12
100
AcDbEntity
  8
SPL_200MHZ_A1_SMT
  6
BYLAYER
370
   211
 62
   256
100
AcDbPolyline
 90
     2
 70
     0
 43
0.01
 10
2.745
 20
2.443
 10
2.48
 20
2.443
  0
LWPOLYLINE
  5
1DC
330
12
100
AcDbEntity
  8
SPL_200MHZ_A1_SMT
  6
BYLAYER
370
   211
 62
   256
100
AcDbPolyline
 90
     2
 70
     0
 43
0.01
 10
2.745
 20
2.434
 10
2.48
 20
2.434
  0
LWPOLYLINE
  5
1DD
330
12
100
AcDbEntity
  8
SPL_200MHZ_A1_SMT
  6
BYLAYER
370
   211
 62
   256
100
AcDbPolyline
 90
     2
 70
     0
 43
0.01
 10
2.745
 20
2.425
 10
2.48
 20
2.425
  0
LWPOLYLINE
  5
1DE
330
12
100
AcDbEntity
  8
SPL_200MHZ_A1_SMT
  6
BYLAYER
370
   211
 62
   256
100
AcDbPolyline
 90
     2
 70
     0
 43
0.01
 10
2.745
 20
2.416
 10
2.48
 20
2.416
  0
LWPOLYLINE
  5
1DF
330
12
100
AcDbEntity
  8
SPL_200MHZ_A1_SMT
  6
BYLAYER
370
   211
 62
   256
100
AcDbPolyline
 90
     2
 70
     0
 43
0.01
 10
2.745
 20
2.407
 10
2.48
 20
2.407
  0
LWPOLYLINE
  5
1E0
330
12
100
AcDbEntity
  8
SPL_200MHZ_A1_SMT
  6
BYLAYER
370
   211
 62
   256
100
AcDbPolyline
 90
     2
 70
     0
 43
0.01
 10
2.745
 20
2.398
 10
2.48
 20
2.398
  0
LWPOLYLINE
  5
1E1
330
12
100
AcDbEntity
  8
SPL_200MHZ_A1_SMT
  6
BYLAYER
370
   211
 62
   256
100
AcDbPolyline
 90
     2
 70
     0
 43
0.01
 10
2.745
 20
2.389
 10
2.48
 20
2.389
  0
LWPOLYLINE
  5
1E2
330
12
100
AcDbEntity
  8
SPL_200MHZ_A1_SMT
  6
BYLAYER
370
   211
 62
   256
100
AcDbPolyline
 90
     2
 70
     0
 43
0.01
 10
2.745
 20
2.38
 10
2.48
 20
2.38
  0
LWPOLYLINE
  5
1E3
330
12
100
AcDbEntity
  8
SPL_200MHZ_A1_SMT
  6
BYLAYER
370
   211
 62
   256
100
AcDbPolyline
 90
     2
 70
     0
 43
0.01
 10
2.745
 20
2.371
 10
2.48
 20
2.371
  0
LWPOLYLINE
  5
1E4
330
12
100
AcDbEntity
  8
SPL_200MHZ_A1_SMT
  6
BYLAYER
370
   211
 62
   256
100
AcDbPolyline
 90
     2
 70
     0
 43
0.01
 10
2.745
 20
2.362
 10
2.48
 20
2.362
  0
LWPOLYLINE
  5
1E5
330
12
100
AcDbEntity
  8
SPL_200MHZ_A1_SMT
  6
BYLAYER
370
   211
 62
   256
100
AcDbPolyline
 90
     2
 70
     0
 43
0.01
 10
2.745
 20
2.353
 10
2.48
 20
2.353
  0
LWPOLYLINE
  5
1E6
330
12
100
AcDbEntity
  8
SPL_200MHZ_A1_SMT
  6
BYLAYER
370
   211
 62
   256
100
AcDbPolyline
 90
     2
 70
     0
 43
0.01
 10
2.745
 20
2.344
 10
2.48
 20
2.344
  0
LWPOLYLINE
  5
1E7
330
12
100
AcDbEntity
  8
SPL_200MHZ_A1_SMT
  6
BYLAYER
370
   211
 62
   256
100
AcDbPolyline
 90
     2
 70
     0
 43
0.01
 10
2.745
 20
2.335
 10
2.48
 20
2.335
  0
LWPOLYLINE
  5
1E8
330
12
100
AcDbEntity
  8
SPL_200MHZ_A1_SMT
  6
BYLAYER
370
   211
 62
   256
100
AcDbPolyline
 90
     2
 70
     0
 43
0.01
 10
2.745
 20
2.326
 10
2.48
 20
2.326
  0
LWPOLYLINE
  5
1E9
330
12
100
AcDbEntity
  8
SPL_200MHZ_A1_SMT
  6
BYLAYER
370
   211
 62
   256
100
AcDbPolyline
 90
     2
 70
     0
 43
0.01
 10
2.745
 20
2.317
 10
2.48
 20
2.317
  0
LWPOLYLINE
  5
1EA
330
12
100
AcDbEntity
  8
SPL_200MHZ_A1_SMT
  6
BYLAYER
370
   211
 62
   256
100
AcDbPolyline
 90
     2
 70
     0
 43
0.01
 10
2.745
 20
2.308
 10
2.48
 20
2.308
  0
LWPOLYLINE
  5
1EB
330
12
100
AcDbEntity
  8
SPL_200MHZ_A1_SMT
  6
BYLAYER
370
   211
 62
   256
100
AcDbPolyline
 90
     2
 70
     0
 43
0.01
 10
2.745
 20
2.299
 10
2.48
 20
2.299
  0
LWPOLYLINE
  5
1EC
330
12
100
AcDbEntity
  8
SPL_200MHZ_A1_SMT
  6
BYLAYER
370
   211
 62
   256
100
AcDbPolyline
 90
     2
 70
     0
 43
0.01
 10
2.745
 20
2.29
 10
2.48
 20
2.29
  0
LWPOLYLINE
  5
1ED
330
12
100
AcDbEntity
  8
SPL_200MHZ_A1_SMT
  6
BYLAYER
370
   211
 62
   256
100
AcDbPolyline
 90
     2
 70
     0
 43
0.01
 10
2.745
 20
2.281
 10
2.48
 20
2.281
  0
LWPOLYLINE
  5
1EE
330
12
100
AcDbEntity
  8
SPL_200MHZ_A1_SMT
  6
BYLAYER
370
   211
 62
   256
100
AcDbPolyline
 90
     2
 70
     0
 43
0.01
 10
2.745
 20
2.272
 10
2.48
 20
2.272
  0
LWPOLYLINE
  5
1EF
330
12
100
AcDbEntity
  8
SPL_200MHZ_A1_SMT
  6
BYLAYER
370
   211
 62
   256
100
AcDbPolyline
 90
     2
 70
     0
 43
0.01
 10
2.745
 20
2.263
 10
2.48
 20
2.263
  0
LWPOLYLINE
  5
1F0
330
12
100
AcDbEntity
  8
SPL_200MHZ_A1_SMT
  6
BYLAYER
370
   211
 62
   256
100
AcDbPolyline
 90
     2
 70
     0
 43
0.01
 10
2.745
 20
2.254
 10
2.48
 20
2.254
  0
LWPOLYLINE
  5
1F1
330
12
100
AcDbEntity
  8
SPL_200MHZ_A1_SMT
  6
BYLAYER
370
   211
 62
   256
100
AcDbPolyline
 90
     2
 70
     0
 43
0.01
 10
2.745
 20
2.245
 10
2.48
 20
2.245
  0
LWPOLYLINE
  5
1F2
330
12
100
AcDbEntity
  8
SPL_200MHZ_A1_SMT
  6
BYLAYER
370
   211
 62
   256
100
AcDbPolyline
 90
     2
 70
     0
 43
0.01
 10
2.745
 20
2.236
 10
2.48
 20
2.236
  0
LWPOLYLINE
  5
1F3
330
12
100
AcDbEntity
  8
SPL_200MHZ_A1_SMT
  6
BYLAYER
370
   211
 62
   256
100
AcDbPolyline
 90
     2
 70
     0
 43
0.01
 10
2.745
 20
2.227
 10
2.48
 20
2.227
  0
LWPOLYLINE
  5
1F4
330
12
100
AcDbEntity
  8
SPL_200MHZ_A1_SMT
  6
BYLAYER
370
   211
 62
   256
100
AcDbPolyline
 90
     2
 70
     0
 43
0.01
 10
2.745
 20
2.214
 10
2.48
 20
2.214
  0
LWPOLYLINE
  5
1F5
330
12
100
AcDbEntity
  8
SPL_200MHZ_A1_SMT
  6
BYLAYER
370
   211
 62
   256
100
AcDbPolyline
 90
     2
 70
     0
 43
0.01
 10
2.48
 20
2.444
 10
2.48
 20
2.214
  0
LWPOLYLINE
  5
1F6
330
12
100
AcDbEntity
  8
SPL_200MHZ_A1_SMT
  6
BYLAYER
370
   211
 62
   256
100
AcDbPolyline
 90
     2
 70
     0
 43
0.01
 10
2.745
 20
2.444
 10
2.48
 20
2.444
  0
LWPOLYLINE
  5
1F7
330
12
100
AcDbEntity
  8
SPL_200MHZ_A1_SMT
  6
BYLAYER
370
   211
 62
   256
100
AcDbPolyline
 90
     2
 70
     0
 43
0.01
 10
2.745
 20
2.444
 10
2.745
 20
2.214
  0
LWPOLYLINE
  5
1F8
330
12
100
AcDbEntity
  8
SPL_200MHZ_A1_SMT
  6
BYLAYER
370
   211
 62
   256
100
AcDbPolyline
 90
     2
 70
     0
 43
0.01
 10
2.745
 20
2.218
 10
2.48
 20
2.218
  0
LWPOLYLINE
  5
1F9
330
12
100
AcDbEntity
  8
SPL_200MHZ_A1_SMT
  6
BYLAYER
370
   211
 62
   256
100
AcDbPolyline
 90
     2
 70
     0
 43
0.01
 10
2.736
 20
2.444
 10
2.736
 20
2.214
  0
LWPOLYLINE
  5
1FA
330
12
100
AcDbEntity
  8
SPL_200MHZ_A1_SMT
  6
BYLAYER
370
   211
 62
   256
100
AcDbPolyline
 90
     2
 70
     0
 43
0.01
 10
2.727
 20
2.444
 10
2.727
 20
2.214
  0
LWPOLYLINE
  5
1FB
330
12
100
AcDbEntity
  8
SPL_200MHZ_A1_SMT
  6
BYLAYER
370
   211
 62
   256
100
AcDbPolyline
 90
     2
 70
     0
 43
0.01
 10
2.718
 20
2.444
 10
2.718
 20
2.214
  0
LWPOLYLINE
  5
1FC
330
12
100
AcDbEntity
  8
SPL_200MHZ_A1_SMT
  6
BYLAYER
370
   211
 62
   256
100
AcDbPolyline
 90
     2
 70
     0
 43
0.01
 10
2.709
 20
2.444
 10
2.709
 20
2.214
  0
LWPOLYLINE
  5
1FD
330
12
100
AcDbEntity
  8
SPL_200MHZ_A1_SMT
  6
BYLAYER
370
   211
 62
   256
100
AcDbPolyline
 90
     2
 70
     0
 43
0.01
 10
2.7
 20
2.444
 10
2.7
 20
2.214
  0
LWPOLYLINE
  5
1FE
330
12
100
AcDbEntity
  8
SPL_200MHZ_A1_SMT
  6
BYLAYER
370
   211
 62
   256
100
AcDbPolyline
 90
     2
 70
     0
 43
0.01
 10
2.691
 20
2.444
 10
2.691
 20
2.214
  0
LWPOLYLINE
  5
1FF
330
12
100
AcDbEntity
  8
SPL_200MHZ_A1_SMT
  6
BYLAYER
370
   211
 62
   256
100
AcDbPolyline
 90
     2
 70
     0
 43
0.01
 10
2.682
 20
2.444
 10
2.682
 20
2.214
  0
LWPOLYLINE
  5
200
330
12
100
AcDbEntity
  8
SPL_200MHZ_A1_SMT
  6
BYLAYER
370
   211
 62
   256
100
AcDbPolyline
 90
     2
 70
     0
 43
0.01
 10
2.673
 20
2.444
 10
2.673
 20
2.214
  0
LWPOLYLINE
  5
201
330
12
100
AcDbEntity
  8
SPL_200MHZ_A1_SMT
  6
BYLAYER
370
   211
 62
   256
100
AcDbPolyline
 90
     2
 70
     0
 43
0.01
 10
2.664
 20
2.444
 10
2.664
 20
2.214
  0
LWPOLYLINE
  5
202
330
12
100
AcDbEntity
  8
SPL_200MHZ_A1_SMT
  6
BYLAYER
370
   211
 62
   256
100
AcDbPolyline
 90
     2
 70
     0
 43
0.01
 10
2.655
 20
2.444
 10
2.655
 20
2.214
  0
LWPOLYLINE
  5
203
330
12
100
AcDbEntity
  8
SPL_200MHZ_A1_SMT
  6
BYLAYER
370
   211
 62
   256
100
AcDbPolyline
 90
     2
 70
     0
 43
0.01
 10
2.646
 20
2.444
 10
2.646
 20
2.214
  0
LWPOLYLINE
  5
204
330
12
100
AcDbEntity
  8
SPL_200MHZ_A1_SMT
  6
BYLAYER
370
   211
 62
   256
100
AcDbPolyline
 90
     2
 70
     0
 43
0.01
 10
2.637
 20
2.444
 10
2.637
 20
2.214
  0
LWPOLYLINE
  5
205
330
12
100
AcDbEntity
  8
SPL_200MHZ_A1_SMT
  6
BYLAYER
370
   211
 62
   256
100
AcDbPolyline
 90
     2
 70
     0
 43
0.01
 10
2.628
 20
2.444
 10
2.628
 20
2.214
  0
LWPOLYLINE
  5
206
330
12
100
AcDbEntity
  8
SPL_200MHZ_A1_SMT
  6
BYLAYER
370
   211
 62
   256
100
AcDbPolyline
 90
     2
 70
     0
 43
0.01
 10
2.619
 20
2.444
 10
2.619
 20
2.214
  0
LWPOLYLINE
  5
207
330
12
100
AcDbEntity
  8
SPL_200MHZ_A1_SMT
  6
BYLAYER
370
   211
 62
   256
100
AcDbPolyline
 90
     2
 70
     0
 43
0.01
 10
2.61
 20
2.444
 10
2.61
 20
2.214
  0
LWPOLYLINE
  5
208
330
12
100
AcDbEntity
  8
SPL_200MHZ_A1_SMT
  6
BYLAYER
370
   211
 62
   256
100
AcDbPolyline
 90
     2
 70
     0
 43
0.01
 10
2.601
 20
2.444
 10
2.601
 20
2.214
  0
LWPOLYLINE
  5
209
330
12
100
AcDbEntity
  8
SPL_200MHZ_A1_SMT
  6
BYLAYER
370
   211
 62
   256
100
AcDbPolyline
 90
     2
 70
     0
 43
0.01
 10
2.592
 20
2.444
 10
2.592
 20
2.214
  0
LWPOLYLINE
  5
20A
330
12
100
AcDbEntity
  8
SPL_200MHZ_A1_SMT
  6
BYLAYER
370
   211
 62
   256
100
AcDbPolyline
 90
     2
 70
     0
 43
0.01
 10
2.583
 20
2.444
 10
2.583
 20
2.214
  0
LWPOLYLINE
  5
20B
330
12
100
AcDbEntity
  8
SPL_200MHZ_A1_SMT
  6
BYLAYER
370
   211
 62
   256
100
AcDbPolyline
 90
     2
 70
     0
 43
0.01
 10
2.574
 20
2.444
 10
2.574
 20
2.214
  0
LWPOLYLINE
  5
20C
330
12
100
AcDbEntity
  8
SPL_200MHZ_A1_SMT
  6
BYLAYER
370
   211
 62
   256
100
AcDbPolyline
 90
     2
 70
     0
 43
0.01
 10
0.8616
 20
1.0753
 10
0.8616
 20
0.9829
  0
LWPOLYLINE
  5
20D
330
12
100
AcDbEntity
  8
SPL_200MHZ_A1_SMT
  6
BYLAYER
370
   211
 62
   256
100
AcDbPolyline
 90
     2
 70
     0
 43
0.01
 10
0.8526
 20
1.0597
 10
0.8526
 20
0.9881
  0
LWPOLYLINE
  5
20E
330
12
100
AcDbEntity
  8
SPL_200MHZ_A1_SMT
  6
BYLAYER
370
   211
 62
   256
100
AcDbPolyline
 90
     2
 70
     0
 43
0.01
 10
0.8436
 20
1.0441
 10
0.8436
 20
0.9933
  0
LWPOLYLINE
  5
20F
330
12
100
AcDbEntity
  8
SPL_200MHZ_A1_SMT
  6
BYLAYER
370
   211
 62
   256
100
AcDbPolyline
 90
     2
 70
     0
 43
0.01
 10
0.8346
 20
1.0285
 10
0.8346
 20
0.9985
  0
LWPOLYLINE
  5
210
330
12
100
AcDbEntity
  8
SPL_200MHZ_A1_SMT
  6
BYLAYER
370
   211
 62
   256
100
AcDbPolyline
 90
     2
 70
     0
 43
0.01
 10
0.8256
 20
1.0129
 10
0.8256
 20
1.0037
  0
LWPOLYLINE
  5
211
330
12
100
AcDbEntity
  8
SPL_200MHZ_A1_SMT
  6
BYLAYER
370
   211
 62
   256
100
AcDbPolyline
 90
     2
 70
     0
 43
0.01
 10
0.9544
 20
1.2064
 10
0.9371
 20
1.2064
  0
LWPOLYLINE
  5
212
330
12
100
AcDbEntity
  8
SPL_200MHZ_A1_SMT
  6
BYLAYER
370
   211
 62
   256
100
AcDbPolyline
 90
     2
 70
     0
 43
0.01
 10
0.97
 20
1.1974
 10
0.932
 20
1.1974
  0
LWPOLYLINE
  5
213
330
12
100
AcDbEntity
  8
SPL_200MHZ_A1_SMT
  6
BYLAYER
370
   211
 62
   256
100
AcDbPolyline
 90
     2
 70
     0
 43
0.01
 10
0.9856
 20
1.1884
 10
0.9268
 20
1.1884
  0
LWPOLYLINE
  5
214
330
12
100
AcDbEntity
  8
SPL_200MHZ_A1_SMT
  6
BYLAYER
370
   211
 62
   256
100
AcDbPolyline
 90
     2
 70
     0
 43
0.01
 10
1.0012
 20
1.1794
 10
0.9216
 20
1.1794
  0
LWPOLYLINE
  5
215
330
12
100
AcDbEntity
  8
SPL_200MHZ_A1_SMT
  6
BYLAYER
370
   211
 62
   256
100
AcDbPolyline
 90
     2
 70
     0
 43
0.01
 10
1.0168
 20
1.1704
 10
0.9164
 20
1.1704
  0
LWPOLYLINE
  5
216
330
12
100
AcDbEntity
  8
SPL_200MHZ_A1_SMT
  6
BYLAYER
370
   211
 62
   256
100
AcDbPolyline
 90
     2
 70
     0
 43
0.01
 10
1.0324
 20
1.1614
 10
0.9112
 20
1.1614
  0
LWPOLYLINE
  5
217
330
12
100
AcDbEntity
  8
SPL_200MHZ_A1_SMT
  6
BYLAYER
370
   211
 62
   256
100
AcDbPolyline
 90
     2
 70
     0
 43
0.01
 10
1.0344
 20
1.1524
 10
0.906
 20
1.1524
  0
LWPOLYLINE
  5
218
330
12
100
AcDbEntity
  8
SPL_200MHZ_A1_SMT
  6
BYLAYER
370
   211
 62
   256
100
AcDbPolyline
 90
     2
 70
     0
 43
0.01
 10
1.0292
 20
1.1434
 10
0.9008
 20
1.1434
  0
LWPOLYLINE
  5
219
330
12
100
AcDbEntity
  8
SPL_200MHZ_A1_SMT
  6
BYLAYER
370
   211
 62
   256
100
AcDbPolyline
 90
     2
 70
     0
 43
0.01
 10
1.024
 20
1.1344
 10
0.8956
 20
1.1344
  0
LWPOLYLINE
  5
21A
330
12
100
AcDbEntity
  8
SPL_200MHZ_A1_SMT
  6
BYLAYER
370
   211
 62
   256
100
AcDbPolyline
 90
     2
 70
     0
 43
0.01
 10
1.0188
 20
1.1254
 10
0.8904
 20
1.1254
  0
LWPOLYLINE
  5
21B
330
12
100
AcDbEntity
  8
SPL_200MHZ_A1_SMT
  6
BYLAYER
370
   211
 62
   256
100
AcDbPolyline
 90
     2
 70
     0
 43
0.01
 10
1.0136
 20
1.1164
 10
0.8852
 20
1.1164
  0
LWPOLYLINE
  5
21C
330
12
100
AcDbEntity
  8
SPL_200MHZ_A1_SMT
  6
BYLAYER
370
   211
 62
   256
100
AcDbPolyline
 90
     2
 70
     0
 43
0.01
 10
1.0084
 20
1.1074
 10
0.8801
 20
1.1074
  0
LWPOLYLINE
  5
21D
330
12
100
AcDbEntity
  8
SPL_200MHZ_A1_SMT
  6
BYLAYER
370
   211
 62
   256
100
AcDbPolyline
 90
     2
 70
     0
 43
0.01
 10
1.0032
 20
1.0984
 10
0.8749
 20
1.0984
  0
LWPOLYLINE
  5
21E
330
12
100
AcDbEntity
  8
SPL_200MHZ_A1_SMT
  6
BYLAYER
370
   211
 62
   256
100
AcDbPolyline
 90
     2
 70
     0
 43
0.01
 10
0.998
 20
1.0894
 10
0.8697
 20
1.0894
  0
LWPOLYLINE
  5
21F
330
12
100
AcDbEntity
  8
SPL_200MHZ_A1_SMT
  6
BYLAYER
370
   211
 62
   256
100
AcDbPolyline
 90
     2
 70
     0
 43
0.01
 10
0.9928
 20
1.0804
 10
0.8645
 20
1.0804
  0
LWPOLYLINE
  5
220
330
12
100
AcDbEntity
  8
SPL_200MHZ_A1_SMT
  6
BYLAYER
370
   211
 62
   256
100
AcDbPolyline
 90
     2
 70
     0
 43
0.01
 10
0.9876
 20
1.0714
 10
0.8593
 20
1.0714
  0
LWPOLYLINE
  5
221
330
12
100
AcDbEntity
  8
SPL_200MHZ_A1_SMT
  6
BYLAYER
370
   211
 62
   256
100
AcDbPolyline
 90
     2
 70
     0
 43
0.01
 10
0.9824
 20
1.0624
 10
0.8541
 20
1.0624
  0
LWPOLYLINE
  5
222
330
12
100
AcDbEntity
  8
SPL_200MHZ_A1_SMT
  6
BYLAYER
370
   211
 62
   256
100
AcDbPolyline
 90
     2
 70
     0
 43
0.01
 10
0.9772
 20
1.0534
 10
0.8489
 20
1.0534
  0
LWPOLYLINE
  5
223
330
12
100
AcDbEntity
  8
SPL_200MHZ_A1_SMT
  6
BYLAYER
370
   211
 62
   256
100
AcDbPolyline
 90
     2
 70
     0
 43
0.01
 10
0.972
 20
1.0444
 10
0.8437
 20
1.0444
  0
LWPOLYLINE
  5
224
330
12
100
AcDbEntity
  8
SPL_200MHZ_A1_SMT
  6
BYLAYER
370
   211
 62
   256
100
AcDbPolyline
 90
     2
 70
     0
 43
0.01
 10
0.9669
 20
1.0354
 10
0.8385
 20
1.0354
  0
LWPOLYLINE
  5
225
330
12
100
AcDbEntity
  8
SPL_200MHZ_A1_SMT
  6
BYLAYER
370
   211
 62
   256
100
AcDbPolyline
 90
     2
 70
     0
 43
0.01
 10
0.9617
 20
1.0264
 10
0.8333
 20
1.0264
  0
LWPOLYLINE
  5
226
330
12
100
AcDbEntity
  8
SPL_200MHZ_A1_SMT
  6
BYLAYER
370
   211
 62
   256
100
AcDbPolyline
 90
     2
 70
     0
 43
0.01
 10
0.9565
 20
1.0174
 10
0.8282
 20
1.0174
  0
LWPOLYLINE
  5
227
330
12
100
AcDbEntity
  8
SPL_200MHZ_A1_SMT
  6
BYLAYER
370
   211
 62
   256
100
AcDbPolyline
 90
     2
 70
     0
 43
0.01
 10
0.9513
 20
1.0084
 10
0.823
 20
1.0084
  0
LWPOLYLINE
  5
228
330
12
100
AcDbEntity
  8
SPL_200MHZ_A1_SMT
  6
BYLAYER
370
   211
 62
   256
100
AcDbPolyline
 90
     2
 70
     0
 43
0.01
 10
0.9461
 20
0.9994
 10
0.833
 20
0.9994
  0
LWPOLYLINE
  5
229
330
12
100
AcDbEntity
  8
SPL_200MHZ_A1_SMT
  6
BYLAYER
370
   211
 62
   256
100
AcDbPolyline
 90
     2
 70
     0
 43
0.01
 10
0.9409
 20
0.9904
 10
0.8486
 20
0.9904
  0
LWPOLYLINE
  5
22A
330
12
100
AcDbEntity
  8
SPL_200MHZ_A1_SMT
  6
BYLAYER
370
   211
 62
   256
100
AcDbPolyline
 90
     2
 70
     0
 43
0.01
 10
0.9357
 20
0.9814
 10
0.8641
 20
0.9814
  0
LWPOLYLINE
  5
22B
330
12
100
AcDbEntity
  8
SPL_200MHZ_A1_SMT
  6
BYLAYER
370
   211
 62
   256
100
AcDbPolyline
 90
     2
 70
     0
 43
0.01
 10
0.9305
 20
0.9724
 10
0.8797
 20
0.9724
  0
LWPOLYLINE
  5
22C
330
12
100
AcDbEntity
  8
SPL_200MHZ_A1_SMT
  6
BYLAYER
370
   211
 62
   256
100
AcDbPolyline
 90
     2
 70
     0
 43
0.01
 10
0.9253
 20
0.9634
 10
0.8953
 20
0.9634
  0
LWPOLYLINE
  5
22D
330
12
100
AcDbEntity
  8
SPL_200MHZ_A1_SMT
  6
BYLAYER
370
   211
 62
   256
100
AcDbPolyline
 90
     2
 70
     0
 43
0.01
 10
0.9201
 20
0.9544
 10
0.9109
 20
0.9544
  0
LWPOLYLINE
  5
22E
330
12
100
AcDbEntity
  8
SPL_200MHZ_A1_SMT
  6
BYLAYER
370
   211
 62
   256
100
AcDbPolyline
 90
     2
 70
     0
 43
0.01
 10
0.9415
 20
1.2139
 10
1.0378
 20
1.1583
  0
LWPOLYLINE
  5
22F
330
12
100
AcDbEntity
  8
SPL_200MHZ_A1_SMT
  6
BYLAYER
370
   211
 62
   256
100
AcDbPolyline
 90
     3
 70
     0
 43
0.01
 10
0.9415
 20
1.2139
 10
0.8216
 20
1.006
 10
0.9178
 20
0.9504
  0
LWPOLYLINE
  5
230
330
12
100
AcDbEntity
  8
SPL_200MHZ_A1_SMT
  6
BYLAYER
370
   211
 62
   256
100
AcDbPolyline
 90
     2
 70
     0
 43
0.01
 10
1.0378
 20
1.1583
 10
0.9178
 20
0.9504
  0
LWPOLYLINE
  5
231
330
12
100
AcDbEntity
  8
SPL_200MHZ_A1_SMT
  6
BYLAYER
370
   211
 62
   256
100
AcDbPolyline
 90
     2
 70
     0
 43
0.01
 10
1.0326
 20
1.1613
 10
1.0326
 20
1.1492
  0
LWPOLYLINE
  5
232
330
12
100
AcDbEntity
  8
SPL_200MHZ_A1_SMT
  6
BYLAYER
370
   211
 62
   256
100
AcDbPolyline
 90
     2
 70
     0
 43
0.01
 10
1.0236
 20
1.1664
 10
1.0236
 20
1.1337
  0
LWPOLYLINE
  5
233
330
12
100
AcDbEntity
  8
SPL_200MHZ_A1_SMT
  6
BYLAYER
370
   211
 62
   256
100
AcDbPolyline
 90
     2
 70
     0
 43
0.01
 10
1.0146
 20
1.1716
 10
1.0146
 20
1.1181
  0
LWPOLYLINE
  5
234
330
12
100
AcDbEntity
  8
SPL_200MHZ_A1_SMT
  6
BYLAYER
370
   211
 62
   256
100
AcDbPolyline
 90
     2
 70
     0
 43
0.01
 10
1.0056
 20
1.1768
 10
1.0056
 20
1.1025
  0
LWPOLYLINE
  5
235
330
12
100
AcDbEntity
  8
SPL_200MHZ_A1_SMT
  6
BYLAYER
370
   211
 62
   256
100
AcDbPolyline
 90
     2
 70
     0
 43
0.01
 10
0.9966
 20
1.182
 10
0.9966
 20
1.0869
  0
LWPOLYLINE
  5
236
330
12
100
AcDbEntity
  8
SPL_200MHZ_A1_SMT
  6
BYLAYER
370
   211
 62
   256
100
AcDbPolyline
 90
     2
 70
     0
 43
0.01
 10
0.9876
 20
1.1872
 10
0.9876
 20
1.0713
  0
LWPOLYLINE
  5
237
330
12
100
AcDbEntity
  8
SPL_200MHZ_A1_SMT
  6
BYLAYER
370
   211
 62
   256
100
AcDbPolyline
 90
     2
 70
     0
 43
0.01
 10
0.9786
 20
1.1924
 10
0.9786
 20
1.0557
  0
LWPOLYLINE
  5
238
330
12
100
AcDbEntity
  8
SPL_200MHZ_A1_SMT
  6
BYLAYER
370
   211
 62
   256
100
AcDbPolyline
 90
     2
 70
     0
 43
0.01
 10
0.9696
 20
1.1976
 10
0.9696
 20
1.0401
  0
LWPOLYLINE
  5
239
330
12
100
AcDbEntity
  8
SPL_200MHZ_A1_SMT
  6
BYLAYER
370
   211
 62
   256
100
AcDbPolyline
 90
     2
 70
     0
 43
0.01
 10
0.9606
 20
1.2028
 10
0.9606
 20
1.0245
  0
LWPOLYLINE
  5
23A
330
12
100
AcDbEntity
  8
SPL_200MHZ_A1_SMT
  6
BYLAYER
370
   211
 62
   256
100
AcDbPolyline
 90
     2
 70
     0
 43
0.01
 10
0.9516
 20
1.208
 10
0.9516
 20
1.0089
  0
LWPOLYLINE
  5
23B
330
12
100
AcDbEntity
  8
SPL_200MHZ_A1_SMT
  6
BYLAYER
370
   211
 62
   256
100
AcDbPolyline
 90
     2
 70
     0
 43
0.01
 10
0.9426
 20
1.2132
 10
0.9426
 20
0.9933
  0
LWPOLYLINE
  5
23C
330
12
100
AcDbEntity
  8
SPL_200MHZ_A1_SMT
  6
BYLAYER
370
   211
 62
   256
100
AcDbPolyline
 90
     2
 70
     0
 43
0.01
 10
0.9336
 20
1.2002
 10
0.9336
 20
0.9778
  0
LWPOLYLINE
  5
23D
330
12
100
AcDbEntity
  8
SPL_200MHZ_A1_SMT
  6
BYLAYER
370
   211
 62
   256
100
AcDbPolyline
 90
     2
 70
     0
 43
0.01
 10
0.9246
 20
1.1846
 10
0.9246
 20
0.9622
  0
LWPOLYLINE
  5
23E
330
12
100
AcDbEntity
  8
SPL_200MHZ_A1_SMT
  6
BYLAYER
370
   211
 62
   256
100
AcDbPolyline
 90
     2
 70
     0
 43
0.01
 10
0.9156
 20
1.169
 10
0.9156
 20
0.9517
  0
LWPOLYLINE
  5
23F
330
12
100
AcDbEntity
  8
SPL_200MHZ_A1_SMT
  6
BYLAYER
370
   211
 62
   256
100
AcDbPolyline
 90
     2
 70
     0
 43
0.01
 10
0.9066
 20
1.1534
 10
0.9066
 20
0.9569
  0
LWPOLYLINE
  5
240
330
12
100
AcDbEntity
  8
SPL_200MHZ_A1_SMT
  6
BYLAYER
370
   211
 62
   256
100
AcDbPolyline
 90
     2
 70
     0
 43
0.01
 10
0.8976
 20
1.1378
 10
0.8976
 20
0.9621
  0
LWPOLYLINE
  5
241
330
12
100
AcDbEntity
  8
SPL_200MHZ_A1_SMT
  6
BYLAYER
370
   211
 62
   256
100
AcDbPolyline
 90
     2
 70
     0
 43
0.01
 10
0.8886
 20
1.1222
 10
0.8886
 20
0.9673
  0
LWPOLYLINE
  5
242
330
12
100
AcDbEntity
  8
SPL_200MHZ_A1_SMT
  6
BYLAYER
370
   211
 62
   256
100
AcDbPolyline
 90
     2
 70
     0
 43
0.01
 10
0.8796
 20
1.1066
 10
0.8796
 20
0.9725
  0
LWPOLYLINE
  5
243
330
12
100
AcDbEntity
  8
SPL_200MHZ_A1_SMT
  6
BYLAYER
370
   211
 62
   256
100
AcDbPolyline
 90
     2
 70
     0
 43
0.01
 10
0.8706
 20
1.091
 10
0.8706
 20
0.9777
  0
LWPOLYLINE
  5
244
330
12
100
AcDbEntity
  8
SPL_200MHZ_A1_SMT
  6
BYLAYER
370
   211
 62
   256
100
AcDbPolyline
 90
     2
 70
     0
 43
0.01
 10
0.738
 20
1.3207
 10
0.738
 20
1.1064
  0
LWPOLYLINE
  5
245
330
12
100
AcDbEntity
  8
SPL_200MHZ_A1_SMT
  6
BYLAYER
370
   211
 62
   256
100
AcDbPolyline
 90
     2
 70
     0
 43
0.01
 10
0.729
 20
1.3259
 10
0.729
 20
1.0908
  0
LWPOLYLINE
  5
246
330
12
100
AcDbEntity
  8
SPL_200MHZ_A1_SMT
  6
BYLAYER
370
   211
 62
   256
100
AcDbPolyline
 90
     2
 70
     0
 43
0.01
 10
0.72
 20
1.3311
 10
0.72
 20
1.0752
  0
LWPOLYLINE
  5
247
330
12
100
AcDbEntity
  8
SPL_200MHZ_A1_SMT
  6
BYLAYER
370
   211
 62
   256
100
AcDbPolyline
 90
     2
 70
     0
 43
0.01
 10
0.711
 20
1.3363
 10
0.711
 20
1.0596
  0
LWPOLYLINE
  5
248
330
12
100
AcDbEntity
  8
SPL_200MHZ_A1_SMT
  6
BYLAYER
370
   211
 62
   256
100
AcDbPolyline
 90
     2
 70
     0
 43
0.01
 10
0.702
 20
1.3415
 10
0.702
 20
1.044
  0
LWPOLYLINE
  5
249
330
12
100
AcDbEntity
  8
SPL_200MHZ_A1_SMT
  6
BYLAYER
370
   211
 62
   256
100
AcDbPolyline
 90
     2
 70
     0
 43
0.01
 10
0.693
 20
1.3467
 10
0.693
 20
1.0335
  0
LWPOLYLINE
  5
24A
330
12
100
AcDbEntity
  8
SPL_200MHZ_A1_SMT
  6
BYLAYER
370
   211
 62
   256
100
AcDbPolyline
 90
     2
 70
     0
 43
0.01
 10
0.684
 20
1.3519
 10
0.684
 20
1.0387
  0
LWPOLYLINE
  5
24B
330
12
100
AcDbEntity
  8
SPL_200MHZ_A1_SMT
  6
BYLAYER
370
   211
 62
   256
100
AcDbPolyline
 90
     2
 70
     0
 43
0.01
 10
0.675
 20
1.3571
 10
0.675
 20
1.0439
  0
LWPOLYLINE
  5
24C
330
12
100
AcDbEntity
  8
SPL_200MHZ_A1_SMT
  6
BYLAYER
370
   211
 62
   256
100
AcDbPolyline
 90
     2
 70
     0
 43
0.01
 10
0.666
 20
1.3623
 10
0.666
 20
1.0491
  0
LWPOLYLINE
  5
24D
330
12
100
AcDbEntity
  8
SPL_200MHZ_A1_SMT
  6
BYLAYER
370
   211
 62
   256
100
AcDbPolyline
 90
     2
 70
     0
 43
0.01
 10
0.657
 20
1.3675
 10
0.657
 20
1.0543
  0
LWPOLYLINE
  5
24E
330
12
100
AcDbEntity
  8
SPL_200MHZ_A1_SMT
  6
BYLAYER
370
   211
 62
   256
100
AcDbPolyline
 90
     2
 70
     0
 43
0.01
 10
0.648
 20
1.3727
 10
0.648
 20
1.0595
  0
LWPOLYLINE
  5
24F
330
12
100
AcDbEntity
  8
SPL_200MHZ_A1_SMT
  6
BYLAYER
370
   211
 62
   256
100
AcDbPolyline
 90
     2
 70
     0
 43
0.01
 10
0.639
 20
1.3653
 10
0.639
 20
1.0647
  0
LWPOLYLINE
  5
250
330
12
100
AcDbEntity
  8
SPL_200MHZ_A1_SMT
  6
BYLAYER
370
   211
 62
   256
100
AcDbPolyline
 90
     2
 70
     0
 43
0.01
 10
0.63
 20
1.3497
 10
0.63
 20
1.0699
  0
LWPOLYLINE
  5
251
330
12
100
AcDbEntity
  8
SPL_200MHZ_A1_SMT
  6
BYLAYER
370
   211
 62
   256
100
AcDbPolyline
 90
     2
 70
     0
 43
0.01
 10
0.621
 20
1.3341
 10
0.621
 20
1.0751
  0
LWPOLYLINE
  5
252
330
12
100
AcDbEntity
  8
SPL_200MHZ_A1_SMT
  6
BYLAYER
370
   211
 62
   256
100
AcDbPolyline
 90
     2
 70
     0
 43
0.01
 10
0.612
 20
1.3185
 10
0.612
 20
1.0803
  0
LWPOLYLINE
  5
253
330
12
100
AcDbEntity
  8
SPL_200MHZ_A1_SMT
  6
BYLAYER
370
   211
 62
   256
100
AcDbPolyline
 90
     2
 70
     0
 43
0.01
 10
0.603
 20
1.3029
 10
0.603
 20
1.0855
  0
LWPOLYLINE
  5
254
330
12
100
AcDbEntity
  8
SPL_200MHZ_A1_SMT
  6
BYLAYER
370
   211
 62
   256
100
AcDbPolyline
 90
     2
 70
     0
 43
0.01
 10
0.594
 20
1.2873
 10
0.594
 20
1.0907
  0
LWPOLYLINE
  5
255
330
12
100
AcDbEntity
  8
SPL_200MHZ_A1_SMT
  6
BYLAYER
370
   211
 62
   256
100
AcDbPolyline
 90
     2
 70
     0
 43
0.01
 10
0.585
 20
1.2717
 10
0.585
 20
1.0959
  0
LWPOLYLINE
  5
256
330
12
100
AcDbEntity
  8
SPL_200MHZ_A1_SMT
  6
BYLAYER
370
   211
 62
   256
100
AcDbPolyline
 90
     2
 70
     0
 43
0.01
 10
0.576
 20
1.256
 10
0.576
 20
1.1011
  0
LWPOLYLINE
  5
257
330
12
100
AcDbEntity
  8
SPL_200MHZ_A1_SMT
  6
BYLAYER
370
   211
 62
   256
100
AcDbPolyline
 90
     2
 70
     0
 43
0.01
 10
0.567
 20
1.2404
 10
0.567
 20
1.1063
  0
LWPOLYLINE
  5
258
330
12
100
AcDbEntity
  8
SPL_200MHZ_A1_SMT
  6
BYLAYER
370
   211
 62
   256
100
AcDbPolyline
 90
     2
 70
     0
 43
0.01
 10
0.558
 20
1.2248
 10
0.558
 20
1.1115
  0
LWPOLYLINE
  5
259
330
12
100
AcDbEntity
  8
SPL_200MHZ_A1_SMT
  6
BYLAYER
370
   211
 62
   256
100
AcDbPolyline
 90
     2
 70
     0
 43
0.01
 10
0.549
 20
1.2092
 10
0.549
 20
1.1167
  0
LWPOLYLINE
  5
25A
330
12
100
AcDbEntity
  8
SPL_200MHZ_A1_SMT
  6
BYLAYER
370
   211
 62
   256
100
AcDbPolyline
 90
     2
 70
     0
 43
0.01
 10
0.54
 20
1.1936
 10
0.54
 20
1.1219
  0
LWPOLYLINE
  5
25B
330
12
100
AcDbEntity
  8
SPL_200MHZ_A1_SMT
  6
BYLAYER
370
   211
 62
   256
100
AcDbPolyline
 90
     2
 70
     0
 43
0.01
 10
0.531
 20
1.178
 10
0.531
 20
1.1271
  0
LWPOLYLINE
  5
25C
330
12
100
AcDbEntity
  8
SPL_200MHZ_A1_SMT
  6
BYLAYER
370
   211
 62
   256
100
AcDbPolyline
 90
     2
 70
     0
 43
0.01
 10
0.522
 20
1.1624
 10
0.522
 20
1.1323
  0
LWPOLYLINE
  5
25D
330
12
100
AcDbEntity
  8
SPL_200MHZ_A1_SMT
  6
BYLAYER
370
   211
 62
   256
100
AcDbPolyline
 90
     2
 70
     0
 43
0.01
 10
0.513
 20
1.1468
 10
0.513
 20
1.1375
  0
LWPOLYLINE
  5
25E
330
12
100
AcDbEntity
  8
SPL_200MHZ_A1_SMT
  6
BYLAYER
370
   211
 62
   256
100
AcDbPolyline
 90
     2
 70
     0
 43
0.01
 10
0.6541
 20
1.3692
 10
0.6412
 20
1.3692
  0
LWPOLYLINE
  5
25F
330
12
100
AcDbEntity
  8
SPL_200MHZ_A1_SMT
  6
BYLAYER
370
   211
 62
   256
100
AcDbPolyline
 90
     2
 70
     0
 43
0.01
 10
0.6697
 20
1.3602
 10
0.636
 20
1.3602
  0
LWPOLYLINE
  5
260
330
12
100
AcDbEntity
  8
SPL_200MHZ_A1_SMT
  6
BYLAYER
370
   211
 62
   256
100
AcDbPolyline
 90
     2
 70
     0
 43
0.01
 10
0.6852
 20
1.3512
 10
0.6308
 20
1.3512
  0
LWPOLYLINE
  5
261
330
12
100
AcDbEntity
  8
SPL_200MHZ_A1_SMT
  6
BYLAYER
370
   211
 62
   256
100
AcDbPolyline
 90
     2
 70
     0
 43
0.01
 10
0.7008
 20
1.3422
 10
0.6257
 20
1.3422
  0
LWPOLYLINE
  5
262
330
12
100
AcDbEntity
  8
SPL_200MHZ_A1_SMT
  6
BYLAYER
370
   211
 62
   256
100
AcDbPolyline
 90
     2
 70
     0
 43
0.01
 10
0.7163
 20
1.3332
 10
0.6205
 20
1.3332
  0
LWPOLYLINE
  5
263
330
12
100
AcDbEntity
  8
SPL_200MHZ_A1_SMT
  6
BYLAYER
370
   211
 62
   256
100
AcDbPolyline
 90
     2
 70
     0
 43
0.01
 10
0.7319
 20
1.3242
 10
0.6153
 20
1.3242
  0
LWPOLYLINE
  5
264
330
12
100
AcDbEntity
  8
SPL_200MHZ_A1_SMT
  6
BYLAYER
370
   211
 62
   256
100
AcDbPolyline
 90
     2
 70
     0
 43
0.01
 10
0.7475
 20
1.3152
 10
0.6101
 20
1.3152
  0
LWPOLYLINE
  5
265
330
12
100
AcDbEntity
  8
SPL_200MHZ_A1_SMT
  6
BYLAYER
370
   211
 62
   256
100
AcDbPolyline
 90
     2
 70
     0
 43
0.01
 10
0.763
 20
1.3062
 10
0.6049
 20
1.3062
  0
LWPOLYLINE
  5
266
330
12
100
AcDbEntity
  8
SPL_200MHZ_A1_SMT
  6
BYLAYER
370
   211
 62
   256
100
AcDbPolyline
 90
     2
 70
     0
 43
0.01
 10
0.7786
 20
1.2972
 10
0.5997
 20
1.2972
  0
LWPOLYLINE
  5
267
330
12
100
AcDbEntity
  8
SPL_200MHZ_A1_SMT
  6
BYLAYER
370
   211
 62
   256
100
AcDbPolyline
 90
     2
 70
     0
 43
0.01
 10
0.7941
 20
1.2882
 10
0.5945
 20
1.2882
  0
LWPOLYLINE
  5
268
330
12
100
AcDbEntity
  8
SPL_200MHZ_A1_SMT
  6
BYLAYER
370
   211
 62
   256
100
AcDbPolyline
 90
     2
 70
     0
 43
0.01
 10
0.8097
 20
1.2792
 10
0.5893
 20
1.2792
  0
LWPOLYLINE
  5
269
330
12
100
AcDbEntity
  8
SPL_200MHZ_A1_SMT
  6
BYLAYER
370
   211
 62
   256
100
AcDbPolyline
 90
     2
 70
     0
 43
0.01
 10
0.8252
 20
1.2702
 10
0.5841
 20
1.2702
  0
LWPOLYLINE
  5
26A
330
12
100
AcDbEntity
  8
SPL_200MHZ_A1_SMT
  6
BYLAYER
370
   211
 62
   256
100
AcDbPolyline
 90
     2
 70
     0
 43
0.01
 10
0.8273
 20
1.2612
 10
0.5789
 20
1.2612
  0
LWPOLYLINE
  5
26B
330
12
100
AcDbEntity
  8
SPL_200MHZ_A1_SMT
  6
BYLAYER
370
   211
 62
   256
100
AcDbPolyline
 90
     2
 70
     0
 43
0.01
 10
0.8221
 20
1.2522
 10
0.5738
 20
1.2522
  0
LWPOLYLINE
  5
26C
330
12
100
AcDbEntity
  8
SPL_200MHZ_A1_SMT
  6
BYLAYER
370
   211
 62
   256
100
AcDbPolyline
 90
     2
 70
     0
 43
0.01
 10
0.8169
 20
1.2432
 10
0.5686
 20
1.2432
  0
LWPOLYLINE
  5
26D
330
12
100
AcDbEntity
  8
SPL_200MHZ_A1_SMT
  6
BYLAYER
370
   211
 62
   256
100
AcDbPolyline
 90
     2
 70
     0
 43
0.01
 10
0.8117
 20
1.2342
 10
0.5634
 20
1.2342
  0
LWPOLYLINE
  5
26E
330
12
100
AcDbEntity
  8
SPL_200MHZ_A1_SMT
  6
BYLAYER
370
   211
 62
   256
100
AcDbPolyline
 90
     2
 70
     0
 43
0.01
 10
0.8065
 20
1.2252
 10
0.5582
 20
1.2252
  0
LWPOLYLINE
  5
26F
330
12
100
AcDbEntity
  8
SPL_200MHZ_A1_SMT
  6
BYLAYER
370
   211
 62
   256
100
AcDbPolyline
 90
     2
 70
     0
 43
0.01
 10
0.8013
 20
1.2162
 10
0.553
 20
1.2162
  0
LWPOLYLINE
  5
270
330
12
100
AcDbEntity
  8
SPL_200MHZ_A1_SMT
  6
BYLAYER
370
   211
 62
   256
100
AcDbPolyline
 90
     2
 70
     0
 43
0.01
 10
0.7961
 20
1.2072
 10
0.5478
 20
1.2072
  0
LWPOLYLINE
  5
271
330
12
100
AcDbEntity
  8
SPL_200MHZ_A1_SMT
  6
BYLAYER
370
   211
 62
   256
100
AcDbPolyline
 90
     2
 70
     0
 43
0.01
 10
0.7909
 20
1.1982
 10
0.5426
 20
1.1982
  0
LWPOLYLINE
  5
272
330
12
100
AcDbEntity
  8
SPL_200MHZ_A1_SMT
  6
BYLAYER
370
   211
 62
   256
100
AcDbPolyline
 90
     2
 70
     0
 43
0.01
 10
0.7857
 20
1.1892
 10
0.5374
 20
1.1892
  0
LWPOLYLINE
  5
273
330
12
100
AcDbEntity
  8
SPL_200MHZ_A1_SMT
  6
BYLAYER
370
   211
 62
   256
100
AcDbPolyline
 90
     2
 70
     0
 43
0.01
 10
0.7805
 20
1.1802
 10
0.5322
 20
1.1802
  0
LWPOLYLINE
  5
274
330
12
100
AcDbEntity
  8
SPL_200MHZ_A1_SMT
  6
BYLAYER
370
   211
 62
   256
100
AcDbPolyline
 90
     2
 70
     0
 43
0.01
 10
0.7754
 20
1.1712
 10
0.5271
 20
1.1712
  0
LWPOLYLINE
  5
275
330
12
100
AcDbEntity
  8
SPL_200MHZ_A1_SMT
  6
BYLAYER
370
   211
 62
   256
100
AcDbPolyline
 90
     2
 70
     0
 43
0.01
 10
0.7702
 20
1.1622
 10
0.5219
 20
1.1622
  0
LWPOLYLINE
  5
276
330
12
100
AcDbEntity
  8
SPL_200MHZ_A1_SMT
  6
BYLAYER
370
   211
 62
   256
100
AcDbPolyline
 90
     2
 70
     0
 43
0.01
 10
0.765
 20
1.1532
 10
0.5167
 20
1.1532
  0
LWPOLYLINE
  5
277
330
12
100
AcDbEntity
  8
SPL_200MHZ_A1_SMT
  6
BYLAYER
370
   211
 62
   256
100
AcDbPolyline
 90
     2
 70
     0
 43
0.01
 10
0.7598
 20
1.1442
 10
0.5115
 20
1.1442
  0
LWPOLYLINE
  5
278
330
12
100
AcDbEntity
  8
SPL_200MHZ_A1_SMT
  6
BYLAYER
370
   211
 62
   256
100
AcDbPolyline
 90
     2
 70
     0
 43
0.01
 10
0.7546
 20
1.1352
 10
0.5171
 20
1.1352
  0
LWPOLYLINE
  5
279
330
12
100
AcDbEntity
  8
SPL_200MHZ_A1_SMT
  6
BYLAYER
370
   211
 62
   256
100
AcDbPolyline
 90
     2
 70
     0
 43
0.01
 10
0.7494
 20
1.1262
 10
0.5326
 20
1.1262
  0
LWPOLYLINE
  5
27A
330
12
100
AcDbEntity
  8
SPL_200MHZ_A1_SMT
  6
BYLAYER
370
   211
 62
   256
100
AcDbPolyline
 90
     2
 70
     0
 43
0.01
 10
0.7442
 20
1.1172
 10
0.5482
 20
1.1172
  0
LWPOLYLINE
  5
27B
330
12
100
AcDbEntity
  8
SPL_200MHZ_A1_SMT
  6
BYLAYER
370
   211
 62
   256
100
AcDbPolyline
 90
     2
 70
     0
 43
0.01
 10
0.739
 20
1.1082
 10
0.5637
 20
1.1082
  0
LWPOLYLINE
  5
27C
330
12
100
AcDbEntity
  8
SPL_200MHZ_A1_SMT
  6
BYLAYER
370
   211
 62
   256
100
AcDbPolyline
 90
     2
 70
     0
 43
0.01
 10
0.7338
 20
1.0992
 10
0.5793
 20
1.0992
  0
LWPOLYLINE
  5
27D
330
12
100
AcDbEntity
  8
SPL_200MHZ_A1_SMT
  6
BYLAYER
370
   211
 62
   256
100
AcDbPolyline
 90
     2
 70
     0
 43
0.01
 10
0.7286
 20
1.0902
 10
0.5949
 20
1.0902
  0
LWPOLYLINE
  5
27E
330
12
100
AcDbEntity
  8
SPL_200MHZ_A1_SMT
  6
BYLAYER
370
   211
 62
   256
100
AcDbPolyline
 90
     2
 70
     0
 43
0.01
 10
0.7234
 20
1.0812
 10
0.6104
 20
1.0812
  0
LWPOLYLINE
  5
27F
330
12
100
AcDbEntity
  8
SPL_200MHZ_A1_SMT
  6
BYLAYER
370
   211
 62
   256
100
AcDbPolyline
 90
     2
 70
     0
 43
0.01
 10
0.7183
 20
1.0722
 10
0.626
 20
1.0722
  0
LWPOLYLINE
  5
280
330
12
100
AcDbEntity
  8
SPL_200MHZ_A1_SMT
  6
BYLAYER
370
   211
 62
   256
100
AcDbPolyline
 90
     2
 70
     0
 43
0.01
 10
0.7131
 20
1.0632
 10
0.6416
 20
1.0632
  0
LWPOLYLINE
  5
281
330
12
100
AcDbEntity
  8
SPL_200MHZ_A1_SMT
  6
BYLAYER
370
   211
 62
   256
100
AcDbPolyline
 90
     2
 70
     0
 43
0.01
 10
0.7079
 20
1.0542
 10
0.6571
 20
1.0542
  0
LWPOLYLINE
  5
282
330
12
100
AcDbEntity
  8
SPL_200MHZ_A1_SMT
  6
BYLAYER
370
   211
 62
   256
100
AcDbPolyline
 90
     2
 70
     0
 43
0.01
 10
0.7027
 20
1.0452
 10
0.6727
 20
1.0452
  0
LWPOLYLINE
  5
283
330
12
100
AcDbEntity
  8
SPL_200MHZ_A1_SMT
  6
BYLAYER
370
   211
 62
   256
100
AcDbPolyline
 90
     2
 70
     0
 43
0.01
 10
0.6975
 20
1.0362
 10
0.6883
 20
1.0362
  0
LWPOLYLINE
  5
284
330
12
100
AcDbEntity
  8
SPL_200MHZ_A1_SMT
  6
BYLAYER
370
   211
 62
   256
100
AcDbPolyline
 90
     2
 70
     0
 43
0.01
 10
0.509
 20
1.1399
 10
0.6952
 20
1.0322
  0
LWPOLYLINE
  5
285
330
12
100
AcDbEntity
  8
SPL_200MHZ_A1_SMT
  6
BYLAYER
370
   211
 62
   256
100
AcDbPolyline
 90
     2
 70
     0
 43
0.01
 10
0.8307
 20
1.2671
 10
0.6952
 20
1.0322
  0
LWPOLYLINE
  5
286
330
12
100
AcDbEntity
  8
SPL_200MHZ_A1_SMT
  6
BYLAYER
370
   211
 62
   256
100
AcDbPolyline
 90
     2
 70
     0
 43
0.01
 10
0.6445
 20
1.3748
 10
0.8307
 20
1.2671
  0
LWPOLYLINE
  5
287
330
12
100
AcDbEntity
  8
SPL_200MHZ_A1_SMT
  6
BYLAYER
370
   211
 62
   256
100
AcDbPolyline
 90
     2
 70
     0
 43
0.01
 10
0.6445
 20
1.3748
 10
0.509
 20
1.1399
  0
LWPOLYLINE
  5
288
330
12
100
AcDbEntity
  8
SPL_200MHZ_A1_SMT
  6
BYLAYER
370
   211
 62
   256
100
AcDbPolyline
 90
     2
 70
     0
 43
0.01
 10
0.828
 20
1.2686
 10
0.828
 20
1.2624
  0
LWPOLYLINE
  5
289
330
12
100
AcDbEntity
  8
SPL_200MHZ_A1_SMT
  6
BYLAYER
370
   211
 62
   256
100
AcDbPolyline
 90
     2
 70
     0
 43
0.01
 10
0.819
 20
1.2738
 10
0.819
 20
1.2468
  0
LWPOLYLINE
  5
28A
330
12
100
AcDbEntity
  8
SPL_200MHZ_A1_SMT
  6
BYLAYER
370
   211
 62
   256
100
AcDbPolyline
 90
     2
 70
     0
 43
0.01
 10
0.81
 20
1.279
 10
0.81
 20
1.2312
  0
LWPOLYLINE
  5
28B
330
12
100
AcDbEntity
  8
SPL_200MHZ_A1_SMT
  6
BYLAYER
370
   211
 62
   256
100
AcDbPolyline
 90
     2
 70
     0
 43
0.01
 10
0.801
 20
1.2842
 10
0.801
 20
1.2156
  0
LWPOLYLINE
  5
28C
330
12
100
AcDbEntity
  8
SPL_200MHZ_A1_SMT
  6
BYLAYER
370
   211
 62
   256
100
AcDbPolyline
 90
     2
 70
     0
 43
0.01
 10
0.792
 20
1.2894
 10
0.792
 20
1.2
  0
LWPOLYLINE
  5
28D
330
12
100
AcDbEntity
  8
SPL_200MHZ_A1_SMT
  6
BYLAYER
370
   211
 62
   256
100
AcDbPolyline
 90
     2
 70
     0
 43
0.01
 10
0.783
 20
1.2946
 10
0.783
 20
1.1844
  0
LWPOLYLINE
  5
28E
330
12
100
AcDbEntity
  8
SPL_200MHZ_A1_SMT
  6
BYLAYER
370
   211
 62
   256
100
AcDbPolyline
 90
     2
 70
     0
 43
0.01
 10
0.774
 20
1.2998
 10
0.774
 20
1.1688
  0
LWPOLYLINE
  5
28F
330
12
100
AcDbEntity
  8
SPL_200MHZ_A1_SMT
  6
BYLAYER
370
   211
 62
   256
100
AcDbPolyline
 90
     2
 70
     0
 43
0.01
 10
0.765
 20
1.305
 10
0.765
 20
1.1532
  0
LWPOLYLINE
  5
290
330
12
100
AcDbEntity
  8
SPL_200MHZ_A1_SMT
  6
BYLAYER
370
   211
 62
   256
100
AcDbPolyline
 90
     2
 70
     0
 43
0.01
 10
0.756
 20
1.3103
 10
0.756
 20
1.1376
  0
LWPOLYLINE
  5
291
330
12
100
AcDbEntity
  8
SPL_200MHZ_A1_SMT
  6
BYLAYER
370
   211
 62
   256
100
AcDbPolyline
 90
     2
 70
     0
 43
0.01
 10
0.747
 20
1.3155
 10
0.747
 20
1.122
  0
LWPOLYLINE
  5
292
330
12
100
AcDbEntity
  8
SPL_200MHZ_A1_SMT
  6
BYLAYER
370
   211
 62
   256
100
AcDbPolyline
 90
     2
 70
     0
 43
0.01
 10
8.599
 20
0.526
 10
8.599
 20
0.026
  0
LWPOLYLINE
  5
293
330
12
100
AcDbEntity
  8
SPL_200MHZ_A1_SMT
  6
BYLAYER
370
   211
 62
   256
100
AcDbPolyline
 90
     2
 70
     0
 43
0.01
 10
8.59
 20
0.526
 10
8.59
 20
0.026
  0
LWPOLYLINE
  5
294
330
12
100
AcDbEntity
  8
SPL_200MHZ_A1_SMT
  6
BYLAYER
370
   211
 62
   256
100
AcDbPolyline
 90
     2
 70
     0
 43
0.01
 10
8.581
 20
0.526
 10
8.581
 20
0.026
  0
LWPOLYLINE
  5
295
330
12
100
AcDbEntity
  8
SPL_200MHZ_A1_SMT
  6
BYLAYER
370
   211
 62
   256
100
AcDbPolyline
 90
     2
 70
     0
 43
0.01
 10
8.572
 20
0.526
 10
8.572
 20
0.026
  0
LWPOLYLINE
  5
296
330
12
100
AcDbEntity
  8
SPL_200MHZ_A1_SMT
  6
BYLAYER
370
   211
 62
   256
100
AcDbPolyline
 90
     2
 70
     0
 43
0.01
 10
8.563
 20
0.526
 10
8.563
 20
0.026
  0
LWPOLYLINE
  5
297
330
12
100
AcDbEntity
  8
SPL_200MHZ_A1_SMT
  6
BYLAYER
370
   211
 62
   256
100
AcDbPolyline
 90
     2
 70
     0
 43
0.01
 10
8.554
 20
0.526
 10
8.554
 20
0.026
  0
LWPOLYLINE
  5
298
330
12
100
AcDbEntity
  8
SPL_200MHZ_A1_SMT
  6
BYLAYER
370
   211
 62
   256
100
AcDbPolyline
 90
     2
 70
     0
 43
0.01
 10
8.545
 20
0.526
 10
8.545
 20
0.026
  0
LWPOLYLINE
  5
299
330
12
100
AcDbEntity
  8
SPL_200MHZ_A1_SMT
  6
BYLAYER
370
   211
 62
   256
100
AcDbPolyline
 90
     2
 70
     0
 43
0.01
 10
8.536
 20
0.526
 10
8.536
 20
0.026
  0
LWPOLYLINE
  5
29A
330
12
100
AcDbEntity
  8
SPL_200MHZ_A1_SMT
  6
BYLAYER
370
   211
 62
   256
100
AcDbPolyline
 90
     2
 70
     0
 43
0.01
 10
8.527
 20
0.526
 10
8.527
 20
0.026
  0
LWPOLYLINE
  5
29B
330
12
100
AcDbEntity
  8
SPL_200MHZ_A1_SMT
  6
BYLAYER
370
   211
 62
   256
100
AcDbPolyline
 90
     2
 70
     0
 43
0.01
 10
8.518
 20
0.526
 10
8.518
 20
0.026
  0
LWPOLYLINE
  5
29C
330
12
100
AcDbEntity
  8
SPL_200MHZ_A1_SMT
  6
BYLAYER
370
   211
 62
   256
100
AcDbPolyline
 90
     2
 70
     0
 43
0.01
 10
8.509
 20
0.526
 10
8.509
 20
0.026
  0
LWPOLYLINE
  5
29D
330
12
100
AcDbEntity
  8
SPL_200MHZ_A1_SMT
  6
BYLAYER
370
   211
 62
   256
100
AcDbPolyline
 90
     2
 70
     0
 43
0.01
 10
8.5
 20
0.526
 10
8.5
 20
0.026
  0
LWPOLYLINE
  5
29E
330
12
100
AcDbEntity
  8
SPL_200MHZ_A1_SMT
  6
BYLAYER
370
   211
 62
   256
100
AcDbPolyline
 90
     2
 70
     0
 43
0.01
 10
8.491
 20
0.526
 10
8.491
 20
0.026
  0
LWPOLYLINE
  5
29F
330
12
100
AcDbEntity
  8
SPL_200MHZ_A1_SMT
  6
BYLAYER
370
   211
 62
   256
100
AcDbPolyline
 90
     2
 70
     0
 43
0.01
 10
8.482
 20
0.526
 10
8.482
 20
0.026
  0
LWPOLYLINE
  5
2A0
330
12
100
AcDbEntity
  8
SPL_200MHZ_A1_SMT
  6
BYLAYER
370
   211
 62
   256
100
AcDbPolyline
 90
     2
 70
     0
 43
0.01
 10
8.473
 20
0.526
 10
8.473
 20
0.026
  0
LWPOLYLINE
  5
2A1
330
12
100
AcDbEntity
  8
SPL_200MHZ_A1_SMT
  6
BYLAYER
370
   211
 62
   256
100
AcDbPolyline
 90
     2
 70
     0
 43
0.01
 10
8.464
 20
0.526
 10
8.464
 20
0.026
  0
LWPOLYLINE
  5
2A2
330
12
100
AcDbEntity
  8
SPL_200MHZ_A1_SMT
  6
BYLAYER
370
   211
 62
   256
100
AcDbPolyline
 90
     2
 70
     0
 43
0.01
 10
8.455
 20
0.526
 10
8.455
 20
0.026
  0
LWPOLYLINE
  5
2A3
330
12
100
AcDbEntity
  8
SPL_200MHZ_A1_SMT
  6
BYLAYER
370
   211
 62
   256
100
AcDbPolyline
 90
     2
 70
     0
 43
0.01
 10
8.446
 20
0.526
 10
8.446
 20
0.026
  0
LWPOLYLINE
  5
2A4
330
12
100
AcDbEntity
  8
SPL_200MHZ_A1_SMT
  6
BYLAYER
370
   211
 62
   256
100
AcDbPolyline
 90
     2
 70
     0
 43
0.01
 10
8.437
 20
0.526
 10
8.437
 20
0.026
  0
LWPOLYLINE
  5
2A5
330
12
100
AcDbEntity
  8
SPL_200MHZ_A1_SMT
  6
BYLAYER
370
   211
 62
   256
100
AcDbPolyline
 90
     2
 70
     0
 43
0.01
 10
8.428
 20
0.526
 10
8.428
 20
0.026
  0
LWPOLYLINE
  5
2A6
330
12
100
AcDbEntity
  8
SPL_200MHZ_A1_SMT
  6
BYLAYER
370
   211
 62
   256
100
AcDbPolyline
 90
     2
 70
     0
 43
0.01
 10
8.419
 20
0.526
 10
8.419
 20
0.026
  0
LWPOLYLINE
  5
2A7
330
12
100
AcDbEntity
  8
SPL_200MHZ_A1_SMT
  6
BYLAYER
370
   211
 62
   256
100
AcDbPolyline
 90
     2
 70
     0
 43
0.01
 10
8.41
 20
0.526
 10
8.41
 20
0.026
  0
LWPOLYLINE
  5
2A8
330
12
100
AcDbEntity
  8
SPL_200MHZ_A1_SMT
  6
BYLAYER
370
   211
 62
   256
100
AcDbPolyline
 90
     2
 70
     0
 43
0.01
 10
8.401
 20
0.526
 10
8.401
 20
0.026
  0
LWPOLYLINE
  5
2A9
330
12
100
AcDbEntity
  8
SPL_200MHZ_A1_SMT
  6
BYLAYER
370
   211
 62
   256
100
AcDbPolyline
 90
     2
 70
     0
 43
0.01
 10
8.392
 20
0.526
 10
8.392
 20
0.026
  0
LWPOLYLINE
  5
2AA
330
12
100
AcDbEntity
  8
SPL_200MHZ_A1_SMT
  6
BYLAYER
370
   211
 62
   256
100
AcDbPolyline
 90
     2
 70
     0
 43
0.01
 10
8.383
 20
0.526
 10
8.383
 20
0.026
  0
LWPOLYLINE
  5
2AB
330
12
100
AcDbEntity
  8
SPL_200MHZ_A1_SMT
  6
BYLAYER
370
   211
 62
   256
100
AcDbPolyline
 90
     2
 70
     0
 43
0.01
 10
8.374
 20
0.526
 10
8.374
 20
0.026
  0
LWPOLYLINE
  5
2AC
330
12
100
AcDbEntity
  8
SPL_200MHZ_A1_SMT
  6
BYLAYER
370
   211
 62
   256
100
AcDbPolyline
 90
     2
 70
     0
 43
0.01
 10
8.365
 20
0.526
 10
8.365
 20
0.026
  0
LWPOLYLINE
  5
2AD
330
12
100
AcDbEntity
  8
SPL_200MHZ_A1_SMT
  6
BYLAYER
370
   211
 62
   256
100
AcDbPolyline
 90
     2
 70
     0
 43
0.01
 10
8.356
 20
0.526
 10
8.356
 20
0.026
  0
LWPOLYLINE
  5
2AE
330
12
100
AcDbEntity
  8
SPL_200MHZ_A1_SMT
  6
BYLAYER
370
   211
 62
   256
100
AcDbPolyline
 90
     2
 70
     0
 43
0.01
 10
8.347
 20
0.526
 10
8.347
 20
0.026
  0
LWPOLYLINE
  5
2AF
330
12
100
AcDbEntity
  8
SPL_200MHZ_A1_SMT
  6
BYLAYER
370
   211
 62
   256
100
AcDbPolyline
 90
     2
 70
     0
 43
0.01
 10
8.338
 20
0.526
 10
8.338
 20
0.026
  0
LWPOLYLINE
  5
2B0
330
12
100
AcDbEntity
  8
SPL_200MHZ_A1_SMT
  6
BYLAYER
370
   211
 62
   256
100
AcDbPolyline
 90
     2
 70
     0
 43
0.01
 10
8.63
 20
0.525
 10
8.334
 20
0.525
  0
LWPOLYLINE
  5
2B1
330
12
100
AcDbEntity
  8
SPL_200MHZ_A1_SMT
  6
BYLAYER
370
   211
 62
   256
100
AcDbPolyline
 90
     2
 70
     0
 43
0.01
 10
8.63
 20
0.516
 10
8.334
 20
0.516
  0
LWPOLYLINE
  5
2B2
330
12
100
AcDbEntity
  8
SPL_200MHZ_A1_SMT
  6
BYLAYER
370
   211
 62
   256
100
AcDbPolyline
 90
     2
 70
     0
 43
0.01
 10
8.63
 20
0.507
 10
8.334
 20
0.507
  0
LWPOLYLINE
  5
2B3
330
12
100
AcDbEntity
  8
SPL_200MHZ_A1_SMT
  6
BYLAYER
370
   211
 62
   256
100
AcDbPolyline
 90
     2
 70
     0
 43
0.01
 10
8.63
 20
0.498
 10
8.334
 20
0.498
  0
LWPOLYLINE
  5
2B4
330
12
100
AcDbEntity
  8
SPL_200MHZ_A1_SMT
  6
BYLAYER
370
   211
 62
   256
100
AcDbPolyline
 90
     2
 70
     0
 43
0.01
 10
8.63
 20
0.489
 10
8.334
 20
0.489
  0
LWPOLYLINE
  5
2B5
330
12
100
AcDbEntity
  8
SPL_200MHZ_A1_SMT
  6
BYLAYER
370
   211
 62
   256
100
AcDbPolyline
 90
     2
 70
     0
 43
0.01
 10
8.63
 20
0.48
 10
8.334
 20
0.48
  0
LWPOLYLINE
  5
2B6
330
12
100
AcDbEntity
  8
SPL_200MHZ_A1_SMT
  6
BYLAYER
370
   211
 62
   256
100
AcDbPolyline
 90
     2
 70
     0
 43
0.01
 10
8.63
 20
0.471
 10
8.334
 20
0.471
  0
LWPOLYLINE
  5
2B7
330
12
100
AcDbEntity
  8
SPL_200MHZ_A1_SMT
  6
BYLAYER
370
   211
 62
   256
100
AcDbPolyline
 90
     2
 70
     0
 43
0.01
 10
8.63
 20
0.462
 10
8.334
 20
0.462
  0
LWPOLYLINE
  5
2B8
330
12
100
AcDbEntity
  8
SPL_200MHZ_A1_SMT
  6
BYLAYER
370
   211
 62
   256
100
AcDbPolyline
 90
     2
 70
     0
 43
0.01
 10
8.63
 20
0.453
 10
8.334
 20
0.453
  0
LWPOLYLINE
  5
2B9
330
12
100
AcDbEntity
  8
SPL_200MHZ_A1_SMT
  6
BYLAYER
370
   211
 62
   256
100
AcDbPolyline
 90
     2
 70
     0
 43
0.01
 10
8.63
 20
0.444
 10
8.334
 20
0.444
  0
LWPOLYLINE
  5
2BA
330
12
100
AcDbEntity
  8
SPL_200MHZ_A1_SMT
  6
BYLAYER
370
   211
 62
   256
100
AcDbPolyline
 90
     2
 70
     0
 43
0.01
 10
8.63
 20
0.435
 10
8.334
 20
0.435
  0
LWPOLYLINE
  5
2BB
330
12
100
AcDbEntity
  8
SPL_200MHZ_A1_SMT
  6
BYLAYER
370
   211
 62
   256
100
AcDbPolyline
 90
     2
 70
     0
 43
0.01
 10
8.63
 20
0.426
 10
8.334
 20
0.426
  0
LWPOLYLINE
  5
2BC
330
12
100
AcDbEntity
  8
SPL_200MHZ_A1_SMT
  6
BYLAYER
370
   211
 62
   256
100
AcDbPolyline
 90
     2
 70
     0
 43
0.01
 10
8.63
 20
0.417
 10
8.334
 20
0.417
  0
LWPOLYLINE
  5
2BD
330
12
100
AcDbEntity
  8
SPL_200MHZ_A1_SMT
  6
BYLAYER
370
   211
 62
   256
100
AcDbPolyline
 90
     2
 70
     0
 43
0.01
 10
8.63
 20
0.408
 10
8.334
 20
0.408
  0
LWPOLYLINE
  5
2BE
330
12
100
AcDbEntity
  8
SPL_200MHZ_A1_SMT
  6
BYLAYER
370
   211
 62
   256
100
AcDbPolyline
 90
     2
 70
     0
 43
0.01
 10
8.63
 20
0.399
 10
8.334
 20
0.399
  0
LWPOLYLINE
  5
2BF
330
12
100
AcDbEntity
  8
SPL_200MHZ_A1_SMT
  6
BYLAYER
370
   211
 62
   256
100
AcDbPolyline
 90
     2
 70
     0
 43
0.01
 10
8.63
 20
0.39
 10
8.334
 20
0.39
  0
LWPOLYLINE
  5
2C0
330
12
100
AcDbEntity
  8
SPL_200MHZ_A1_SMT
  6
BYLAYER
370
   211
 62
   256
100
AcDbPolyline
 90
     2
 70
     0
 43
0.01
 10
8.63
 20
0.381
 10
8.334
 20
0.381
  0
LWPOLYLINE
  5
2C1
330
12
100
AcDbEntity
  8
SPL_200MHZ_A1_SMT
  6
BYLAYER
370
   211
 62
   256
100
AcDbPolyline
 90
     2
 70
     0
 43
0.01
 10
8.63
 20
0.372
 10
8.334
 20
0.372
  0
LWPOLYLINE
  5
2C2
330
12
100
AcDbEntity
  8
SPL_200MHZ_A1_SMT
  6
BYLAYER
370
   211
 62
   256
100
AcDbPolyline
 90
     2
 70
     0
 43
0.01
 10
8.63
 20
0.363
 10
8.334
 20
0.363
  0
LWPOLYLINE
  5
2C3
330
12
100
AcDbEntity
  8
SPL_200MHZ_A1_SMT
  6
BYLAYER
370
   211
 62
   256
100
AcDbPolyline
 90
     2
 70
     0
 43
0.01
 10
8.63
 20
0.354
 10
8.334
 20
0.354
  0
LWPOLYLINE
  5
2C4
330
12
100
AcDbEntity
  8
SPL_200MHZ_A1_SMT
  6
BYLAYER
370
   211
 62
   256
100
AcDbPolyline
 90
     2
 70
     0
 43
0.01
 10
8.63
 20
0.345
 10
8.334
 20
0.345
  0
LWPOLYLINE
  5
2C5
330
12
100
AcDbEntity
  8
SPL_200MHZ_A1_SMT
  6
BYLAYER
370
   211
 62
   256
100
AcDbPolyline
 90
     2
 70
     0
 43
0.01
 10
8.63
 20
0.336
 10
8.334
 20
0.336
  0
LWPOLYLINE
  5
2C6
330
12
100
AcDbEntity
  8
SPL_200MHZ_A1_SMT
  6
BYLAYER
370
   211
 62
   256
100
AcDbPolyline
 90
     2
 70
     0
 43
0.01
 10
8.63
 20
0.327
 10
8.334
 20
0.327
  0
LWPOLYLINE
  5
2C7
330
12
100
AcDbEntity
  8
SPL_200MHZ_A1_SMT
  6
BYLAYER
370
   211
 62
   256
100
AcDbPolyline
 90
     2
 70
     0
 43
0.01
 10
8.63
 20
0.318
 10
8.334
 20
0.318
  0
LWPOLYLINE
  5
2C8
330
12
100
AcDbEntity
  8
SPL_200MHZ_A1_SMT
  6
BYLAYER
370
   211
 62
   256
100
AcDbPolyline
 90
     2
 70
     0
 43
0.01
 10
8.63
 20
0.309
 10
8.334
 20
0.309
  0
LWPOLYLINE
  5
2C9
330
12
100
AcDbEntity
  8
SPL_200MHZ_A1_SMT
  6
BYLAYER
370
   211
 62
   256
100
AcDbPolyline
 90
     2
 70
     0
 43
0.01
 10
8.63
 20
0.3
 10
8.334
 20
0.3
  0
LWPOLYLINE
  5
2CA
330
12
100
AcDbEntity
  8
SPL_200MHZ_A1_SMT
  6
BYLAYER
370
   211
 62
   256
100
AcDbPolyline
 90
     2
 70
     0
 43
0.01
 10
8.63
 20
0.291
 10
8.334
 20
0.291
  0
LWPOLYLINE
  5
2CB
330
12
100
AcDbEntity
  8
SPL_200MHZ_A1_SMT
  6
BYLAYER
370
   211
 62
   256
100
AcDbPolyline
 90
     2
 70
     0
 43
0.01
 10
8.63
 20
0.282
 10
8.334
 20
0.282
  0
LWPOLYLINE
  5
2CC
330
12
100
AcDbEntity
  8
SPL_200MHZ_A1_SMT
  6
BYLAYER
370
   211
 62
   256
100
AcDbPolyline
 90
     2
 70
     0
 43
0.01
 10
8.63
 20
0.273
 10
8.334
 20
0.273
  0
LWPOLYLINE
  5
2CD
330
12
100
AcDbEntity
  8
SPL_200MHZ_A1_SMT
  6
BYLAYER
370
   211
 62
   256
100
AcDbPolyline
 90
     2
 70
     0
 43
0.01
 10
8.63
 20
0.264
 10
8.334
 20
0.264
  0
LWPOLYLINE
  5
2CE
330
12
100
AcDbEntity
  8
SPL_200MHZ_A1_SMT
  6
BYLAYER
370
   211
 62
   256
100
AcDbPolyline
 90
     2
 70
     0
 43
0.01
 10
8.63
 20
0.255
 10
8.334
 20
0.255
  0
LWPOLYLINE
  5
2CF
330
12
100
AcDbEntity
  8
SPL_200MHZ_A1_SMT
  6
BYLAYER
370
   211
 62
   256
100
AcDbPolyline
 90
     2
 70
     0
 43
0.01
 10
8.63
 20
0.246
 10
8.334
 20
0.246
  0
LWPOLYLINE
  5
2D0
330
12
100
AcDbEntity
  8
SPL_200MHZ_A1_SMT
  6
BYLAYER
370
   211
 62
   256
100
AcDbPolyline
 90
     2
 70
     0
 43
0.01
 10
8.63
 20
0.237
 10
8.334
 20
0.237
  0
LWPOLYLINE
  5
2D1
330
12
100
AcDbEntity
  8
SPL_200MHZ_A1_SMT
  6
BYLAYER
370
   211
 62
   256
100
AcDbPolyline
 90
     2
 70
     0
 43
0.01
 10
8.63
 20
0.228
 10
8.334
 20
0.228
  0
LWPOLYLINE
  5
2D2
330
12
100
AcDbEntity
  8
SPL_200MHZ_A1_SMT
  6
BYLAYER
370
   211
 62
   256
100
AcDbPolyline
 90
     2
 70
     0
 43
0.01
 10
8.63
 20
0.219
 10
8.334
 20
0.219
  0
LWPOLYLINE
  5
2D3
330
12
100
AcDbEntity
  8
SPL_200MHZ_A1_SMT
  6
BYLAYER
370
   211
 62
   256
100
AcDbPolyline
 90
     2
 70
     0
 43
0.01
 10
8.63
 20
0.21
 10
8.334
 20
0.21
  0
LWPOLYLINE
  5
2D4
330
12
100
AcDbEntity
  8
SPL_200MHZ_A1_SMT
  6
BYLAYER
370
   211
 62
   256
100
AcDbPolyline
 90
     2
 70
     0
 43
0.01
 10
8.63
 20
0.201
 10
8.334
 20
0.201
  0
LWPOLYLINE
  5
2D5
330
12
100
AcDbEntity
  8
SPL_200MHZ_A1_SMT
  6
BYLAYER
370
   211
 62
   256
100
AcDbPolyline
 90
     2
 70
     0
 43
0.01
 10
8.63
 20
0.192
 10
8.334
 20
0.192
  0
LWPOLYLINE
  5
2D6
330
12
100
AcDbEntity
  8
SPL_200MHZ_A1_SMT
  6
BYLAYER
370
   211
 62
   256
100
AcDbPolyline
 90
     2
 70
     0
 43
0.01
 10
8.63
 20
0.183
 10
8.334
 20
0.183
  0
LWPOLYLINE
  5
2D7
330
12
100
AcDbEntity
  8
SPL_200MHZ_A1_SMT
  6
BYLAYER
370
   211
 62
   256
100
AcDbPolyline
 90
     2
 70
     0
 43
0.01
 10
8.63
 20
0.174
 10
8.334
 20
0.174
  0
LWPOLYLINE
  5
2D8
330
12
100
AcDbEntity
  8
SPL_200MHZ_A1_SMT
  6
BYLAYER
370
   211
 62
   256
100
AcDbPolyline
 90
     2
 70
     0
 43
0.01
 10
8.63
 20
0.165
 10
8.334
 20
0.165
  0
LWPOLYLINE
  5
2D9
330
12
100
AcDbEntity
  8
SPL_200MHZ_A1_SMT
  6
BYLAYER
370
   211
 62
   256
100
AcDbPolyline
 90
     2
 70
     0
 43
0.01
 10
8.63
 20
0.156
 10
8.334
 20
0.156
  0
LWPOLYLINE
  5
2DA
330
12
100
AcDbEntity
  8
SPL_200MHZ_A1_SMT
  6
BYLAYER
370
   211
 62
   256
100
AcDbPolyline
 90
     2
 70
     0
 43
0.01
 10
8.63
 20
0.147
 10
8.334
 20
0.147
  0
LWPOLYLINE
  5
2DB
330
12
100
AcDbEntity
  8
SPL_200MHZ_A1_SMT
  6
BYLAYER
370
   211
 62
   256
100
AcDbPolyline
 90
     2
 70
     0
 43
0.01
 10
8.63
 20
0.138
 10
8.334
 20
0.138
  0
LWPOLYLINE
  5
2DC
330
12
100
AcDbEntity
  8
SPL_200MHZ_A1_SMT
  6
BYLAYER
370
   211
 62
   256
100
AcDbPolyline
 90
     2
 70
     0
 43
0.01
 10
8.63
 20
0.129
 10
8.334
 20
0.129
  0
LWPOLYLINE
  5
2DD
330
12
100
AcDbEntity
  8
SPL_200MHZ_A1_SMT
  6
BYLAYER
370
   211
 62
   256
100
AcDbPolyline
 90
     2
 70
     0
 43
0.01
 10
8.63
 20
0.12
 10
8.334
 20
0.12
  0
LWPOLYLINE
  5
2DE
330
12
100
AcDbEntity
  8
SPL_200MHZ_A1_SMT
  6
BYLAYER
370
   211
 62
   256
100
AcDbPolyline
 90
     2
 70
     0
 43
0.01
 10
8.63
 20
0.111
 10
8.334
 20
0.111
  0
LWPOLYLINE
  5
2DF
330
12
100
AcDbEntity
  8
SPL_200MHZ_A1_SMT
  6
BYLAYER
370
   211
 62
   256
100
AcDbPolyline
 90
     2
 70
     0
 43
0.01
 10
8.63
 20
0.102
 10
8.334
 20
0.102
  0
LWPOLYLINE
  5
2E0
330
12
100
AcDbEntity
  8
SPL_200MHZ_A1_SMT
  6
BYLAYER
370
   211
 62
   256
100
AcDbPolyline
 90
     2
 70
     0
 43
0.01
 10
8.63
 20
0.093
 10
8.334
 20
0.093
  0
LWPOLYLINE
  5
2E1
330
12
100
AcDbEntity
  8
SPL_200MHZ_A1_SMT
  6
BYLAYER
370
   211
 62
   256
100
AcDbPolyline
 90
     2
 70
     0
 43
0.01
 10
8.63
 20
0.084
 10
8.334
 20
0.084
  0
LWPOLYLINE
  5
2E2
330
12
100
AcDbEntity
  8
SPL_200MHZ_A1_SMT
  6
BYLAYER
370
   211
 62
   256
100
AcDbPolyline
 90
     2
 70
     0
 43
0.01
 10
8.63
 20
0.075
 10
8.334
 20
0.075
  0
LWPOLYLINE
  5
2E3
330
12
100
AcDbEntity
  8
SPL_200MHZ_A1_SMT
  6
BYLAYER
370
   211
 62
   256
100
AcDbPolyline
 90
     2
 70
     0
 43
0.01
 10
8.63
 20
0.066
 10
8.334
 20
0.066
  0
LWPOLYLINE
  5
2E4
330
12
100
AcDbEntity
  8
SPL_200MHZ_A1_SMT
  6
BYLAYER
370
   211
 62
   256
100
AcDbPolyline
 90
     2
 70
     0
 43
0.01
 10
8.63
 20
0.057
 10
8.334
 20
0.057
  0
LWPOLYLINE
  5
2E5
330
12
100
AcDbEntity
  8
SPL_200MHZ_A1_SMT
  6
BYLAYER
370
   211
 62
   256
100
AcDbPolyline
 90
     2
 70
     0
 43
0.01
 10
8.63
 20
0.048
 10
8.334
 20
0.048
  0
LWPOLYLINE
  5
2E6
330
12
100
AcDbEntity
  8
SPL_200MHZ_A1_SMT
  6
BYLAYER
370
   211
 62
   256
100
AcDbPolyline
 90
     2
 70
     0
 43
0.01
 10
8.63
 20
0.039
 10
8.334
 20
0.039
  0
LWPOLYLINE
  5
2E7
330
12
100
AcDbEntity
  8
SPL_200MHZ_A1_SMT
  6
BYLAYER
370
   211
 62
   256
100
AcDbPolyline
 90
     2
 70
     0
 43
0.01
 10
8.63
 20
0.03
 10
8.334
 20
0.03
  0
LWPOLYLINE
  5
2E8
330
12
100
AcDbEntity
  8
SPL_200MHZ_A1_SMT
  6
BYLAYER
370
   211
 62
   256
100
AcDbPolyline
 90
     2
 70
     0
 43
0.01
 10
8.334
 20
0.526
 10
8.334
 20
0.026
  0
LWPOLYLINE
  5
2E9
330
12
100
AcDbEntity
  8
SPL_200MHZ_A1_SMT
  6
BYLAYER
370
   211
 62
   256
100
AcDbPolyline
 90
     2
 70
     0
 43
0.01
 10
8.63
 20
0.026
 10
8.334
 20
0.026
  0
LWPOLYLINE
  5
2EA
330
12
100
AcDbEntity
  8
SPL_200MHZ_A1_SMT
  6
BYLAYER
370
   211
 62
   256
100
AcDbPolyline
 90
     2
 70
     0
 43
0.01
 10
8.63
 20
0.526
 10
8.63
 20
0.026
  0
LWPOLYLINE
  5
2EB
330
12
100
AcDbEntity
  8
SPL_200MHZ_A1_SMT
  6
BYLAYER
370
   211
 62
   256
100
AcDbPolyline
 90
     2
 70
     0
 43
0.01
 10
8.63
 20
0.526
 10
8.334
 20
0.526
  0
LWPOLYLINE
  5
2EC
330
12
100
AcDbEntity
  8
SPL_200MHZ_A1_SMT
  6
BYLAYER
370
   211
 62
   256
100
AcDbPolyline
 90
     2
 70
     0
 43
0.01
 10
8.626
 20
0.526
 10
8.626
 20
0.026
  0
LWPOLYLINE
  5
2ED
330
12
100
AcDbEntity
  8
SPL_200MHZ_A1_SMT
  6
BYLAYER
370
   211
 62
   256
100
AcDbPolyline
 90
     2
 70
     0
 43
0.01
 10
8.617
 20
0.526
 10
8.617
 20
0.026
  0
LWPOLYLINE
  5
2EE
330
12
100
AcDbEntity
  8
SPL_200MHZ_A1_SMT
  6
BYLAYER
370
   211
 62
   256
100
AcDbPolyline
 90
     2
 70
     0
 43
0.01
 10
8.608
 20
0.526
 10
8.608
 20
0.026
  0
LWPOLYLINE
  5
2EF
330
12
100
AcDbEntity
  8
SPL_200MHZ_A1_SMT
  6
BYLAYER
370
   211
 62
   256
100
AcDbPolyline
 90
     2
 70
     0
 43
0.01
 10
0.8614
 20
3.1146
 10
0.8614
 20
3.0222
  0
LWPOLYLINE
  5
2F0
330
12
100
AcDbEntity
  8
SPL_200MHZ_A1_SMT
  6
BYLAYER
370
   211
 62
   256
100
AcDbPolyline
 90
     2
 70
     0
 43
0.01
 10
0.8524
 20
3.1094
 10
0.8524
 20
3.0378
  0
LWPOLYLINE
  5
2F1
330
12
100
AcDbEntity
  8
SPL_200MHZ_A1_SMT
  6
BYLAYER
370
   211
 62
   256
100
AcDbPolyline
 90
     2
 70
     0
 43
0.01
 10
0.8434
 20
3.1042
 10
0.8434
 20
3.0533
  0
LWPOLYLINE
  5
2F2
330
12
100
AcDbEntity
  8
SPL_200MHZ_A1_SMT
  6
BYLAYER
370
   211
 62
   256
100
AcDbPolyline
 90
     2
 70
     0
 43
0.01
 10
0.8344
 20
3.099
 10
0.8344
 20
3.0689
  0
LWPOLYLINE
  5
2F3
330
12
100
AcDbEntity
  8
SPL_200MHZ_A1_SMT
  6
BYLAYER
370
   211
 62
   256
100
AcDbPolyline
 90
     2
 70
     0
 43
0.01
 10
0.8254
 20
3.0938
 10
0.8254
 20
3.0845
  0
LWPOLYLINE
  5
2F4
330
12
100
AcDbEntity
  8
SPL_200MHZ_A1_SMT
  6
BYLAYER
370
   211
 62
   256
100
AcDbPolyline
 90
     2
 70
     0
 43
0.01
 10
0.9222
 20
3.1396
 10
0.9046
 20
3.1396
  0
LWPOLYLINE
  5
2F5
330
12
100
AcDbEntity
  8
SPL_200MHZ_A1_SMT
  6
BYLAYER
370
   211
 62
   256
100
AcDbPolyline
 90
     2
 70
     0
 43
0.01
 10
0.9274
 20
3.1306
 10
0.8891
 20
3.1306
  0
LWPOLYLINE
  5
2F6
330
12
100
AcDbEntity
  8
SPL_200MHZ_A1_SMT
  6
BYLAYER
370
   211
 62
   256
100
AcDbPolyline
 90
     2
 70
     0
 43
0.01
 10
0.9326
 20
3.1216
 10
0.8735
 20
3.1216
  0
LWPOLYLINE
  5
2F7
330
12
100
AcDbEntity
  8
SPL_200MHZ_A1_SMT
  6
BYLAYER
370
   211
 62
   256
100
AcDbPolyline
 90
     2
 70
     0
 43
0.01
 10
0.9378
 20
3.1126
 10
0.8579
 20
3.1126
  0
LWPOLYLINE
  5
2F8
330
12
100
AcDbEntity
  8
SPL_200MHZ_A1_SMT
  6
BYLAYER
370
   211
 62
   256
100
AcDbPolyline
 90
     2
 70
     0
 43
0.01
 10
0.9429
 20
3.1036
 10
0.8424
 20
3.1036
  0
LWPOLYLINE
  5
2F9
330
12
100
AcDbEntity
  8
SPL_200MHZ_A1_SMT
  6
BYLAYER
370
   211
 62
   256
100
AcDbPolyline
 90
     2
 70
     0
 43
0.01
 10
0.9481
 20
3.0946
 10
0.8268
 20
3.0946
  0
LWPOLYLINE
  5
2FA
330
12
100
AcDbEntity
  8
SPL_200MHZ_A1_SMT
  6
BYLAYER
370
   211
 62
   256
100
AcDbPolyline
 90
     2
 70
     0
 43
0.01
 10
0.9533
 20
3.0856
 10
0.8248
 20
3.0856
  0
LWPOLYLINE
  5
2FB
330
12
100
AcDbEntity
  8
SPL_200MHZ_A1_SMT
  6
BYLAYER
370
   211
 62
   256
100
AcDbPolyline
 90
     2
 70
     0
 43
0.01
 10
0.9585
 20
3.0766
 10
0.83
 20
3.0766
  0
LWPOLYLINE
  5
2FC
330
12
100
AcDbEntity
  8
SPL_200MHZ_A1_SMT
  6
BYLAYER
370
   211
 62
   256
100
AcDbPolyline
 90
     2
 70
     0
 43
0.01
 10
0.9637
 20
3.0676
 10
0.8352
 20
3.0676
  0
LWPOLYLINE
  5
2FD
330
12
100
AcDbEntity
  8
SPL_200MHZ_A1_SMT
  6
BYLAYER
370
   211
 62
   256
100
AcDbPolyline
 90
     2
 70
     0
 43
0.01
 10
0.9689
 20
3.0586
 10
0.8404
 20
3.0586
  0
LWPOLYLINE
  5
2FE
330
12
100
AcDbEntity
  8
SPL_200MHZ_A1_SMT
  6
BYLAYER
370
   211
 62
   256
100
AcDbPolyline
 90
     2
 70
     0
 43
0.01
 10
0.9741
 20
3.0496
 10
0.8456
 20
3.0496
  0
LWPOLYLINE
  5
2FF
330
12
100
AcDbEntity
  8
SPL_200MHZ_A1_SMT
  6
BYLAYER
370
   211
 62
   256
100
AcDbPolyline
 90
     2
 70
     0
 43
0.01
 10
0.9793
 20
3.0406
 10
0.8507
 20
3.0406
  0
LWPOLYLINE
  5
300
330
12
100
AcDbEntity
  8
SPL_200MHZ_A1_SMT
  6
BYLAYER
370
   211
 62
   256
100
AcDbPolyline
 90
     2
 70
     0
 43
0.01
 10
0.9845
 20
3.0316
 10
0.8559
 20
3.0316
  0
LWPOLYLINE
  5
301
330
12
100
AcDbEntity
  8
SPL_200MHZ_A1_SMT
  6
BYLAYER
370
   211
 62
   256
100
AcDbPolyline
 90
     2
 70
     0
 43
0.01
 10
0.9897
 20
3.0226
 10
0.8611
 20
3.0226
  0
LWPOLYLINE
  5
302
330
12
100
AcDbEntity
  8
SPL_200MHZ_A1_SMT
  6
BYLAYER
370
   211
 62
   256
100
AcDbPolyline
 90
     2
 70
     0
 43
0.01
 10
0.9949
 20
3.0136
 10
0.8663
 20
3.0136
  0
LWPOLYLINE
  5
303
330
12
100
AcDbEntity
  8
SPL_200MHZ_A1_SMT
  6
BYLAYER
370
   211
 62
   256
100
AcDbPolyline
 90
     2
 70
     0
 43
0.01
 10
1.0001
 20
3.0046
 10
0.8715
 20
3.0046
  0
LWPOLYLINE
  5
304
330
12
100
AcDbEntity
  8
SPL_200MHZ_A1_SMT
  6
BYLAYER
370
   211
 62
   256
100
AcDbPolyline
 90
     2
 70
     0
 43
0.01
 10
1.0053
 20
2.9956
 10
0.8767
 20
2.9956
  0
LWPOLYLINE
  5
305
330
12
100
AcDbEntity
  8
SPL_200MHZ_A1_SMT
  6
BYLAYER
370
   211
 62
   256
100
AcDbPolyline
 90
     2
 70
     0
 43
0.01
 10
1.0105
 20
2.9866
 10
0.8819
 20
2.9866
  0
LWPOLYLINE
  5
306
330
12
100
AcDbEntity
  8
SPL_200MHZ_A1_SMT
  6
BYLAYER
370
   211
 62
   256
100
AcDbPolyline
 90
     2
 70
     0
 43
0.01
 10
1.0157
 20
2.9776
 10
0.8871
 20
2.9776
  0
LWPOLYLINE
  5
307
330
12
100
AcDbEntity
  8
SPL_200MHZ_A1_SMT
  6
BYLAYER
370
   211
 62
   256
100
AcDbPolyline
 90
     2
 70
     0
 43
0.01
 10
1.0209
 20
2.9686
 10
0.8923
 20
2.9686
  0
LWPOLYLINE
  5
308
330
12
100
AcDbEntity
  8
SPL_200MHZ_A1_SMT
  6
BYLAYER
370
   211
 62
   256
100
AcDbPolyline
 90
     2
 70
     0
 43
0.01
 10
1.026
 20
2.9596
 10
0.8975
 20
2.9596
  0
LWPOLYLINE
  5
309
330
12
100
AcDbEntity
  8
SPL_200MHZ_A1_SMT
  6
BYLAYER
370
   211
 62
   256
100
AcDbPolyline
 90
     2
 70
     0
 43
0.01
 10
1.0312
 20
2.9506
 10
0.9027
 20
2.9506
  0
LWPOLYLINE
  5
30A
330
12
100
AcDbEntity
  8
SPL_200MHZ_A1_SMT
  6
BYLAYER
370
   211
 62
   256
100
AcDbPolyline
 90
     2
 70
     0
 43
0.01
 10
1.0364
 20
2.9416
 10
0.9079
 20
2.9416
  0
LWPOLYLINE
  5
30B
330
12
100
AcDbEntity
  8
SPL_200MHZ_A1_SMT
  6
BYLAYER
370
   211
 62
   256
100
AcDbPolyline
 90
     2
 70
     0
 43
0.01
 10
1.0262
 20
2.9326
 10
0.9131
 20
2.9326
  0
LWPOLYLINE
  5
30C
330
12
100
AcDbEntity
  8
SPL_200MHZ_A1_SMT
  6
BYLAYER
370
   211
 62
   256
100
AcDbPolyline
 90
     2
 70
     0
 43
0.01
 10
1.0107
 20
2.9236
 10
0.9183
 20
2.9236
  0
LWPOLYLINE
  5
30D
330
12
100
AcDbEntity
  8
SPL_200MHZ_A1_SMT
  6
BYLAYER
370
   211
 62
   256
100
AcDbPolyline
 90
     2
 70
     0
 43
0.01
 10
0.9951
 20
2.9146
 10
0.9235
 20
2.9146
  0
LWPOLYLINE
  5
30E
330
12
100
AcDbEntity
  8
SPL_200MHZ_A1_SMT
  6
BYLAYER
370
   211
 62
   256
100
AcDbPolyline
 90
     2
 70
     0
 43
0.01
 10
0.9795
 20
2.9056
 10
0.9287
 20
2.9056
  0
LWPOLYLINE
  5
30F
330
12
100
AcDbEntity
  8
SPL_200MHZ_A1_SMT
  6
BYLAYER
370
   211
 62
   256
100
AcDbPolyline
 90
     2
 70
     0
 43
0.01
 10
0.9639
 20
2.8966
 10
0.9339
 20
2.8966
  0
LWPOLYLINE
  5
310
330
12
100
AcDbEntity
  8
SPL_200MHZ_A1_SMT
  6
BYLAYER
370
   211
 62
   256
100
AcDbPolyline
 90
     2
 70
     0
 43
0.01
 10
0.9483
 20
2.8876
 10
0.9391
 20
2.8876
  0
LWPOLYLINE
  5
311
330
12
100
AcDbEntity
  8
SPL_200MHZ_A1_SMT
  6
BYLAYER
370
   211
 62
   256
100
AcDbPolyline
 90
     2
 70
     0
 43
0.01
 10
0.9178
 20
3.1472
 10
0.8214
 20
3.0915
  0
LWPOLYLINE
  5
312
330
12
100
AcDbEntity
  8
SPL_200MHZ_A1_SMT
  6
BYLAYER
370
   211
 62
   256
100
AcDbPolyline
 90
     3
 70
     0
 43
0.01
 10
0.9178
 20
3.1472
 10
1.0378
 20
2.9393
 10
0.9414
 20
2.8836
  0
LWPOLYLINE
  5
313
330
12
100
AcDbEntity
  8
SPL_200MHZ_A1_SMT
  6
BYLAYER
370
   211
 62
   256
100
AcDbPolyline
 90
     2
 70
     0
 43
0.01
 10
0.8214
 20
3.0915
 10
0.9414
 20
2.8836
  0
LWPOLYLINE
  5
314
330
12
100
AcDbEntity
  8
SPL_200MHZ_A1_SMT
  6
BYLAYER
370
   211
 62
   256
100
AcDbPolyline
 90
     2
 70
     0
 43
0.01
 10
1.0324
 20
2.9486
 10
1.0324
 20
2.9361
  0
LWPOLYLINE
  5
315
330
12
100
AcDbEntity
  8
SPL_200MHZ_A1_SMT
  6
BYLAYER
370
   211
 62
   256
100
AcDbPolyline
 90
     2
 70
     0
 43
0.01
 10
1.0234
 20
2.9642
 10
1.0234
 20
2.9309
  0
LWPOLYLINE
  5
316
330
12
100
AcDbEntity
  8
SPL_200MHZ_A1_SMT
  6
BYLAYER
370
   211
 62
   256
100
AcDbPolyline
 90
     2
 70
     0
 43
0.01
 10
1.0144
 20
2.9798
 10
1.0144
 20
2.9257
  0
LWPOLYLINE
  5
317
330
12
100
AcDbEntity
  8
SPL_200MHZ_A1_SMT
  6
BYLAYER
370
   211
 62
   256
100
AcDbPolyline
 90
     2
 70
     0
 43
0.01
 10
1.0054
 20
2.9954
 10
1.0054
 20
2.9205
  0
LWPOLYLINE
  5
318
330
12
100
AcDbEntity
  8
SPL_200MHZ_A1_SMT
  6
BYLAYER
370
   211
 62
   256
100
AcDbPolyline
 90
     2
 70
     0
 43
0.01
 10
0.9964
 20
3.011
 10
0.9964
 20
2.9153
  0
LWPOLYLINE
  5
319
330
12
100
AcDbEntity
  8
SPL_200MHZ_A1_SMT
  6
BYLAYER
370
   211
 62
   256
100
AcDbPolyline
 90
     2
 70
     0
 43
0.01
 10
0.9874
 20
3.0266
 10
0.9874
 20
2.9101
  0
LWPOLYLINE
  5
31A
330
12
100
AcDbEntity
  8
SPL_200MHZ_A1_SMT
  6
BYLAYER
370
   211
 62
   256
100
AcDbPolyline
 90
     2
 70
     0
 43
0.01
 10
0.9784
 20
3.0422
 10
0.9784
 20
2.9049
  0
LWPOLYLINE
  5
31B
330
12
100
AcDbEntity
  8
SPL_200MHZ_A1_SMT
  6
BYLAYER
370
   211
 62
   256
100
AcDbPolyline
 90
     2
 70
     0
 43
0.01
 10
0.9694
 20
3.0578
 10
0.9694
 20
2.8998
  0
LWPOLYLINE
  5
31C
330
12
100
AcDbEntity
  8
SPL_200MHZ_A1_SMT
  6
BYLAYER
370
   211
 62
   256
100
AcDbPolyline
 90
     2
 70
     0
 43
0.01
 10
0.9604
 20
3.0734
 10
0.9604
 20
2.8946
  0
LWPOLYLINE
  5
31D
330
12
100
AcDbEntity
  8
SPL_200MHZ_A1_SMT
  6
BYLAYER
370
   211
 62
   256
100
AcDbPolyline
 90
     2
 70
     0
 43
0.01
 10
0.9514
 20
3.089
 10
0.9514
 20
2.8894
  0
LWPOLYLINE
  5
31E
330
12
100
AcDbEntity
  8
SPL_200MHZ_A1_SMT
  6
BYLAYER
370
   211
 62
   256
100
AcDbPolyline
 90
     2
 70
     0
 43
0.01
 10
0.9424
 20
3.1046
 10
0.9424
 20
2.8842
  0
LWPOLYLINE
  5
31F
330
12
100
AcDbEntity
  8
SPL_200MHZ_A1_SMT
  6
BYLAYER
370
   211
 62
   256
100
AcDbPolyline
 90
     2
 70
     0
 43
0.01
 10
0.9334
 20
3.1202
 10
0.9334
 20
2.8974
  0
LWPOLYLINE
  5
320
330
12
100
AcDbEntity
  8
SPL_200MHZ_A1_SMT
  6
BYLAYER
370
   211
 62
   256
100
AcDbPolyline
 90
     2
 70
     0
 43
0.01
 10
0.9244
 20
3.1357
 10
0.9244
 20
2.913
  0
LWPOLYLINE
  5
321
330
12
100
AcDbEntity
  8
SPL_200MHZ_A1_SMT
  6
BYLAYER
370
   211
 62
   256
100
AcDbPolyline
 90
     2
 70
     0
 43
0.01
 10
0.9154
 20
3.1458
 10
0.9154
 20
2.9286
  0
LWPOLYLINE
  5
322
330
12
100
AcDbEntity
  8
SPL_200MHZ_A1_SMT
  6
BYLAYER
370
   211
 62
   256
100
AcDbPolyline
 90
     2
 70
     0
 43
0.01
 10
0.9064
 20
3.1406
 10
0.9064
 20
2.9442
  0
LWPOLYLINE
  5
323
330
12
100
AcDbEntity
  8
SPL_200MHZ_A1_SMT
  6
BYLAYER
370
   211
 62
   256
100
AcDbPolyline
 90
     2
 70
     0
 43
0.01
 10
0.8974
 20
3.1354
 10
0.8974
 20
2.9598
  0
LWPOLYLINE
  5
324
330
12
100
AcDbEntity
  8
SPL_200MHZ_A1_SMT
  6
BYLAYER
370
   211
 62
   256
100
AcDbPolyline
 90
     2
 70
     0
 43
0.01
 10
0.8884
 20
3.1302
 10
0.8884
 20
2.9754
  0
LWPOLYLINE
  5
325
330
12
100
AcDbEntity
  8
SPL_200MHZ_A1_SMT
  6
BYLAYER
370
   211
 62
   256
100
AcDbPolyline
 90
     2
 70
     0
 43
0.01
 10
0.8794
 20
3.125
 10
0.8794
 20
2.991
  0
LWPOLYLINE
  5
326
330
12
100
AcDbEntity
  8
SPL_200MHZ_A1_SMT
  6
BYLAYER
370
   211
 62
   256
100
AcDbPolyline
 90
     2
 70
     0
 43
0.01
 10
0.8704
 20
3.1198
 10
0.8704
 20
3.0066
  0
LWPOLYLINE
  5
327
330
12
100
AcDbEntity
  8
SPL_200MHZ_A1_SMT
  6
BYLAYER
370
   211
 62
   256
100
AcDbPolyline
 90
     2
 70
     0
 43
0.01
 10
2.511
 20
2.106
 10
2.511
 20
1.991
  0
LWPOLYLINE
  5
328
330
12
100
AcDbEntity
  8
SPL_200MHZ_A1_SMT
  6
BYLAYER
370
   211
 62
   256
100
AcDbPolyline
 90
     2
 70
     0
 43
0.01
 10
2.502
 20
2.106
 10
2.502
 20
1.991
  0
LWPOLYLINE
  5
329
330
12
100
AcDbEntity
  8
SPL_200MHZ_A1_SMT
  6
BYLAYER
370
   211
 62
   256
100
AcDbPolyline
 90
     2
 70
     0
 43
0.01
 10
2.493
 20
2.106
 10
2.493
 20
1.991
  0
LWPOLYLINE
  5
32A
330
12
100
AcDbEntity
  8
SPL_200MHZ_A1_SMT
  6
BYLAYER
370
   211
 62
   256
100
AcDbPolyline
 90
     2
 70
     0
 43
0.01
 10
2.484
 20
2.106
 10
2.484
 20
1.991
  0
LWPOLYLINE
  5
32B
330
12
100
AcDbEntity
  8
SPL_200MHZ_A1_SMT
  6
BYLAYER
370
   211
 62
   256
100
AcDbPolyline
 90
     2
 70
     0
 43
0.01
 10
2.72
 20
2.103
 10
2.48
 20
2.103
  0
LWPOLYLINE
  5
32C
330
12
100
AcDbEntity
  8
SPL_200MHZ_A1_SMT
  6
BYLAYER
370
   211
 62
   256
100
AcDbPolyline
 90
     2
 70
     0
 43
0.01
 10
2.72
 20
2.094
 10
2.48
 20
2.094
  0
LWPOLYLINE
  5
32D
330
12
100
AcDbEntity
  8
SPL_200MHZ_A1_SMT
  6
BYLAYER
370
   211
 62
   256
100
AcDbPolyline
 90
     2
 70
     0
 43
0.01
 10
2.72
 20
2.085
 10
2.48
 20
2.085
  0
LWPOLYLINE
  5
32E
330
12
100
AcDbEntity
  8
SPL_200MHZ_A1_SMT
  6
BYLAYER
370
   211
 62
   256
100
AcDbPolyline
 90
     2
 70
     0
 43
0.01
 10
2.72
 20
2.076
 10
2.48
 20
2.076
  0
LWPOLYLINE
  5
32F
330
12
100
AcDbEntity
  8
SPL_200MHZ_A1_SMT
  6
BYLAYER
370
   211
 62
   256
100
AcDbPolyline
 90
     2
 70
     0
 43
0.01
 10
2.72
 20
2.067
 10
2.48
 20
2.067
  0
LWPOLYLINE
  5
330
330
12
100
AcDbEntity
  8
SPL_200MHZ_A1_SMT
  6
BYLAYER
370
   211
 62
   256
100
AcDbPolyline
 90
     2
 70
     0
 43
0.01
 10
2.72
 20
2.058
 10
2.48
 20
2.058
  0
LWPOLYLINE
  5
331
330
12
100
AcDbEntity
  8
SPL_200MHZ_A1_SMT
  6
BYLAYER
370
   211
 62
   256
100
AcDbPolyline
 90
     2
 70
     0
 43
0.01
 10
2.72
 20
2.049
 10
2.48
 20
2.049
  0
LWPOLYLINE
  5
332
330
12
100
AcDbEntity
  8
SPL_200MHZ_A1_SMT
  6
BYLAYER
370
   211
 62
   256
100
AcDbPolyline
 90
     2
 70
     0
 43
0.01
 10
2.72
 20
2.04
 10
2.48
 20
2.04
  0
LWPOLYLINE
  5
333
330
12
100
AcDbEntity
  8
SPL_200MHZ_A1_SMT
  6
BYLAYER
370
   211
 62
   256
100
AcDbPolyline
 90
     2
 70
     0
 43
0.01
 10
2.72
 20
2.031
 10
2.48
 20
2.031
  0
LWPOLYLINE
  5
334
330
12
100
AcDbEntity
  8
SPL_200MHZ_A1_SMT
  6
BYLAYER
370
   211
 62
   256
100
AcDbPolyline
 90
     2
 70
     0
 43
0.01
 10
2.72
 20
2.022
 10
2.48
 20
2.022
  0
LWPOLYLINE
  5
335
330
12
100
AcDbEntity
  8
SPL_200MHZ_A1_SMT
  6
BYLAYER
370
   211
 62
   256
100
AcDbPolyline
 90
     2
 70
     0
 43
0.01
 10
2.72
 20
2.013
 10
2.48
 20
2.013
  0
LWPOLYLINE
  5
336
330
12
100
AcDbEntity
  8
SPL_200MHZ_A1_SMT
  6
BYLAYER
370
   211
 62
   256
100
AcDbPolyline
 90
     2
 70
     0
 43
0.01
 10
2.72
 20
2.004
 10
2.48
 20
2.004
  0
LWPOLYLINE
  5
337
330
12
100
AcDbEntity
  8
SPL_200MHZ_A1_SMT
  6
BYLAYER
370
   211
 62
   256
100
AcDbPolyline
 90
     2
 70
     0
 43
0.01
 10
2.655
 20
2.106
 10
2.655
 20
1.991
  0
LWPOLYLINE
  5
338
330
12
100
AcDbEntity
  8
SPL_200MHZ_A1_SMT
  6
BYLAYER
370
   211
 62
   256
100
AcDbPolyline
 90
     2
 70
     0
 43
0.01
 10
2.646
 20
2.106
 10
2.646
 20
1.991
  0
LWPOLYLINE
  5
339
330
12
100
AcDbEntity
  8
SPL_200MHZ_A1_SMT
  6
BYLAYER
370
   211
 62
   256
100
AcDbPolyline
 90
     2
 70
     0
 43
0.01
 10
2.637
 20
2.106
 10
2.637
 20
1.991
  0
LWPOLYLINE
  5
33A
330
12
100
AcDbEntity
  8
SPL_200MHZ_A1_SMT
  6
BYLAYER
370
   211
 62
   256
100
AcDbPolyline
 90
     2
 70
     0
 43
0.01
 10
2.628
 20
2.106
 10
2.628
 20
1.991
  0
LWPOLYLINE
  5
33B
330
12
100
AcDbEntity
  8
SPL_200MHZ_A1_SMT
  6
BYLAYER
370
   211
 62
   256
100
AcDbPolyline
 90
     2
 70
     0
 43
0.01
 10
2.619
 20
2.106
 10
2.619
 20
1.991
  0
LWPOLYLINE
  5
33C
330
12
100
AcDbEntity
  8
SPL_200MHZ_A1_SMT
  6
BYLAYER
370
   211
 62
   256
100
AcDbPolyline
 90
     2
 70
     0
 43
0.01
 10
2.61
 20
2.106
 10
2.61
 20
1.991
  0
LWPOLYLINE
  5
33D
330
12
100
AcDbEntity
  8
SPL_200MHZ_A1_SMT
  6
BYLAYER
370
   211
 62
   256
100
AcDbPolyline
 90
     2
 70
     0
 43
0.01
 10
2.601
 20
2.106
 10
2.601
 20
1.991
  0
LWPOLYLINE
  5
33E
330
12
100
AcDbEntity
  8
SPL_200MHZ_A1_SMT
  6
BYLAYER
370
   211
 62
   256
100
AcDbPolyline
 90
     2
 70
     0
 43
0.01
 10
2.592
 20
2.106
 10
2.592
 20
1.991
  0
LWPOLYLINE
  5
33F
330
12
100
AcDbEntity
  8
SPL_200MHZ_A1_SMT
  6
BYLAYER
370
   211
 62
   256
100
AcDbPolyline
 90
     2
 70
     0
 43
0.01
 10
2.583
 20
2.106
 10
2.583
 20
1.991
  0
LWPOLYLINE
  5
340
330
12
100
AcDbEntity
  8
SPL_200MHZ_A1_SMT
  6
BYLAYER
370
   211
 62
   256
100
AcDbPolyline
 90
     2
 70
     0
 43
0.01
 10
2.574
 20
2.106
 10
2.574
 20
1.991
  0
LWPOLYLINE
  5
341
330
12
100
AcDbEntity
  8
SPL_200MHZ_A1_SMT
  6
BYLAYER
370
   211
 62
   256
100
AcDbPolyline
 90
     2
 70
     0
 43
0.01
 10
2.565
 20
2.106
 10
2.565
 20
1.991
  0
LWPOLYLINE
  5
342
330
12
100
AcDbEntity
  8
SPL_200MHZ_A1_SMT
  6
BYLAYER
370
   211
 62
   256
100
AcDbPolyline
 90
     2
 70
     0
 43
0.01
 10
2.556
 20
2.106
 10
2.556
 20
1.991
  0
LWPOLYLINE
  5
343
330
12
100
AcDbEntity
  8
SPL_200MHZ_A1_SMT
  6
BYLAYER
370
   211
 62
   256
100
AcDbPolyline
 90
     2
 70
     0
 43
0.01
 10
2.547
 20
2.106
 10
2.547
 20
1.991
  0
LWPOLYLINE
  5
344
330
12
100
AcDbEntity
  8
SPL_200MHZ_A1_SMT
  6
BYLAYER
370
   211
 62
   256
100
AcDbPolyline
 90
     2
 70
     0
 43
0.01
 10
2.538
 20
2.106
 10
2.538
 20
1.991
  0
LWPOLYLINE
  5
345
330
12
100
AcDbEntity
  8
SPL_200MHZ_A1_SMT
  6
BYLAYER
370
   211
 62
   256
100
AcDbPolyline
 90
     2
 70
     0
 43
0.01
 10
2.529
 20
2.106
 10
2.529
 20
1.991
  0
LWPOLYLINE
  5
346
330
12
100
AcDbEntity
  8
SPL_200MHZ_A1_SMT
  6
BYLAYER
370
   211
 62
   256
100
AcDbPolyline
 90
     2
 70
     0
 43
0.01
 10
2.52
 20
2.106
 10
2.52
 20
1.991
  0
LWPOLYLINE
  5
347
330
12
100
AcDbEntity
  8
SPL_200MHZ_A1_SMT
  6
BYLAYER
370
   211
 62
   256
100
AcDbPolyline
 90
     2
 70
     0
 43
0.01
 10
2.72
 20
1.995
 10
2.48
 20
1.995
  0
LWPOLYLINE
  5
348
330
12
100
AcDbEntity
  8
SPL_200MHZ_A1_SMT
  6
BYLAYER
370
   211
 62
   256
100
AcDbPolyline
 90
     2
 70
     0
 43
0.01
 10
2.72
 20
2.106
 10
2.48
 20
2.106
  0
LWPOLYLINE
  5
349
330
12
100
AcDbEntity
  8
SPL_200MHZ_A1_SMT
  6
BYLAYER
370
   211
 62
   256
100
AcDbPolyline
 90
     3
 70
     0
 43
0.01
 10
2.72
 20
2.106
 10
2.72
 20
1.991
 10
2.48
 20
1.991
  0
LWPOLYLINE
  5
34A
330
12
100
AcDbEntity
  8
SPL_200MHZ_A1_SMT
  6
BYLAYER
370
   211
 62
   256
100
AcDbPolyline
 90
     2
 70
     0
 43
0.01
 10
2.48
 20
2.106
 10
2.48
 20
1.991
  0
LWPOLYLINE
  5
34B
330
12
100
AcDbEntity
  8
SPL_200MHZ_A1_SMT
  6
BYLAYER
370
   211
 62
   256
100
AcDbPolyline
 90
     2
 70
     0
 43
0.01
 10
2.718
 20
2.106
 10
2.718
 20
1.991
  0
LWPOLYLINE
  5
34C
330
12
100
AcDbEntity
  8
SPL_200MHZ_A1_SMT
  6
BYLAYER
370
   211
 62
   256
100
AcDbPolyline
 90
     2
 70
     0
 43
0.01
 10
2.709
 20
2.106
 10
2.709
 20
1.991
  0
LWPOLYLINE
  5
34D
330
12
100
AcDbEntity
  8
SPL_200MHZ_A1_SMT
  6
BYLAYER
370
   211
 62
   256
100
AcDbPolyline
 90
     2
 70
     0
 43
0.01
 10
2.7
 20
2.106
 10
2.7
 20
1.991
  0
LWPOLYLINE
  5
34E
330
12
100
AcDbEntity
  8
SPL_200MHZ_A1_SMT
  6
BYLAYER
370
   211
 62
   256
100
AcDbPolyline
 90
     2
 70
     0
 43
0.01
 10
2.691
 20
2.106
 10
2.691
 20
1.991
  0
LWPOLYLINE
  5
34F
330
12
100
AcDbEntity
  8
SPL_200MHZ_A1_SMT
  6
BYLAYER
370
   211
 62
   256
100
AcDbPolyline
 90
     2
 70
     0
 43
0.01
 10
2.682
 20
2.106
 10
2.682
 20
1.991
  0
LWPOLYLINE
  5
350
330
12
100
AcDbEntity
  8
SPL_200MHZ_A1_SMT
  6
BYLAYER
370
   211
 62
   256
100
AcDbPolyline
 90
     2
 70
     0
 43
0.01
 10
2.673
 20
2.106
 10
2.673
 20
1.991
  0
LWPOLYLINE
  5
351
330
12
100
AcDbEntity
  8
SPL_200MHZ_A1_SMT
  6
BYLAYER
370
   211
 62
   256
100
AcDbPolyline
 90
     2
 70
     0
 43
0.01
 10
2.664
 20
2.106
 10
2.664
 20
1.991
  0
ENDSEC
  0
SECTION
  2
OBJECTS
  0
DICTIONARY
  5
18
102
{ACAD_REACTORS
330
0
102
}
330
0
100
AcDbDictionary
280
     1
281
     0
  3
ACAD_GROUP
350
19
  3
ACAD_LAYOUT
350
1A
  3
ACAD_MLINESTYLE
350
1D
  0
DICTIONARY
  5
19
102
{ACAD_REACTORS
330
18
102
}
330
18
100
AcDbDictionary
280
     1
281
     0
  0
DICTIONARY
  5
1A
102
{ACAD_REACTORS
330
18
102
}
330
18
100
AcDbDictionary
280
     1
281
     0
  3
Model
350
1B
  3
Layout1
350
1C
  0
LAYOUT
  5
1B
102
{ACAD_REACTORS
330
1A
102
}
330
1A
100
AcDbPlotSettings
  1

  2
none_device
  4
ISO_A4_(210.00_x_297.00_MM)
 40
0.0
 41
0.0
 42
0.0
 43
0.0
 44
210.0
 45
297.0
 46
0.0
 47
0.0
 48
0.0
 49
0.0
140
0.0
141
0.0
141
1.0
143
1.0
 72
     1
 73
     0
 74
     5
  7

 75
    16
147
1.0
 76
     0
 77
     2
148
0.0
149
0.0
100
AcDbLayout
  1
Model
 70
     1
 71
     0
 10
-0.2595
 20
-2.471
 11
8.68
 21
4.0665
 12
0.0
 22
0.0
 32
0.0
 14
-0.2595
 24
-2.471
 34
0.0
 15
8.68
 25
4.0665
 35
0.0
146
0.0
 13
0.0
 23
0.0
 33
0.0
 16
1.0
 26
0.0
 36
0.0
 17
0.0
 27
1.0
 37
0.0
 76
     0
330
12
  0
LAYOUT
  5
1C
102
{ACAD_REACTORS
330
1A
102
}
330
1A
100
AcDbPlotSettings
  1

  2
none_device
  4

 40
0.0
 41
0.0
 42
0.0
 43
0.0
 44
0.0
 45
0.0
 46
0.0
 47
0.0
 48
0.0
 49
0.0
140
0.0
141
0.0
141
1.0
143
1.0
 72
     1
 73
     0
 74
     5
  7

 75
    16
147
1.0
 76
     0
 77
     2
148
0.0
149
0.0
100
AcDbLayout
  1
Layout1
 70
     1
 71
     1
 10
100000000000000000000.0
 20
100000000000000000000.0
 11
-100000000000000000000.0
 21
-100000000000000000000.0
 12
0.0
 22
0.0
 32
0.0
 14
100000000000000000000.0
 24
100000000000000000000.0
 34
0.0
 15
-100000000000000000000.0
 25
-100000000000000000000.0
 35
0.0
146
0.0
 13
0.0
 23
0.0
 33
0.0
 16
1.0
 26
0.0
 36
0.0
 17
0.0
 27
1.0
 37
0.0
 76
     0
330
13
  0
DICTIONARY
  5
1D
102
{ACAD_REACTORS
330
18
102
}
330
18
100
AcDbDictionary
280
     1
281
     0
  0
ENDSEC
  0
EOF
