  0
SECTION
  2
HEADER
  9
$EXTNAMES
290
1
  9
$EXTMIN
 10
-0.0050
 20
-0.0050
 30
0.0000
  9
$EXTMAX
 10
4.9800
 20
14.6050
 30
0.0000
  0
ENDSEC
  0
SECTION
  2
TABLES
  0
TABLE
  2
LTYPE
 70
3
  0
LTYPE
  2
BYBLOCK
 70
0
  3

 72
65
 73
0
 40
0.0000
  0
LTYPE
  2
BYLAYER
 70
0
  3

 72
65
 73
0
 40
0.0000
  0
LTYPE
  2
CONTINUOUS
 70
0
  3
Solid line
 72
65
 73
0
 40
0.0000
  0
ENDTAB
  0
TABLE
  2
LAYER
 70
2
  0
LAYER
  2
0
 70
0
 62
7
  6
CONTINUOUS
  0
LAYER
  2
SPL3W5K_DRD
 70
0
 62
7
  6
CONTINUOUS
  0
LAYER
  2
SPL3W5K_SMT
 70
0
 62
2
  6
CONTINUOUS
  0
ENDTAB
  0
TABLE
  2
STYLE
 70
0
  0
ENDTAB
  0
ENDSEC
  0
SECTION
  2
BLOCKS
  0
BLOCK
  2
ROUND_1
  3
ROUND_1
 70
64
 10
0.0000
 20
0.0000
 30
0.0000
  0
CIRCLE
  8
0
 10
0.0000
 20
0.0000
 30
0.0000
 40
0.0200
  0
ENDBLK
  0
BLOCK
  2
ROUND_8
  3
ROUND_8
 70
64
 10
0.0000
 20
0.0000
 30
0.0000
  0
CIRCLE
  8
0
 10
0.0000
 20
0.0000
 30
0.0000
 40
0.0050
  0
ENDBLK
  0
ENDSEC
  0
SECTION
  2
ENTITIES
  0
POLYLINE
  8
SPL3W5K_DRD
 66
1
 10
0.0000
 20
0.0000
 30
0.0000
 40
0.0100
 41
0.0100
  0
VERTEX
  8
SPL3W5K_DRD
 10
2.7550
 20
11.3850
 30
0.0000
  0
VERTEX
  8
SPL3W5K_DRD
 10
3.7800
 20
11.3850
 30
0.0000
  0
VERTEX
  8
SPL3W5K_DRD
 10
3.7800
 20
10.3350
 30
0.0000
  0
VERTEX
  8
SPL3W5K_DRD
 10
2.4050
 20
10.3350
 30
0.0000
  0
VERTEX
  8
SPL3W5K_DRD
 10
2.4050
 20
8.2450
 30
0.0000
  0
VERTEX
  8
SPL3W5K_DRD
 10
3.7800
 20
8.2450
 30
0.0000
  0
VERTEX
  8
SPL3W5K_DRD
 10
3.7800
 20
7.1800
 30
0.0000
  0
VERTEX
  8
SPL3W5K_DRD
 10
1.7900
 20
7.1800
 30
0.0000
  0
VERTEX
  8
SPL3W5K_DRD
 10
1.7900
 20
8.2850
 30
0.0000
  0
VERTEX
  8
SPL3W5K_DRD
 10
1.3450
 20
8.2850
 30
0.0000
  0
VERTEX
  8
SPL3W5K_DRD
 10
1.3450
 20
10.2850
 30
0.0000
  0
VERTEX
  8
SPL3W5K_DRD
 10
1.7900
 20
10.2850
 30
0.0000
  0
VERTEX
  8
SPL3W5K_DRD
 10
1.7900
 20
11.3850
 30
0.0000
  0
VERTEX
  8
SPL3W5K_DRD
 10
2.7550
 20
11.3850
 30
0.0000
  0
SEQEND
  0
POLYLINE
  8
SPL3W5K_DRD
 66
1
 10
0.0000
 20
0.0000
 30
0.0000
 40
0.0100
 41
0.0100
  0
VERTEX
  8
SPL3W5K_DRD
 10
0.0000
 20
14.6000
 30
0.0000
  0
VERTEX
  8
SPL3W5K_DRD
 10
0.0000
 20
0.0000
 30
0.0000
  0
VERTEX
  8
SPL3W5K_DRD
 10
4.9750
 20
0.0000
 30
0.0000
  0
VERTEX
  8
SPL3W5K_DRD
 10
4.9750
 20
14.6000
 30
0.0000
  0
VERTEX
  8
SPL3W5K_DRD
 10
0.0000
 20
14.6000
 30
0.0000
  0
SEQEND
  0
POLYLINE
  8
SPL3W5K_DRD
 66
1
 10
0.0000
 20
0.0000
 30
0.0000
 40
0.0100
 41
0.0100
  0
VERTEX
  8
SPL3W5K_DRD
 10
2.2050
 20
11.7400
 30
0.0000
  0
VERTEX
  8
SPL3W5K_DRD
 10
2.2050
 20
11.6900
 30
0.0000
  0
SEQEND
  0
POLYLINE
  8
SPL3W5K_DRD
 66
1
 10
0.0000
 20
0.0000
 30
0.0000
 40
0.0100
 41
0.0100
  0
VERTEX
  8
SPL3W5K_DRD
 10
2.2550
 20
11.7400
 30
0.0000
  0
VERTEX
  8
SPL3W5K_DRD
 10
2.2050
 20
11.7400
 30
0.0000
  0
SEQEND
  0
POLYLINE
  8
SPL3W5K_DRD
 66
1
 10
0.0000
 20
0.0000
 30
0.0000
 40
0.0100
 41
0.0100
  0
VERTEX
  8
SPL3W5K_DRD
 10
2.2550
 20
11.6900
 30
0.0000
  0
VERTEX
  8
SPL3W5K_DRD
 10
2.2550
 20
11.7400
 30
0.0000
  0
SEQEND
  0
POLYLINE
  8
SPL3W5K_DRD
 66
1
 10
0.0000
 20
0.0000
 30
0.0000
 40
0.0100
 41
0.0100
  0
VERTEX
  8
SPL3W5K_DRD
 10
2.2050
 20
11.6900
 30
0.0000
  0
VERTEX
  8
SPL3W5K_DRD
 10
2.2550
 20
11.6900
 30
0.0000
  0
SEQEND
  0
POLYLINE
  8
SPL3W5K_DRD
 66
1
 10
0.0000
 20
0.0000
 30
0.0000
 40
0.0100
 41
0.0100
  0
VERTEX
  8
SPL3W5K_DRD
 10
2.2550
 20
11.7150
 30
0.0000
  0
VERTEX
  8
SPL3W5K_DRD
 10
2.2050
 20
11.7150
 30
0.0000
  0
SEQEND
  0
POLYLINE
  8
SPL3W5K_DRD
 66
1
 10
0.0000
 20
0.0000
 30
0.0000
 40
0.0100
 41
0.0100
  0
VERTEX
  8
SPL3W5K_DRD
 10
2.2300
 20
11.7400
 30
0.0000
  0
VERTEX
  8
SPL3W5K_DRD
 10
2.2300
 20
11.6900
 30
0.0000
  0
SEQEND
  0
POLYLINE
  8
SPL3W5K_DRD
 66
1
 10
0.0000
 20
0.0000
 30
0.0000
 40
0.0100
 41
0.0100
  0
VERTEX
  8
SPL3W5K_DRD
 10
1.3850
 20
14.5000
 30
0.0000
  0
VERTEX
  8
SPL3W5K_DRD
 10
1.3850
 20
14.4500
 30
0.0000
  0
SEQEND
  0
POLYLINE
  8
SPL3W5K_DRD
 66
1
 10
0.0000
 20
0.0000
 30
0.0000
 40
0.0100
 41
0.0100
  0
VERTEX
  8
SPL3W5K_DRD
 10
1.4350
 20
14.5000
 30
0.0000
  0
VERTEX
  8
SPL3W5K_DRD
 10
1.3850
 20
14.5000
 30
0.0000
  0
SEQEND
  0
POLYLINE
  8
SPL3W5K_DRD
 66
1
 10
0.0000
 20
0.0000
 30
0.0000
 40
0.0100
 41
0.0100
  0
VERTEX
  8
SPL3W5K_DRD
 10
1.4350
 20
14.4500
 30
0.0000
  0
VERTEX
  8
SPL3W5K_DRD
 10
1.4350
 20
14.5000
 30
0.0000
  0
SEQEND
  0
POLYLINE
  8
SPL3W5K_DRD
 66
1
 10
0.0000
 20
0.0000
 30
0.0000
 40
0.0100
 41
0.0100
  0
VERTEX
  8
SPL3W5K_DRD
 10
1.3850
 20
14.4500
 30
0.0000
  0
VERTEX
  8
SPL3W5K_DRD
 10
1.4350
 20
14.4500
 30
0.0000
  0
SEQEND
  0
POLYLINE
  8
SPL3W5K_DRD
 66
1
 10
0.0000
 20
0.0000
 30
0.0000
 40
0.0100
 41
0.0100
  0
VERTEX
  8
SPL3W5K_DRD
 10
1.4350
 20
14.4750
 30
0.0000
  0
VERTEX
  8
SPL3W5K_DRD
 10
1.3850
 20
14.4750
 30
0.0000
  0
SEQEND
  0
POLYLINE
  8
SPL3W5K_DRD
 66
1
 10
0.0000
 20
0.0000
 30
0.0000
 40
0.0100
 41
0.0100
  0
VERTEX
  8
SPL3W5K_DRD
 10
1.4100
 20
14.5000
 30
0.0000
  0
VERTEX
  8
SPL3W5K_DRD
 10
1.4100
 20
14.4500
 30
0.0000
  0
SEQEND
  0
POLYLINE
  8
SPL3W5K_DRD
 66
1
 10
0.0000
 20
0.0000
 30
0.0000
 40
0.0100
 41
0.0100
  0
VERTEX
  8
SPL3W5K_DRD
 10
0.1000
 20
10.2150
 30
0.0000
  0
VERTEX
  8
SPL3W5K_DRD
 10
0.1000
 20
10.1650
 30
0.0000
  0
SEQEND
  0
POLYLINE
  8
SPL3W5K_DRD
 66
1
 10
0.0000
 20
0.0000
 30
0.0000
 40
0.0100
 41
0.0100
  0
VERTEX
  8
SPL3W5K_DRD
 10
0.1500
 20
10.2150
 30
0.0000
  0
VERTEX
  8
SPL3W5K_DRD
 10
0.1000
 20
10.2150
 30
0.0000
  0
SEQEND
  0
POLYLINE
  8
SPL3W5K_DRD
 66
1
 10
0.0000
 20
0.0000
 30
0.0000
 40
0.0100
 41
0.0100
  0
VERTEX
  8
SPL3W5K_DRD
 10
0.1500
 20
10.1650
 30
0.0000
  0
VERTEX
  8
SPL3W5K_DRD
 10
0.1500
 20
10.2150
 30
0.0000
  0
SEQEND
  0
POLYLINE
  8
SPL3W5K_DRD
 66
1
 10
0.0000
 20
0.0000
 30
0.0000
 40
0.0100
 41
0.0100
  0
VERTEX
  8
SPL3W5K_DRD
 10
0.1000
 20
10.1650
 30
0.0000
  0
VERTEX
  8
SPL3W5K_DRD
 10
0.1500
 20
10.1650
 30
0.0000
  0
SEQEND
  0
POLYLINE
  8
SPL3W5K_DRD
 66
1
 10
0.0000
 20
0.0000
 30
0.0000
 40
0.0100
 41
0.0100
  0
VERTEX
  8
SPL3W5K_DRD
 10
0.1500
 20
10.1900
 30
0.0000
  0
VERTEX
  8
SPL3W5K_DRD
 10
0.1000
 20
10.1900
 30
0.0000
  0
SEQEND
  0
POLYLINE
  8
SPL3W5K_DRD
 66
1
 10
0.0000
 20
0.0000
 30
0.0000
 40
0.0100
 41
0.0100
  0
VERTEX
  8
SPL3W5K_DRD
 10
0.1250
 20
10.2150
 30
0.0000
  0
VERTEX
  8
SPL3W5K_DRD
 10
0.1250
 20
10.1650
 30
0.0000
  0
SEQEND
  0
POLYLINE
  8
SPL3W5K_DRD
 66
1
 10
0.0000
 20
0.0000
 30
0.0000
 40
0.0100
 41
0.0100
  0
VERTEX
  8
SPL3W5K_DRD
 10
2.4620
 20
14.0600
 30
0.0000
  0
VERTEX
  8
SPL3W5K_DRD
 10
2.4620
 20
14.0100
 30
0.0000
  0
SEQEND
  0
POLYLINE
  8
SPL3W5K_DRD
 66
1
 10
0.0000
 20
0.0000
 30
0.0000
 40
0.0100
 41
0.0100
  0
VERTEX
  8
SPL3W5K_DRD
 10
2.5120
 20
14.0600
 30
0.0000
  0
VERTEX
  8
SPL3W5K_DRD
 10
2.4620
 20
14.0600
 30
0.0000
  0
SEQEND
  0
POLYLINE
  8
SPL3W5K_DRD
 66
1
 10
0.0000
 20
0.0000
 30
0.0000
 40
0.0100
 41
0.0100
  0
VERTEX
  8
SPL3W5K_DRD
 10
2.5120
 20
14.0100
 30
0.0000
  0
VERTEX
  8
SPL3W5K_DRD
 10
2.5120
 20
14.0600
 30
0.0000
  0
SEQEND
  0
POLYLINE
  8
SPL3W5K_DRD
 66
1
 10
0.0000
 20
0.0000
 30
0.0000
 40
0.0100
 41
0.0100
  0
VERTEX
  8
SPL3W5K_DRD
 10
2.4620
 20
14.0100
 30
0.0000
  0
VERTEX
  8
SPL3W5K_DRD
 10
2.5120
 20
14.0100
 30
0.0000
  0
SEQEND
  0
POLYLINE
  8
SPL3W5K_DRD
 66
1
 10
0.0000
 20
0.0000
 30
0.0000
 40
0.0100
 41
0.0100
  0
VERTEX
  8
SPL3W5K_DRD
 10
2.5120
 20
14.0350
 30
0.0000
  0
VERTEX
  8
SPL3W5K_DRD
 10
2.4620
 20
14.0350
 30
0.0000
  0
SEQEND
  0
POLYLINE
  8
SPL3W5K_DRD
 66
1
 10
0.0000
 20
0.0000
 30
0.0000
 40
0.0100
 41
0.0100
  0
VERTEX
  8
SPL3W5K_DRD
 10
2.4870
 20
14.0600
 30
0.0000
  0
VERTEX
  8
SPL3W5K_DRD
 10
2.4870
 20
14.0100
 30
0.0000
  0
SEQEND
  0
POLYLINE
  8
SPL3W5K_DRD
 66
1
 10
0.0000
 20
0.0000
 30
0.0000
 40
0.0100
 41
0.0100
  0
VERTEX
  8
SPL3W5K_DRD
 10
3.4800
 20
12.1100
 30
0.0000
  0
VERTEX
  8
SPL3W5K_DRD
 10
3.4800
 20
12.0600
 30
0.0000
  0
SEQEND
  0
POLYLINE
  8
SPL3W5K_DRD
 66
1
 10
0.0000
 20
0.0000
 30
0.0000
 40
0.0100
 41
0.0100
  0
VERTEX
  8
SPL3W5K_DRD
 10
3.5300
 20
12.1100
 30
0.0000
  0
VERTEX
  8
SPL3W5K_DRD
 10
3.4800
 20
12.1100
 30
0.0000
  0
SEQEND
  0
POLYLINE
  8
SPL3W5K_DRD
 66
1
 10
0.0000
 20
0.0000
 30
0.0000
 40
0.0100
 41
0.0100
  0
VERTEX
  8
SPL3W5K_DRD
 10
3.5300
 20
12.0600
 30
0.0000
  0
VERTEX
  8
SPL3W5K_DRD
 10
3.5300
 20
12.1100
 30
0.0000
  0
SEQEND
  0
POLYLINE
  8
SPL3W5K_DRD
 66
1
 10
0.0000
 20
0.0000
 30
0.0000
 40
0.0100
 41
0.0100
  0
VERTEX
  8
SPL3W5K_DRD
 10
3.4800
 20
12.0600
 30
0.0000
  0
VERTEX
  8
SPL3W5K_DRD
 10
3.5300
 20
12.0600
 30
0.0000
  0
SEQEND
  0
POLYLINE
  8
SPL3W5K_DRD
 66
1
 10
0.0000
 20
0.0000
 30
0.0000
 40
0.0100
 41
0.0100
  0
VERTEX
  8
SPL3W5K_DRD
 10
3.5300
 20
12.0850
 30
0.0000
  0
VERTEX
  8
SPL3W5K_DRD
 10
3.4800
 20
12.0850
 30
0.0000
  0
SEQEND
  0
POLYLINE
  8
SPL3W5K_DRD
 66
1
 10
0.0000
 20
0.0000
 30
0.0000
 40
0.0100
 41
0.0100
  0
VERTEX
  8
SPL3W5K_DRD
 10
3.5050
 20
12.1100
 30
0.0000
  0
VERTEX
  8
SPL3W5K_DRD
 10
3.5050
 20
12.0600
 30
0.0000
  0
SEQEND
  0
POLYLINE
  8
SPL3W5K_DRD
 66
1
 10
0.0000
 20
0.0000
 30
0.0000
 40
0.0100
 41
0.0100
  0
VERTEX
  8
SPL3W5K_DRD
 10
0.1000
 20
11.9650
 30
0.0000
  0
VERTEX
  8
SPL3W5K_DRD
 10
0.1000
 20
11.9150
 30
0.0000
  0
SEQEND
  0
POLYLINE
  8
SPL3W5K_DRD
 66
1
 10
0.0000
 20
0.0000
 30
0.0000
 40
0.0100
 41
0.0100
  0
VERTEX
  8
SPL3W5K_DRD
 10
0.1500
 20
11.9650
 30
0.0000
  0
VERTEX
  8
SPL3W5K_DRD
 10
0.1000
 20
11.9650
 30
0.0000
  0
SEQEND
  0
POLYLINE
  8
SPL3W5K_DRD
 66
1
 10
0.0000
 20
0.0000
 30
0.0000
 40
0.0100
 41
0.0100
  0
VERTEX
  8
SPL3W5K_DRD
 10
0.1500
 20
11.9150
 30
0.0000
  0
VERTEX
  8
SPL3W5K_DRD
 10
0.1500
 20
11.9650
 30
0.0000
  0
SEQEND
  0
POLYLINE
  8
SPL3W5K_DRD
 66
1
 10
0.0000
 20
0.0000
 30
0.0000
 40
0.0100
 41
0.0100
  0
VERTEX
  8
SPL3W5K_DRD
 10
0.1000
 20
11.9150
 30
0.0000
  0
VERTEX
  8
SPL3W5K_DRD
 10
0.1500
 20
11.9150
 30
0.0000
  0
SEQEND
  0
POLYLINE
  8
SPL3W5K_DRD
 66
1
 10
0.0000
 20
0.0000
 30
0.0000
 40
0.0100
 41
0.0100
  0
VERTEX
  8
SPL3W5K_DRD
 10
0.1500
 20
11.9400
 30
0.0000
  0
VERTEX
  8
SPL3W5K_DRD
 10
0.1000
 20
11.9400
 30
0.0000
  0
SEQEND
  0
POLYLINE
  8
SPL3W5K_DRD
 66
1
 10
0.0000
 20
0.0000
 30
0.0000
 40
0.0100
 41
0.0100
  0
VERTEX
  8
SPL3W5K_DRD
 10
0.1250
 20
11.9650
 30
0.0000
  0
VERTEX
  8
SPL3W5K_DRD
 10
0.1250
 20
11.9150
 30
0.0000
  0
SEQEND
  0
POLYLINE
  8
SPL3W5K_DRD
 66
1
 10
0.0000
 20
0.0000
 30
0.0000
 40
0.0100
 41
0.0100
  0
VERTEX
  8
SPL3W5K_DRD
 10
4.8150
 20
11.5400
 30
0.0000
  0
VERTEX
  8
SPL3W5K_DRD
 10
4.8150
 20
11.4900
 30
0.0000
  0
SEQEND
  0
POLYLINE
  8
SPL3W5K_DRD
 66
1
 10
0.0000
 20
0.0000
 30
0.0000
 40
0.0100
 41
0.0100
  0
VERTEX
  8
SPL3W5K_DRD
 10
4.8650
 20
11.5400
 30
0.0000
  0
VERTEX
  8
SPL3W5K_DRD
 10
4.8150
 20
11.5400
 30
0.0000
  0
SEQEND
  0
POLYLINE
  8
SPL3W5K_DRD
 66
1
 10
0.0000
 20
0.0000
 30
0.0000
 40
0.0100
 41
0.0100
  0
VERTEX
  8
SPL3W5K_DRD
 10
4.8650
 20
11.4900
 30
0.0000
  0
VERTEX
  8
SPL3W5K_DRD
 10
4.8650
 20
11.5400
 30
0.0000
  0
SEQEND
  0
POLYLINE
  8
SPL3W5K_DRD
 66
1
 10
0.0000
 20
0.0000
 30
0.0000
 40
0.0100
 41
0.0100
  0
VERTEX
  8
SPL3W5K_DRD
 10
4.8150
 20
11.4900
 30
0.0000
  0
VERTEX
  8
SPL3W5K_DRD
 10
4.8650
 20
11.4900
 30
0.0000
  0
SEQEND
  0
POLYLINE
  8
SPL3W5K_DRD
 66
1
 10
0.0000
 20
0.0000
 30
0.0000
 40
0.0100
 41
0.0100
  0
VERTEX
  8
SPL3W5K_DRD
 10
4.8650
 20
11.5150
 30
0.0000
  0
VERTEX
  8
SPL3W5K_DRD
 10
4.8150
 20
11.5150
 30
0.0000
  0
SEQEND
  0
POLYLINE
  8
SPL3W5K_DRD
 66
1
 10
0.0000
 20
0.0000
 30
0.0000
 40
0.0100
 41
0.0100
  0
VERTEX
  8
SPL3W5K_DRD
 10
4.8400
 20
11.5400
 30
0.0000
  0
VERTEX
  8
SPL3W5K_DRD
 10
4.8400
 20
11.4900
 30
0.0000
  0
SEQEND
  0
POLYLINE
  8
SPL3W5K_DRD
 66
1
 10
0.0000
 20
0.0000
 30
0.0000
 40
0.0100
 41
0.0100
  0
VERTEX
  8
SPL3W5K_DRD
 10
3.4900
 20
8.6400
 30
0.0000
  0
VERTEX
  8
SPL3W5K_DRD
 10
3.4900
 20
8.5900
 30
0.0000
  0
SEQEND
  0
POLYLINE
  8
SPL3W5K_DRD
 66
1
 10
0.0000
 20
0.0000
 30
0.0000
 40
0.0100
 41
0.0100
  0
VERTEX
  8
SPL3W5K_DRD
 10
3.5400
 20
8.6400
 30
0.0000
  0
VERTEX
  8
SPL3W5K_DRD
 10
3.4900
 20
8.6400
 30
0.0000
  0
SEQEND
  0
POLYLINE
  8
SPL3W5K_DRD
 66
1
 10
0.0000
 20
0.0000
 30
0.0000
 40
0.0100
 41
0.0100
  0
VERTEX
  8
SPL3W5K_DRD
 10
3.5400
 20
8.5900
 30
0.0000
  0
VERTEX
  8
SPL3W5K_DRD
 10
3.5400
 20
8.6400
 30
0.0000
  0
SEQEND
  0
POLYLINE
  8
SPL3W5K_DRD
 66
1
 10
0.0000
 20
0.0000
 30
0.0000
 40
0.0100
 41
0.0100
  0
VERTEX
  8
SPL3W5K_DRD
 10
3.4900
 20
8.5900
 30
0.0000
  0
VERTEX
  8
SPL3W5K_DRD
 10
3.5400
 20
8.5900
 30
0.0000
  0
SEQEND
  0
POLYLINE
  8
SPL3W5K_DRD
 66
1
 10
0.0000
 20
0.0000
 30
0.0000
 40
0.0100
 41
0.0100
  0
VERTEX
  8
SPL3W5K_DRD
 10
3.5400
 20
8.6150
 30
0.0000
  0
VERTEX
  8
SPL3W5K_DRD
 10
3.4900
 20
8.6150
 30
0.0000
  0
SEQEND
  0
POLYLINE
  8
SPL3W5K_DRD
 66
1
 10
0.0000
 20
0.0000
 30
0.0000
 40
0.0100
 41
0.0100
  0
VERTEX
  8
SPL3W5K_DRD
 10
3.5150
 20
8.6400
 30
0.0000
  0
VERTEX
  8
SPL3W5K_DRD
 10
3.5150
 20
8.5900
 30
0.0000
  0
SEQEND
  0
POLYLINE
  8
SPL3W5K_DRD
 66
1
 10
0.0000
 20
0.0000
 30
0.0000
 40
0.0100
 41
0.0100
  0
VERTEX
  8
SPL3W5K_DRD
 10
3.4900
 20
9.8900
 30
0.0000
  0
VERTEX
  8
SPL3W5K_DRD
 10
3.4900
 20
9.8400
 30
0.0000
  0
SEQEND
  0
POLYLINE
  8
SPL3W5K_DRD
 66
1
 10
0.0000
 20
0.0000
 30
0.0000
 40
0.0100
 41
0.0100
  0
VERTEX
  8
SPL3W5K_DRD
 10
3.5400
 20
9.8900
 30
0.0000
  0
VERTEX
  8
SPL3W5K_DRD
 10
3.4900
 20
9.8900
 30
0.0000
  0
SEQEND
  0
POLYLINE
  8
SPL3W5K_DRD
 66
1
 10
0.0000
 20
0.0000
 30
0.0000
 40
0.0100
 41
0.0100
  0
VERTEX
  8
SPL3W5K_DRD
 10
3.5400
 20
9.8400
 30
0.0000
  0
VERTEX
  8
SPL3W5K_DRD
 10
3.5400
 20
9.8900
 30
0.0000
  0
SEQEND
  0
POLYLINE
  8
SPL3W5K_DRD
 66
1
 10
0.0000
 20
0.0000
 30
0.0000
 40
0.0100
 41
0.0100
  0
VERTEX
  8
SPL3W5K_DRD
 10
3.4900
 20
9.8400
 30
0.0000
  0
VERTEX
  8
SPL3W5K_DRD
 10
3.5400
 20
9.8400
 30
0.0000
  0
SEQEND
  0
POLYLINE
  8
SPL3W5K_DRD
 66
1
 10
0.0000
 20
0.0000
 30
0.0000
 40
0.0100
 41
0.0100
  0
VERTEX
  8
SPL3W5K_DRD
 10
3.5400
 20
9.8650
 30
0.0000
  0
VERTEX
  8
SPL3W5K_DRD
 10
3.4900
 20
9.8650
 30
0.0000
  0
SEQEND
  0
POLYLINE
  8
SPL3W5K_DRD
 66
1
 10
0.0000
 20
0.0000
 30
0.0000
 40
0.0100
 41
0.0100
  0
VERTEX
  8
SPL3W5K_DRD
 10
3.5150
 20
9.8900
 30
0.0000
  0
VERTEX
  8
SPL3W5K_DRD
 10
3.5150
 20
9.8400
 30
0.0000
  0
SEQEND
  0
POLYLINE
  8
SPL3W5K_DRD
 66
1
 10
0.0000
 20
0.0000
 30
0.0000
 40
0.0100
 41
0.0100
  0
VERTEX
  8
SPL3W5K_DRD
 10
4.8200
 20
1.7050
 30
0.0000
  0
VERTEX
  8
SPL3W5K_DRD
 10
4.8200
 20
1.6550
 30
0.0000
  0
SEQEND
  0
POLYLINE
  8
SPL3W5K_DRD
 66
1
 10
0.0000
 20
0.0000
 30
0.0000
 40
0.0100
 41
0.0100
  0
VERTEX
  8
SPL3W5K_DRD
 10
4.8700
 20
1.7050
 30
0.0000
  0
VERTEX
  8
SPL3W5K_DRD
 10
4.8200
 20
1.7050
 30
0.0000
  0
SEQEND
  0
POLYLINE
  8
SPL3W5K_DRD
 66
1
 10
0.0000
 20
0.0000
 30
0.0000
 40
0.0100
 41
0.0100
  0
VERTEX
  8
SPL3W5K_DRD
 10
4.8700
 20
1.6550
 30
0.0000
  0
VERTEX
  8
SPL3W5K_DRD
 10
4.8700
 20
1.7050
 30
0.0000
  0
SEQEND
  0
POLYLINE
  8
SPL3W5K_DRD
 66
1
 10
0.0000
 20
0.0000
 30
0.0000
 40
0.0100
 41
0.0100
  0
VERTEX
  8
SPL3W5K_DRD
 10
4.8200
 20
1.6550
 30
0.0000
  0
VERTEX
  8
SPL3W5K_DRD
 10
4.8700
 20
1.6550
 30
0.0000
  0
SEQEND
  0
POLYLINE
  8
SPL3W5K_DRD
 66
1
 10
0.0000
 20
0.0000
 30
0.0000
 40
0.0100
 41
0.0100
  0
VERTEX
  8
SPL3W5K_DRD
 10
4.8700
 20
1.6800
 30
0.0000
  0
VERTEX
  8
SPL3W5K_DRD
 10
4.8200
 20
1.6800
 30
0.0000
  0
SEQEND
  0
POLYLINE
  8
SPL3W5K_DRD
 66
1
 10
0.0000
 20
0.0000
 30
0.0000
 40
0.0100
 41
0.0100
  0
VERTEX
  8
SPL3W5K_DRD
 10
4.8450
 20
1.7050
 30
0.0000
  0
VERTEX
  8
SPL3W5K_DRD
 10
4.8450
 20
1.6550
 30
0.0000
  0
SEQEND
  0
POLYLINE
  8
SPL3W5K_DRD
 66
1
 10
0.0000
 20
0.0000
 30
0.0000
 40
0.0100
 41
0.0100
  0
VERTEX
  8
SPL3W5K_DRD
 10
2.7400
 20
2.3100
 30
0.0000
  0
VERTEX
  8
SPL3W5K_DRD
 10
2.7400
 20
2.2600
 30
0.0000
  0
SEQEND
  0
POLYLINE
  8
SPL3W5K_DRD
 66
1
 10
0.0000
 20
0.0000
 30
0.0000
 40
0.0100
 41
0.0100
  0
VERTEX
  8
SPL3W5K_DRD
 10
2.7900
 20
2.3100
 30
0.0000
  0
VERTEX
  8
SPL3W5K_DRD
 10
2.7400
 20
2.3100
 30
0.0000
  0
SEQEND
  0
POLYLINE
  8
SPL3W5K_DRD
 66
1
 10
0.0000
 20
0.0000
 30
0.0000
 40
0.0100
 41
0.0100
  0
VERTEX
  8
SPL3W5K_DRD
 10
2.7900
 20
2.2600
 30
0.0000
  0
VERTEX
  8
SPL3W5K_DRD
 10
2.7900
 20
2.3100
 30
0.0000
  0
SEQEND
  0
POLYLINE
  8
SPL3W5K_DRD
 66
1
 10
0.0000
 20
0.0000
 30
0.0000
 40
0.0100
 41
0.0100
  0
VERTEX
  8
SPL3W5K_DRD
 10
2.7400
 20
2.2600
 30
0.0000
  0
VERTEX
  8
SPL3W5K_DRD
 10
2.7900
 20
2.2600
 30
0.0000
  0
SEQEND
  0
POLYLINE
  8
SPL3W5K_DRD
 66
1
 10
0.0000
 20
0.0000
 30
0.0000
 40
0.0100
 41
0.0100
  0
VERTEX
  8
SPL3W5K_DRD
 10
2.7900
 20
2.2850
 30
0.0000
  0
VERTEX
  8
SPL3W5K_DRD
 10
2.7400
 20
2.2850
 30
0.0000
  0
SEQEND
  0
POLYLINE
  8
SPL3W5K_DRD
 66
1
 10
0.0000
 20
0.0000
 30
0.0000
 40
0.0100
 41
0.0100
  0
VERTEX
  8
SPL3W5K_DRD
 10
2.7650
 20
2.3100
 30
0.0000
  0
VERTEX
  8
SPL3W5K_DRD
 10
2.7650
 20
2.2600
 30
0.0000
  0
SEQEND
  0
POLYLINE
  8
SPL3W5K_DRD
 66
1
 10
0.0000
 20
0.0000
 30
0.0000
 40
0.0100
 41
0.0100
  0
VERTEX
  8
SPL3W5K_DRD
 10
2.7300
 20
4.7000
 30
0.0000
  0
VERTEX
  8
SPL3W5K_DRD
 10
2.7300
 20
4.6500
 30
0.0000
  0
SEQEND
  0
POLYLINE
  8
SPL3W5K_DRD
 66
1
 10
0.0000
 20
0.0000
 30
0.0000
 40
0.0100
 41
0.0100
  0
VERTEX
  8
SPL3W5K_DRD
 10
2.7800
 20
4.7000
 30
0.0000
  0
VERTEX
  8
SPL3W5K_DRD
 10
2.7300
 20
4.7000
 30
0.0000
  0
SEQEND
  0
POLYLINE
  8
SPL3W5K_DRD
 66
1
 10
0.0000
 20
0.0000
 30
0.0000
 40
0.0100
 41
0.0100
  0
VERTEX
  8
SPL3W5K_DRD
 10
2.7800
 20
4.6500
 30
0.0000
  0
VERTEX
  8
SPL3W5K_DRD
 10
2.7800
 20
4.7000
 30
0.0000
  0
SEQEND
  0
POLYLINE
  8
SPL3W5K_DRD
 66
1
 10
0.0000
 20
0.0000
 30
0.0000
 40
0.0100
 41
0.0100
  0
VERTEX
  8
SPL3W5K_DRD
 10
2.7300
 20
4.6500
 30
0.0000
  0
VERTEX
  8
SPL3W5K_DRD
 10
2.7800
 20
4.6500
 30
0.0000
  0
SEQEND
  0
POLYLINE
  8
SPL3W5K_DRD
 66
1
 10
0.0000
 20
0.0000
 30
0.0000
 40
0.0100
 41
0.0100
  0
VERTEX
  8
SPL3W5K_DRD
 10
2.7800
 20
4.6750
 30
0.0000
  0
VERTEX
  8
SPL3W5K_DRD
 10
2.7300
 20
4.6750
 30
0.0000
  0
SEQEND
  0
POLYLINE
  8
SPL3W5K_DRD
 66
1
 10
0.0000
 20
0.0000
 30
0.0000
 40
0.0100
 41
0.0100
  0
VERTEX
  8
SPL3W5K_DRD
 10
2.7550
 20
4.7000
 30
0.0000
  0
VERTEX
  8
SPL3W5K_DRD
 10
2.7550
 20
4.6500
 30
0.0000
  0
SEQEND
  0
POLYLINE
  8
SPL3W5K_DRD
 66
1
 10
0.0000
 20
0.0000
 30
0.0000
 40
0.0100
 41
0.0100
  0
VERTEX
  8
SPL3W5K_DRD
 10
1.1150
 20
3.7150
 30
0.0000
  0
VERTEX
  8
SPL3W5K_DRD
 10
1.1150
 20
3.6650
 30
0.0000
  0
SEQEND
  0
POLYLINE
  8
SPL3W5K_DRD
 66
1
 10
0.0000
 20
0.0000
 30
0.0000
 40
0.0100
 41
0.0100
  0
VERTEX
  8
SPL3W5K_DRD
 10
1.1650
 20
3.7150
 30
0.0000
  0
VERTEX
  8
SPL3W5K_DRD
 10
1.1150
 20
3.7150
 30
0.0000
  0
SEQEND
  0
POLYLINE
  8
SPL3W5K_DRD
 66
1
 10
0.0000
 20
0.0000
 30
0.0000
 40
0.0100
 41
0.0100
  0
VERTEX
  8
SPL3W5K_DRD
 10
1.1650
 20
3.6650
 30
0.0000
  0
VERTEX
  8
SPL3W5K_DRD
 10
1.1650
 20
3.7150
 30
0.0000
  0
SEQEND
  0
POLYLINE
  8
SPL3W5K_DRD
 66
1
 10
0.0000
 20
0.0000
 30
0.0000
 40
0.0100
 41
0.0100
  0
VERTEX
  8
SPL3W5K_DRD
 10
1.1150
 20
3.6650
 30
0.0000
  0
VERTEX
  8
SPL3W5K_DRD
 10
1.1650
 20
3.6650
 30
0.0000
  0
SEQEND
  0
POLYLINE
  8
SPL3W5K_DRD
 66
1
 10
0.0000
 20
0.0000
 30
0.0000
 40
0.0100
 41
0.0100
  0
VERTEX
  8
SPL3W5K_DRD
 10
1.1650
 20
3.6900
 30
0.0000
  0
VERTEX
  8
SPL3W5K_DRD
 10
1.1150
 20
3.6900
 30
0.0000
  0
SEQEND
  0
POLYLINE
  8
SPL3W5K_DRD
 66
1
 10
0.0000
 20
0.0000
 30
0.0000
 40
0.0100
 41
0.0100
  0
VERTEX
  8
SPL3W5K_DRD
 10
1.1400
 20
3.7150
 30
0.0000
  0
VERTEX
  8
SPL3W5K_DRD
 10
1.1400
 20
3.6650
 30
0.0000
  0
SEQEND
  0
POLYLINE
  8
SPL3W5K_DRD
 66
1
 10
0.0000
 20
0.0000
 30
0.0000
 40
0.0100
 41
0.0100
  0
VERTEX
  8
SPL3W5K_DRD
 10
4.8300
 20
4.5300
 30
0.0000
  0
VERTEX
  8
SPL3W5K_DRD
 10
4.8300
 20
4.4800
 30
0.0000
  0
SEQEND
  0
POLYLINE
  8
SPL3W5K_DRD
 66
1
 10
0.0000
 20
0.0000
 30
0.0000
 40
0.0100
 41
0.0100
  0
VERTEX
  8
SPL3W5K_DRD
 10
4.8800
 20
4.5300
 30
0.0000
  0
VERTEX
  8
SPL3W5K_DRD
 10
4.8300
 20
4.5300
 30
0.0000
  0
SEQEND
  0
POLYLINE
  8
SPL3W5K_DRD
 66
1
 10
0.0000
 20
0.0000
 30
0.0000
 40
0.0100
 41
0.0100
  0
VERTEX
  8
SPL3W5K_DRD
 10
4.8800
 20
4.4800
 30
0.0000
  0
VERTEX
  8
SPL3W5K_DRD
 10
4.8800
 20
4.5300
 30
0.0000
  0
SEQEND
  0
POLYLINE
  8
SPL3W5K_DRD
 66
1
 10
0.0000
 20
0.0000
 30
0.0000
 40
0.0100
 41
0.0100
  0
VERTEX
  8
SPL3W5K_DRD
 10
4.8300
 20
4.4800
 30
0.0000
  0
VERTEX
  8
SPL3W5K_DRD
 10
4.8800
 20
4.4800
 30
0.0000
  0
SEQEND
  0
POLYLINE
  8
SPL3W5K_DRD
 66
1
 10
0.0000
 20
0.0000
 30
0.0000
 40
0.0100
 41
0.0100
  0
VERTEX
  8
SPL3W5K_DRD
 10
4.8800
 20
4.5050
 30
0.0000
  0
VERTEX
  8
SPL3W5K_DRD
 10
4.8300
 20
4.5050
 30
0.0000
  0
SEQEND
  0
POLYLINE
  8
SPL3W5K_DRD
 66
1
 10
0.0000
 20
0.0000
 30
0.0000
 40
0.0100
 41
0.0100
  0
VERTEX
  8
SPL3W5K_DRD
 10
4.8550
 20
4.5300
 30
0.0000
  0
VERTEX
  8
SPL3W5K_DRD
 10
4.8550
 20
4.4800
 30
0.0000
  0
SEQEND
  0
POLYLINE
  8
SPL3W5K_DRD
 66
1
 10
0.0000
 20
0.0000
 30
0.0000
 40
0.0100
 41
0.0100
  0
VERTEX
  8
SPL3W5K_DRD
 10
3.6800
 20
7.0150
 30
0.0000
  0
VERTEX
  8
SPL3W5K_DRD
 10
3.6800
 20
6.9650
 30
0.0000
  0
SEQEND
  0
POLYLINE
  8
SPL3W5K_DRD
 66
1
 10
0.0000
 20
0.0000
 30
0.0000
 40
0.0100
 41
0.0100
  0
VERTEX
  8
SPL3W5K_DRD
 10
3.7300
 20
7.0150
 30
0.0000
  0
VERTEX
  8
SPL3W5K_DRD
 10
3.6800
 20
7.0150
 30
0.0000
  0
SEQEND
  0
POLYLINE
  8
SPL3W5K_DRD
 66
1
 10
0.0000
 20
0.0000
 30
0.0000
 40
0.0100
 41
0.0100
  0
VERTEX
  8
SPL3W5K_DRD
 10
3.7300
 20
6.9650
 30
0.0000
  0
VERTEX
  8
SPL3W5K_DRD
 10
3.7300
 20
7.0150
 30
0.0000
  0
SEQEND
  0
POLYLINE
  8
SPL3W5K_DRD
 66
1
 10
0.0000
 20
0.0000
 30
0.0000
 40
0.0100
 41
0.0100
  0
VERTEX
  8
SPL3W5K_DRD
 10
3.6800
 20
6.9650
 30
0.0000
  0
VERTEX
  8
SPL3W5K_DRD
 10
3.7300
 20
6.9650
 30
0.0000
  0
SEQEND
  0
POLYLINE
  8
SPL3W5K_DRD
 66
1
 10
0.0000
 20
0.0000
 30
0.0000
 40
0.0100
 41
0.0100
  0
VERTEX
  8
SPL3W5K_DRD
 10
3.7300
 20
6.9900
 30
0.0000
  0
VERTEX
  8
SPL3W5K_DRD
 10
3.6800
 20
6.9900
 30
0.0000
  0
SEQEND
  0
POLYLINE
  8
SPL3W5K_DRD
 66
1
 10
0.0000
 20
0.0000
 30
0.0000
 40
0.0100
 41
0.0100
  0
VERTEX
  8
SPL3W5K_DRD
 10
3.7050
 20
7.0150
 30
0.0000
  0
VERTEX
  8
SPL3W5K_DRD
 10
3.7050
 20
6.9650
 30
0.0000
  0
SEQEND
  0
POLYLINE
  8
SPL3W5K_DRD
 66
1
 10
0.0000
 20
0.0000
 30
0.0000
 40
0.0100
 41
0.0100
  0
VERTEX
  8
SPL3W5K_DRD
 10
0.1000
 20
5.1400
 30
0.0000
  0
VERTEX
  8
SPL3W5K_DRD
 10
0.1000
 20
5.0900
 30
0.0000
  0
SEQEND
  0
POLYLINE
  8
SPL3W5K_DRD
 66
1
 10
0.0000
 20
0.0000
 30
0.0000
 40
0.0100
 41
0.0100
  0
VERTEX
  8
SPL3W5K_DRD
 10
0.1500
 20
5.1400
 30
0.0000
  0
VERTEX
  8
SPL3W5K_DRD
 10
0.1000
 20
5.1400
 30
0.0000
  0
SEQEND
  0
POLYLINE
  8
SPL3W5K_DRD
 66
1
 10
0.0000
 20
0.0000
 30
0.0000
 40
0.0100
 41
0.0100
  0
VERTEX
  8
SPL3W5K_DRD
 10
0.1500
 20
5.0900
 30
0.0000
  0
VERTEX
  8
SPL3W5K_DRD
 10
0.1500
 20
5.1400
 30
0.0000
  0
SEQEND
  0
POLYLINE
  8
SPL3W5K_DRD
 66
1
 10
0.0000
 20
0.0000
 30
0.0000
 40
0.0100
 41
0.0100
  0
VERTEX
  8
SPL3W5K_DRD
 10
0.1000
 20
5.0900
 30
0.0000
  0
VERTEX
  8
SPL3W5K_DRD
 10
0.1500
 20
5.0900
 30
0.0000
  0
SEQEND
  0
POLYLINE
  8
SPL3W5K_DRD
 66
1
 10
0.0000
 20
0.0000
 30
0.0000
 40
0.0100
 41
0.0100
  0
VERTEX
  8
SPL3W5K_DRD
 10
0.1500
 20
5.1150
 30
0.0000
  0
VERTEX
  8
SPL3W5K_DRD
 10
0.1000
 20
5.1150
 30
0.0000
  0
SEQEND
  0
POLYLINE
  8
SPL3W5K_DRD
 66
1
 10
0.0000
 20
0.0000
 30
0.0000
 40
0.0100
 41
0.0100
  0
VERTEX
  8
SPL3W5K_DRD
 10
0.1250
 20
5.1400
 30
0.0000
  0
VERTEX
  8
SPL3W5K_DRD
 10
0.1250
 20
5.0900
 30
0.0000
  0
SEQEND
  0
POLYLINE
  8
SPL3W5K_DRD
 66
1
 10
0.0000
 20
0.0000
 30
0.0000
 40
0.0100
 41
0.0100
  0
VERTEX
  8
SPL3W5K_DRD
 10
0.0950
 20
2.0300
 30
0.0000
  0
VERTEX
  8
SPL3W5K_DRD
 10
0.0950
 20
1.9800
 30
0.0000
  0
SEQEND
  0
POLYLINE
  8
SPL3W5K_DRD
 66
1
 10
0.0000
 20
0.0000
 30
0.0000
 40
0.0100
 41
0.0100
  0
VERTEX
  8
SPL3W5K_DRD
 10
0.1450
 20
2.0300
 30
0.0000
  0
VERTEX
  8
SPL3W5K_DRD
 10
0.0950
 20
2.0300
 30
0.0000
  0
SEQEND
  0
POLYLINE
  8
SPL3W5K_DRD
 66
1
 10
0.0000
 20
0.0000
 30
0.0000
 40
0.0100
 41
0.0100
  0
VERTEX
  8
SPL3W5K_DRD
 10
0.1450
 20
1.9800
 30
0.0000
  0
VERTEX
  8
SPL3W5K_DRD
 10
0.1450
 20
2.0300
 30
0.0000
  0
SEQEND
  0
POLYLINE
  8
SPL3W5K_DRD
 66
1
 10
0.0000
 20
0.0000
 30
0.0000
 40
0.0100
 41
0.0100
  0
VERTEX
  8
SPL3W5K_DRD
 10
0.0950
 20
1.9800
 30
0.0000
  0
VERTEX
  8
SPL3W5K_DRD
 10
0.1450
 20
1.9800
 30
0.0000
  0
SEQEND
  0
POLYLINE
  8
SPL3W5K_DRD
 66
1
 10
0.0000
 20
0.0000
 30
0.0000
 40
0.0100
 41
0.0100
  0
VERTEX
  8
SPL3W5K_DRD
 10
0.1450
 20
2.0050
 30
0.0000
  0
VERTEX
  8
SPL3W5K_DRD
 10
0.0950
 20
2.0050
 30
0.0000
  0
SEQEND
  0
POLYLINE
  8
SPL3W5K_DRD
 66
1
 10
0.0000
 20
0.0000
 30
0.0000
 40
0.0100
 41
0.0100
  0
VERTEX
  8
SPL3W5K_DRD
 10
0.1200
 20
2.0300
 30
0.0000
  0
VERTEX
  8
SPL3W5K_DRD
 10
0.1200
 20
1.9800
 30
0.0000
  0
SEQEND
  0
POLYLINE
  8
SPL3W5K_DRD
 66
1
 10
0.0000
 20
0.0000
 30
0.0000
 40
0.0100
 41
0.0100
  0
VERTEX
  8
SPL3W5K_DRD
 10
1.6050
 20
10.0850
 30
0.0000
  0
VERTEX
  8
SPL3W5K_DRD
 10
1.6050
 20
10.0600
 30
0.0000
  0
SEQEND
  0
POLYLINE
  8
SPL3W5K_DRD
 66
1
 10
0.0000
 20
0.0000
 30
0.0000
 40
0.0100
 41
0.0100
  0
VERTEX
  8
SPL3W5K_DRD
 10
1.6300
 20
10.0850
 30
0.0000
  0
VERTEX
  8
SPL3W5K_DRD
 10
1.6050
 20
10.0850
 30
0.0000
  0
SEQEND
  0
POLYLINE
  8
SPL3W5K_DRD
 66
1
 10
0.0000
 20
0.0000
 30
0.0000
 40
0.0100
 41
0.0100
  0
VERTEX
  8
SPL3W5K_DRD
 10
1.6300
 20
10.0350
 30
0.0000
  0
VERTEX
  8
SPL3W5K_DRD
 10
1.6300
 20
10.0850
 30
0.0000
  0
SEQEND
  0
POLYLINE
  8
SPL3W5K_DRD
 66
1
 10
0.0000
 20
0.0000
 30
0.0000
 40
0.0100
 41
0.0100
  0
VERTEX
  8
SPL3W5K_DRD
 10
1.6550
 20
10.0350
 30
0.0000
  0
VERTEX
  8
SPL3W5K_DRD
 10
1.6300
 20
10.0350
 30
0.0000
  0
SEQEND
  0
POLYLINE
  8
SPL3W5K_DRD
 66
1
 10
0.0000
 20
0.0000
 30
0.0000
 40
0.0100
 41
0.0100
  0
VERTEX
  8
SPL3W5K_DRD
 10
1.6550
 20
10.0600
 30
0.0000
  0
VERTEX
  8
SPL3W5K_DRD
 10
1.6550
 20
10.0350
 30
0.0000
  0
SEQEND
  0
POLYLINE
  8
SPL3W5K_DRD
 66
1
 10
0.0000
 20
0.0000
 30
0.0000
 40
0.0100
 41
0.0100
  0
VERTEX
  8
SPL3W5K_DRD
 10
1.6050
 20
10.0600
 30
0.0000
  0
VERTEX
  8
SPL3W5K_DRD
 10
1.6550
 20
10.0600
 30
0.0000
  0
SEQEND
  0
POLYLINE
  8
SPL3W5K_DRD
 66
1
 10
0.0000
 20
0.0000
 30
0.0000
 40
0.0100
 41
0.0100
  0
VERTEX
  8
SPL3W5K_DRD
 10
2.1050
 20
10.0850
 30
0.0000
  0
VERTEX
  8
SPL3W5K_DRD
 10
2.1050
 20
10.0600
 30
0.0000
  0
SEQEND
  0
POLYLINE
  8
SPL3W5K_DRD
 66
1
 10
0.0000
 20
0.0000
 30
0.0000
 40
0.0100
 41
0.0100
  0
VERTEX
  8
SPL3W5K_DRD
 10
2.1300
 20
10.0850
 30
0.0000
  0
VERTEX
  8
SPL3W5K_DRD
 10
2.1050
 20
10.0850
 30
0.0000
  0
SEQEND
  0
POLYLINE
  8
SPL3W5K_DRD
 66
1
 10
0.0000
 20
0.0000
 30
0.0000
 40
0.0100
 41
0.0100
  0
VERTEX
  8
SPL3W5K_DRD
 10
2.1300
 20
10.0350
 30
0.0000
  0
VERTEX
  8
SPL3W5K_DRD
 10
2.1300
 20
10.0850
 30
0.0000
  0
SEQEND
  0
POLYLINE
  8
SPL3W5K_DRD
 66
1
 10
0.0000
 20
0.0000
 30
0.0000
 40
0.0100
 41
0.0100
  0
VERTEX
  8
SPL3W5K_DRD
 10
2.1550
 20
10.0350
 30
0.0000
  0
VERTEX
  8
SPL3W5K_DRD
 10
2.1300
 20
10.0350
 30
0.0000
  0
SEQEND
  0
POLYLINE
  8
SPL3W5K_DRD
 66
1
 10
0.0000
 20
0.0000
 30
0.0000
 40
0.0100
 41
0.0100
  0
VERTEX
  8
SPL3W5K_DRD
 10
2.1550
 20
10.0600
 30
0.0000
  0
VERTEX
  8
SPL3W5K_DRD
 10
2.1550
 20
10.0350
 30
0.0000
  0
SEQEND
  0
POLYLINE
  8
SPL3W5K_DRD
 66
1
 10
0.0000
 20
0.0000
 30
0.0000
 40
0.0100
 41
0.0100
  0
VERTEX
  8
SPL3W5K_DRD
 10
2.1050
 20
10.0600
 30
0.0000
  0
VERTEX
  8
SPL3W5K_DRD
 10
2.1550
 20
10.0600
 30
0.0000
  0
SEQEND
  0
POLYLINE
  8
SPL3W5K_DRD
 66
1
 10
0.0000
 20
0.0000
 30
0.0000
 40
0.0100
 41
0.0100
  0
VERTEX
  8
SPL3W5K_DRD
 10
2.1050
 20
8.5350
 30
0.0000
  0
VERTEX
  8
SPL3W5K_DRD
 10
2.1050
 20
8.5100
 30
0.0000
  0
SEQEND
  0
POLYLINE
  8
SPL3W5K_DRD
 66
1
 10
0.0000
 20
0.0000
 30
0.0000
 40
0.0100
 41
0.0100
  0
VERTEX
  8
SPL3W5K_DRD
 10
2.1300
 20
8.5350
 30
0.0000
  0
VERTEX
  8
SPL3W5K_DRD
 10
2.1050
 20
8.5350
 30
0.0000
  0
SEQEND
  0
POLYLINE
  8
SPL3W5K_DRD
 66
1
 10
0.0000
 20
0.0000
 30
0.0000
 40
0.0100
 41
0.0100
  0
VERTEX
  8
SPL3W5K_DRD
 10
2.1300
 20
8.4850
 30
0.0000
  0
VERTEX
  8
SPL3W5K_DRD
 10
2.1300
 20
8.5350
 30
0.0000
  0
SEQEND
  0
POLYLINE
  8
SPL3W5K_DRD
 66
1
 10
0.0000
 20
0.0000
 30
0.0000
 40
0.0100
 41
0.0100
  0
VERTEX
  8
SPL3W5K_DRD
 10
2.1550
 20
8.4850
 30
0.0000
  0
VERTEX
  8
SPL3W5K_DRD
 10
2.1300
 20
8.4850
 30
0.0000
  0
SEQEND
  0
POLYLINE
  8
SPL3W5K_DRD
 66
1
 10
0.0000
 20
0.0000
 30
0.0000
 40
0.0100
 41
0.0100
  0
VERTEX
  8
SPL3W5K_DRD
 10
2.1550
 20
8.5100
 30
0.0000
  0
VERTEX
  8
SPL3W5K_DRD
 10
2.1550
 20
8.4850
 30
0.0000
  0
SEQEND
  0
POLYLINE
  8
SPL3W5K_DRD
 66
1
 10
0.0000
 20
0.0000
 30
0.0000
 40
0.0100
 41
0.0100
  0
VERTEX
  8
SPL3W5K_DRD
 10
2.1050
 20
8.5100
 30
0.0000
  0
VERTEX
  8
SPL3W5K_DRD
 10
2.1550
 20
8.5100
 30
0.0000
  0
SEQEND
  0
POLYLINE
  8
SPL3W5K_DRD
 66
1
 10
0.0000
 20
0.0000
 30
0.0000
 40
0.0100
 41
0.0100
  0
VERTEX
  8
SPL3W5K_DRD
 10
1.6050
 20
8.5350
 30
0.0000
  0
VERTEX
  8
SPL3W5K_DRD
 10
1.6050
 20
8.5100
 30
0.0000
  0
SEQEND
  0
POLYLINE
  8
SPL3W5K_DRD
 66
1
 10
0.0000
 20
0.0000
 30
0.0000
 40
0.0100
 41
0.0100
  0
VERTEX
  8
SPL3W5K_DRD
 10
1.6300
 20
8.5350
 30
0.0000
  0
VERTEX
  8
SPL3W5K_DRD
 10
1.6050
 20
8.5350
 30
0.0000
  0
SEQEND
  0
POLYLINE
  8
SPL3W5K_DRD
 66
1
 10
0.0000
 20
0.0000
 30
0.0000
 40
0.0100
 41
0.0100
  0
VERTEX
  8
SPL3W5K_DRD
 10
1.6300
 20
8.4850
 30
0.0000
  0
VERTEX
  8
SPL3W5K_DRD
 10
1.6300
 20
8.5350
 30
0.0000
  0
SEQEND
  0
POLYLINE
  8
SPL3W5K_DRD
 66
1
 10
0.0000
 20
0.0000
 30
0.0000
 40
0.0100
 41
0.0100
  0
VERTEX
  8
SPL3W5K_DRD
 10
1.6550
 20
8.4850
 30
0.0000
  0
VERTEX
  8
SPL3W5K_DRD
 10
1.6300
 20
8.4850
 30
0.0000
  0
SEQEND
  0
POLYLINE
  8
SPL3W5K_DRD
 66
1
 10
0.0000
 20
0.0000
 30
0.0000
 40
0.0100
 41
0.0100
  0
VERTEX
  8
SPL3W5K_DRD
 10
1.6550
 20
8.5100
 30
0.0000
  0
VERTEX
  8
SPL3W5K_DRD
 10
1.6550
 20
8.4850
 30
0.0000
  0
SEQEND
  0
POLYLINE
  8
SPL3W5K_DRD
 66
1
 10
0.0000
 20
0.0000
 30
0.0000
 40
0.0100
 41
0.0100
  0
VERTEX
  8
SPL3W5K_DRD
 10
1.6050
 20
8.5100
 30
0.0000
  0
VERTEX
  8
SPL3W5K_DRD
 10
1.6550
 20
8.5100
 30
0.0000
  0
SEQEND
  0
POLYLINE
  8
SPL3W5K_DRD
 66
1
 10
0.0000
 20
0.0000
 30
0.0000
 40
0.0100
 41
0.0100
  0
VERTEX
  8
SPL3W5K_DRD
 10
1.9900
 20
7.4900
 30
0.0000
  0
VERTEX
  8
SPL3W5K_DRD
 10
1.9900
 20
7.4650
 30
0.0000
  0
SEQEND
  0
POLYLINE
  8
SPL3W5K_DRD
 66
1
 10
0.0000
 20
0.0000
 30
0.0000
 40
0.0100
 41
0.0100
  0
VERTEX
  8
SPL3W5K_DRD
 10
2.0150
 20
7.4900
 30
0.0000
  0
VERTEX
  8
SPL3W5K_DRD
 10
1.9900
 20
7.4900
 30
0.0000
  0
SEQEND
  0
POLYLINE
  8
SPL3W5K_DRD
 66
1
 10
0.0000
 20
0.0000
 30
0.0000
 40
0.0100
 41
0.0100
  0
VERTEX
  8
SPL3W5K_DRD
 10
2.0150
 20
7.4400
 30
0.0000
  0
VERTEX
  8
SPL3W5K_DRD
 10
2.0150
 20
7.4900
 30
0.0000
  0
SEQEND
  0
POLYLINE
  8
SPL3W5K_DRD
 66
1
 10
0.0000
 20
0.0000
 30
0.0000
 40
0.0100
 41
0.0100
  0
VERTEX
  8
SPL3W5K_DRD
 10
2.0400
 20
7.4400
 30
0.0000
  0
VERTEX
  8
SPL3W5K_DRD
 10
2.0150
 20
7.4400
 30
0.0000
  0
SEQEND
  0
POLYLINE
  8
SPL3W5K_DRD
 66
1
 10
0.0000
 20
0.0000
 30
0.0000
 40
0.0100
 41
0.0100
  0
VERTEX
  8
SPL3W5K_DRD
 10
2.0400
 20
7.4650
 30
0.0000
  0
VERTEX
  8
SPL3W5K_DRD
 10
2.0400
 20
7.4400
 30
0.0000
  0
SEQEND
  0
POLYLINE
  8
SPL3W5K_DRD
 66
1
 10
0.0000
 20
0.0000
 30
0.0000
 40
0.0100
 41
0.0100
  0
VERTEX
  8
SPL3W5K_DRD
 10
1.9900
 20
7.4650
 30
0.0000
  0
VERTEX
  8
SPL3W5K_DRD
 10
2.0400
 20
7.4650
 30
0.0000
  0
SEQEND
  0
POLYLINE
  8
SPL3W5K_DRD
 66
1
 10
0.0000
 20
0.0000
 30
0.0000
 40
0.0100
 41
0.0100
  0
VERTEX
  8
SPL3W5K_DRD
 10
1.9900
 20
7.9900
 30
0.0000
  0
VERTEX
  8
SPL3W5K_DRD
 10
1.9900
 20
7.9650
 30
0.0000
  0
SEQEND
  0
POLYLINE
  8
SPL3W5K_DRD
 66
1
 10
0.0000
 20
0.0000
 30
0.0000
 40
0.0100
 41
0.0100
  0
VERTEX
  8
SPL3W5K_DRD
 10
2.0150
 20
7.9900
 30
0.0000
  0
VERTEX
  8
SPL3W5K_DRD
 10
1.9900
 20
7.9900
 30
0.0000
  0
SEQEND
  0
POLYLINE
  8
SPL3W5K_DRD
 66
1
 10
0.0000
 20
0.0000
 30
0.0000
 40
0.0100
 41
0.0100
  0
VERTEX
  8
SPL3W5K_DRD
 10
2.0150
 20
7.9400
 30
0.0000
  0
VERTEX
  8
SPL3W5K_DRD
 10
2.0150
 20
7.9900
 30
0.0000
  0
SEQEND
  0
POLYLINE
  8
SPL3W5K_DRD
 66
1
 10
0.0000
 20
0.0000
 30
0.0000
 40
0.0100
 41
0.0100
  0
VERTEX
  8
SPL3W5K_DRD
 10
2.0400
 20
7.9400
 30
0.0000
  0
VERTEX
  8
SPL3W5K_DRD
 10
2.0150
 20
7.9400
 30
0.0000
  0
SEQEND
  0
POLYLINE
  8
SPL3W5K_DRD
 66
1
 10
0.0000
 20
0.0000
 30
0.0000
 40
0.0100
 41
0.0100
  0
VERTEX
  8
SPL3W5K_DRD
 10
2.0400
 20
7.9650
 30
0.0000
  0
VERTEX
  8
SPL3W5K_DRD
 10
2.0400
 20
7.9400
 30
0.0000
  0
SEQEND
  0
POLYLINE
  8
SPL3W5K_DRD
 66
1
 10
0.0000
 20
0.0000
 30
0.0000
 40
0.0100
 41
0.0100
  0
VERTEX
  8
SPL3W5K_DRD
 10
1.9900
 20
7.9650
 30
0.0000
  0
VERTEX
  8
SPL3W5K_DRD
 10
2.0400
 20
7.9650
 30
0.0000
  0
SEQEND
  0
POLYLINE
  8
SPL3W5K_DRD
 66
1
 10
0.0000
 20
0.0000
 30
0.0000
 40
0.0100
 41
0.0100
  0
VERTEX
  8
SPL3W5K_DRD
 10
3.5400
 20
7.9900
 30
0.0000
  0
VERTEX
  8
SPL3W5K_DRD
 10
3.5400
 20
7.9650
 30
0.0000
  0
SEQEND
  0
POLYLINE
  8
SPL3W5K_DRD
 66
1
 10
0.0000
 20
0.0000
 30
0.0000
 40
0.0100
 41
0.0100
  0
VERTEX
  8
SPL3W5K_DRD
 10
3.5650
 20
7.9900
 30
0.0000
  0
VERTEX
  8
SPL3W5K_DRD
 10
3.5400
 20
7.9900
 30
0.0000
  0
SEQEND
  0
POLYLINE
  8
SPL3W5K_DRD
 66
1
 10
0.0000
 20
0.0000
 30
0.0000
 40
0.0100
 41
0.0100
  0
VERTEX
  8
SPL3W5K_DRD
 10
3.5650
 20
7.9400
 30
0.0000
  0
VERTEX
  8
SPL3W5K_DRD
 10
3.5650
 20
7.9900
 30
0.0000
  0
SEQEND
  0
POLYLINE
  8
SPL3W5K_DRD
 66
1
 10
0.0000
 20
0.0000
 30
0.0000
 40
0.0100
 41
0.0100
  0
VERTEX
  8
SPL3W5K_DRD
 10
3.5900
 20
7.9400
 30
0.0000
  0
VERTEX
  8
SPL3W5K_DRD
 10
3.5650
 20
7.9400
 30
0.0000
  0
SEQEND
  0
POLYLINE
  8
SPL3W5K_DRD
 66
1
 10
0.0000
 20
0.0000
 30
0.0000
 40
0.0100
 41
0.0100
  0
VERTEX
  8
SPL3W5K_DRD
 10
3.5900
 20
7.9650
 30
0.0000
  0
VERTEX
  8
SPL3W5K_DRD
 10
3.5900
 20
7.9400
 30
0.0000
  0
SEQEND
  0
POLYLINE
  8
SPL3W5K_DRD
 66
1
 10
0.0000
 20
0.0000
 30
0.0000
 40
0.0100
 41
0.0100
  0
VERTEX
  8
SPL3W5K_DRD
 10
3.5400
 20
7.9650
 30
0.0000
  0
VERTEX
  8
SPL3W5K_DRD
 10
3.5900
 20
7.9650
 30
0.0000
  0
SEQEND
  0
POLYLINE
  8
SPL3W5K_DRD
 66
1
 10
0.0000
 20
0.0000
 30
0.0000
 40
0.0100
 41
0.0100
  0
VERTEX
  8
SPL3W5K_DRD
 10
3.5400
 20
7.4900
 30
0.0000
  0
VERTEX
  8
SPL3W5K_DRD
 10
3.5400
 20
7.4650
 30
0.0000
  0
SEQEND
  0
POLYLINE
  8
SPL3W5K_DRD
 66
1
 10
0.0000
 20
0.0000
 30
0.0000
 40
0.0100
 41
0.0100
  0
VERTEX
  8
SPL3W5K_DRD
 10
3.5650
 20
7.4900
 30
0.0000
  0
VERTEX
  8
SPL3W5K_DRD
 10
3.5400
 20
7.4900
 30
0.0000
  0
SEQEND
  0
POLYLINE
  8
SPL3W5K_DRD
 66
1
 10
0.0000
 20
0.0000
 30
0.0000
 40
0.0100
 41
0.0100
  0
VERTEX
  8
SPL3W5K_DRD
 10
3.5650
 20
7.4400
 30
0.0000
  0
VERTEX
  8
SPL3W5K_DRD
 10
3.5650
 20
7.4900
 30
0.0000
  0
SEQEND
  0
POLYLINE
  8
SPL3W5K_DRD
 66
1
 10
0.0000
 20
0.0000
 30
0.0000
 40
0.0100
 41
0.0100
  0
VERTEX
  8
SPL3W5K_DRD
 10
3.5900
 20
7.4400
 30
0.0000
  0
VERTEX
  8
SPL3W5K_DRD
 10
3.5650
 20
7.4400
 30
0.0000
  0
SEQEND
  0
POLYLINE
  8
SPL3W5K_DRD
 66
1
 10
0.0000
 20
0.0000
 30
0.0000
 40
0.0100
 41
0.0100
  0
VERTEX
  8
SPL3W5K_DRD
 10
3.5900
 20
7.4650
 30
0.0000
  0
VERTEX
  8
SPL3W5K_DRD
 10
3.5900
 20
7.4400
 30
0.0000
  0
SEQEND
  0
POLYLINE
  8
SPL3W5K_DRD
 66
1
 10
0.0000
 20
0.0000
 30
0.0000
 40
0.0100
 41
0.0100
  0
VERTEX
  8
SPL3W5K_DRD
 10
3.5400
 20
7.4650
 30
0.0000
  0
VERTEX
  8
SPL3W5K_DRD
 10
3.5900
 20
7.4650
 30
0.0000
  0
SEQEND
  0
POLYLINE
  8
SPL3W5K_DRD
 66
1
 10
0.0000
 20
0.0000
 30
0.0000
 40
0.0100
 41
0.0100
  0
VERTEX
  8
SPL3W5K_DRD
 10
1.9900
 20
10.6300
 30
0.0000
  0
VERTEX
  8
SPL3W5K_DRD
 10
1.9900
 20
10.6050
 30
0.0000
  0
SEQEND
  0
POLYLINE
  8
SPL3W5K_DRD
 66
1
 10
0.0000
 20
0.0000
 30
0.0000
 40
0.0100
 41
0.0100
  0
VERTEX
  8
SPL3W5K_DRD
 10
2.0150
 20
10.6300
 30
0.0000
  0
VERTEX
  8
SPL3W5K_DRD
 10
1.9900
 20
10.6300
 30
0.0000
  0
SEQEND
  0
POLYLINE
  8
SPL3W5K_DRD
 66
1
 10
0.0000
 20
0.0000
 30
0.0000
 40
0.0100
 41
0.0100
  0
VERTEX
  8
SPL3W5K_DRD
 10
2.0150
 20
10.5800
 30
0.0000
  0
VERTEX
  8
SPL3W5K_DRD
 10
2.0150
 20
10.6300
 30
0.0000
  0
SEQEND
  0
POLYLINE
  8
SPL3W5K_DRD
 66
1
 10
0.0000
 20
0.0000
 30
0.0000
 40
0.0100
 41
0.0100
  0
VERTEX
  8
SPL3W5K_DRD
 10
2.0400
 20
10.5800
 30
0.0000
  0
VERTEX
  8
SPL3W5K_DRD
 10
2.0150
 20
10.5800
 30
0.0000
  0
SEQEND
  0
POLYLINE
  8
SPL3W5K_DRD
 66
1
 10
0.0000
 20
0.0000
 30
0.0000
 40
0.0100
 41
0.0100
  0
VERTEX
  8
SPL3W5K_DRD
 10
2.0400
 20
10.6050
 30
0.0000
  0
VERTEX
  8
SPL3W5K_DRD
 10
2.0400
 20
10.5800
 30
0.0000
  0
SEQEND
  0
POLYLINE
  8
SPL3W5K_DRD
 66
1
 10
0.0000
 20
0.0000
 30
0.0000
 40
0.0100
 41
0.0100
  0
VERTEX
  8
SPL3W5K_DRD
 10
1.9900
 20
10.6050
 30
0.0000
  0
VERTEX
  8
SPL3W5K_DRD
 10
2.0400
 20
10.6050
 30
0.0000
  0
SEQEND
  0
POLYLINE
  8
SPL3W5K_DRD
 66
1
 10
0.0000
 20
0.0000
 30
0.0000
 40
0.0100
 41
0.0100
  0
VERTEX
  8
SPL3W5K_DRD
 10
1.9900
 20
11.1300
 30
0.0000
  0
VERTEX
  8
SPL3W5K_DRD
 10
1.9900
 20
11.1050
 30
0.0000
  0
SEQEND
  0
POLYLINE
  8
SPL3W5K_DRD
 66
1
 10
0.0000
 20
0.0000
 30
0.0000
 40
0.0100
 41
0.0100
  0
VERTEX
  8
SPL3W5K_DRD
 10
2.0150
 20
11.1300
 30
0.0000
  0
VERTEX
  8
SPL3W5K_DRD
 10
1.9900
 20
11.1300
 30
0.0000
  0
SEQEND
  0
POLYLINE
  8
SPL3W5K_DRD
 66
1
 10
0.0000
 20
0.0000
 30
0.0000
 40
0.0100
 41
0.0100
  0
VERTEX
  8
SPL3W5K_DRD
 10
2.0150
 20
11.0800
 30
0.0000
  0
VERTEX
  8
SPL3W5K_DRD
 10
2.0150
 20
11.1300
 30
0.0000
  0
SEQEND
  0
POLYLINE
  8
SPL3W5K_DRD
 66
1
 10
0.0000
 20
0.0000
 30
0.0000
 40
0.0100
 41
0.0100
  0
VERTEX
  8
SPL3W5K_DRD
 10
2.0400
 20
11.0800
 30
0.0000
  0
VERTEX
  8
SPL3W5K_DRD
 10
2.0150
 20
11.0800
 30
0.0000
  0
SEQEND
  0
POLYLINE
  8
SPL3W5K_DRD
 66
1
 10
0.0000
 20
0.0000
 30
0.0000
 40
0.0100
 41
0.0100
  0
VERTEX
  8
SPL3W5K_DRD
 10
2.0400
 20
11.1050
 30
0.0000
  0
VERTEX
  8
SPL3W5K_DRD
 10
2.0400
 20
11.0800
 30
0.0000
  0
SEQEND
  0
POLYLINE
  8
SPL3W5K_DRD
 66
1
 10
0.0000
 20
0.0000
 30
0.0000
 40
0.0100
 41
0.0100
  0
VERTEX
  8
SPL3W5K_DRD
 10
1.9900
 20
11.1050
 30
0.0000
  0
VERTEX
  8
SPL3W5K_DRD
 10
2.0400
 20
11.1050
 30
0.0000
  0
SEQEND
  0
POLYLINE
  8
SPL3W5K_DRD
 66
1
 10
0.0000
 20
0.0000
 30
0.0000
 40
0.0100
 41
0.0100
  0
VERTEX
  8
SPL3W5K_DRD
 10
3.5400
 20
11.1300
 30
0.0000
  0
VERTEX
  8
SPL3W5K_DRD
 10
3.5400
 20
11.1050
 30
0.0000
  0
SEQEND
  0
POLYLINE
  8
SPL3W5K_DRD
 66
1
 10
0.0000
 20
0.0000
 30
0.0000
 40
0.0100
 41
0.0100
  0
VERTEX
  8
SPL3W5K_DRD
 10
3.5650
 20
11.1300
 30
0.0000
  0
VERTEX
  8
SPL3W5K_DRD
 10
3.5400
 20
11.1300
 30
0.0000
  0
SEQEND
  0
POLYLINE
  8
SPL3W5K_DRD
 66
1
 10
0.0000
 20
0.0000
 30
0.0000
 40
0.0100
 41
0.0100
  0
VERTEX
  8
SPL3W5K_DRD
 10
3.5650
 20
11.0800
 30
0.0000
  0
VERTEX
  8
SPL3W5K_DRD
 10
3.5650
 20
11.1300
 30
0.0000
  0
SEQEND
  0
POLYLINE
  8
SPL3W5K_DRD
 66
1
 10
0.0000
 20
0.0000
 30
0.0000
 40
0.0100
 41
0.0100
  0
VERTEX
  8
SPL3W5K_DRD
 10
3.5900
 20
11.0800
 30
0.0000
  0
VERTEX
  8
SPL3W5K_DRD
 10
3.5650
 20
11.0800
 30
0.0000
  0
SEQEND
  0
POLYLINE
  8
SPL3W5K_DRD
 66
1
 10
0.0000
 20
0.0000
 30
0.0000
 40
0.0100
 41
0.0100
  0
VERTEX
  8
SPL3W5K_DRD
 10
3.5900
 20
11.1050
 30
0.0000
  0
VERTEX
  8
SPL3W5K_DRD
 10
3.5900
 20
11.0800
 30
0.0000
  0
SEQEND
  0
POLYLINE
  8
SPL3W5K_DRD
 66
1
 10
0.0000
 20
0.0000
 30
0.0000
 40
0.0100
 41
0.0100
  0
VERTEX
  8
SPL3W5K_DRD
 10
3.5400
 20
11.1050
 30
0.0000
  0
VERTEX
  8
SPL3W5K_DRD
 10
3.5900
 20
11.1050
 30
0.0000
  0
SEQEND
  0
POLYLINE
  8
SPL3W5K_DRD
 66
1
 10
0.0000
 20
0.0000
 30
0.0000
 40
0.0100
 41
0.0100
  0
VERTEX
  8
SPL3W5K_DRD
 10
3.5400
 20
10.6300
 30
0.0000
  0
VERTEX
  8
SPL3W5K_DRD
 10
3.5400
 20
10.6050
 30
0.0000
  0
SEQEND
  0
POLYLINE
  8
SPL3W5K_DRD
 66
1
 10
0.0000
 20
0.0000
 30
0.0000
 40
0.0100
 41
0.0100
  0
VERTEX
  8
SPL3W5K_DRD
 10
3.5650
 20
10.6300
 30
0.0000
  0
VERTEX
  8
SPL3W5K_DRD
 10
3.5400
 20
10.6300
 30
0.0000
  0
SEQEND
  0
POLYLINE
  8
SPL3W5K_DRD
 66
1
 10
0.0000
 20
0.0000
 30
0.0000
 40
0.0100
 41
0.0100
  0
VERTEX
  8
SPL3W5K_DRD
 10
3.5650
 20
10.5800
 30
0.0000
  0
VERTEX
  8
SPL3W5K_DRD
 10
3.5650
 20
10.6300
 30
0.0000
  0
SEQEND
  0
POLYLINE
  8
SPL3W5K_DRD
 66
1
 10
0.0000
 20
0.0000
 30
0.0000
 40
0.0100
 41
0.0100
  0
VERTEX
  8
SPL3W5K_DRD
 10
3.5900
 20
10.5800
 30
0.0000
  0
VERTEX
  8
SPL3W5K_DRD
 10
3.5650
 20
10.5800
 30
0.0000
  0
SEQEND
  0
POLYLINE
  8
SPL3W5K_DRD
 66
1
 10
0.0000
 20
0.0000
 30
0.0000
 40
0.0100
 41
0.0100
  0
VERTEX
  8
SPL3W5K_DRD
 10
3.5900
 20
10.6050
 30
0.0000
  0
VERTEX
  8
SPL3W5K_DRD
 10
3.5900
 20
10.5800
 30
0.0000
  0
SEQEND
  0
POLYLINE
  8
SPL3W5K_DRD
 66
1
 10
0.0000
 20
0.0000
 30
0.0000
 40
0.0100
 41
0.0100
  0
VERTEX
  8
SPL3W5K_DRD
 10
3.5400
 20
10.6050
 30
0.0000
  0
VERTEX
  8
SPL3W5K_DRD
 10
3.5900
 20
10.6050
 30
0.0000
  0
SEQEND
  0
POLYLINE
  8
SPL3W5K_DRD
 66
1
 10
0.0000
 20
0.0000
 30
0.0000
 40
0.0100
 41
0.0100
  0
VERTEX
  8
SPL3W5K_DRD
 10
0.1000
 20
0.1450
 30
0.0000
  0
VERTEX
  8
SPL3W5K_DRD
 10
0.1000
 20
0.0950
 30
0.0000
  0
SEQEND
  0
POLYLINE
  8
SPL3W5K_DRD
 66
1
 10
0.0000
 20
0.0000
 30
0.0000
 40
0.0100
 41
0.0100
  0
VERTEX
  8
SPL3W5K_DRD
 10
0.1500
 20
0.1450
 30
0.0000
  0
VERTEX
  8
SPL3W5K_DRD
 10
0.1000
 20
0.1450
 30
0.0000
  0
SEQEND
  0
POLYLINE
  8
SPL3W5K_DRD
 66
1
 10
0.0000
 20
0.0000
 30
0.0000
 40
0.0100
 41
0.0100
  0
VERTEX
  8
SPL3W5K_DRD
 10
0.1500
 20
0.0950
 30
0.0000
  0
VERTEX
  8
SPL3W5K_DRD
 10
0.1500
 20
0.1450
 30
0.0000
  0
SEQEND
  0
POLYLINE
  8
SPL3W5K_DRD
 66
1
 10
0.0000
 20
0.0000
 30
0.0000
 40
0.0100
 41
0.0100
  0
VERTEX
  8
SPL3W5K_DRD
 10
0.1000
 20
0.0950
 30
0.0000
  0
VERTEX
  8
SPL3W5K_DRD
 10
0.1500
 20
0.0950
 30
0.0000
  0
SEQEND
  0
POLYLINE
  8
SPL3W5K_DRD
 66
1
 10
0.0000
 20
0.0000
 30
0.0000
 40
0.0100
 41
0.0100
  0
VERTEX
  8
SPL3W5K_DRD
 10
0.1500
 20
0.1200
 30
0.0000
  0
VERTEX
  8
SPL3W5K_DRD
 10
0.1000
 20
0.1200
 30
0.0000
  0
SEQEND
  0
POLYLINE
  8
SPL3W5K_DRD
 66
1
 10
0.0000
 20
0.0000
 30
0.0000
 40
0.0100
 41
0.0100
  0
VERTEX
  8
SPL3W5K_DRD
 10
0.1250
 20
0.1450
 30
0.0000
  0
VERTEX
  8
SPL3W5K_DRD
 10
0.1250
 20
0.0950
 30
0.0000
  0
SEQEND
  0
POLYLINE
  8
SPL3W5K_DRD
 66
1
 10
0.0000
 20
0.0000
 30
0.0000
 40
0.0100
 41
0.0100
  0
VERTEX
  8
SPL3W5K_DRD
 10
4.3500
 20
0.1450
 30
0.0000
  0
VERTEX
  8
SPL3W5K_DRD
 10
4.3500
 20
0.0950
 30
0.0000
  0
SEQEND
  0
POLYLINE
  8
SPL3W5K_DRD
 66
1
 10
0.0000
 20
0.0000
 30
0.0000
 40
0.0100
 41
0.0100
  0
VERTEX
  8
SPL3W5K_DRD
 10
4.4000
 20
0.1450
 30
0.0000
  0
VERTEX
  8
SPL3W5K_DRD
 10
4.3500
 20
0.1450
 30
0.0000
  0
SEQEND
  0
POLYLINE
  8
SPL3W5K_DRD
 66
1
 10
0.0000
 20
0.0000
 30
0.0000
 40
0.0100
 41
0.0100
  0
VERTEX
  8
SPL3W5K_DRD
 10
4.4000
 20
0.0950
 30
0.0000
  0
VERTEX
  8
SPL3W5K_DRD
 10
4.4000
 20
0.1450
 30
0.0000
  0
SEQEND
  0
POLYLINE
  8
SPL3W5K_DRD
 66
1
 10
0.0000
 20
0.0000
 30
0.0000
 40
0.0100
 41
0.0100
  0
VERTEX
  8
SPL3W5K_DRD
 10
4.3500
 20
0.0950
 30
0.0000
  0
VERTEX
  8
SPL3W5K_DRD
 10
4.4000
 20
0.0950
 30
0.0000
  0
SEQEND
  0
POLYLINE
  8
SPL3W5K_DRD
 66
1
 10
0.0000
 20
0.0000
 30
0.0000
 40
0.0100
 41
0.0100
  0
VERTEX
  8
SPL3W5K_DRD
 10
4.4000
 20
0.1200
 30
0.0000
  0
VERTEX
  8
SPL3W5K_DRD
 10
4.3500
 20
0.1200
 30
0.0000
  0
SEQEND
  0
POLYLINE
  8
SPL3W5K_DRD
 66
1
 10
0.0000
 20
0.0000
 30
0.0000
 40
0.0100
 41
0.0100
  0
VERTEX
  8
SPL3W5K_DRD
 10
4.3750
 20
0.1450
 30
0.0000
  0
VERTEX
  8
SPL3W5K_DRD
 10
4.3750
 20
0.0950
 30
0.0000
  0
SEQEND
  0
POLYLINE
  8
SPL3W5K_DRD
 66
1
 10
0.0000
 20
0.0000
 30
0.0000
 40
0.0100
 41
0.0100
  0
VERTEX
  8
SPL3W5K_DRD
 10
2.4620
 20
0.1500
 30
0.0000
  0
VERTEX
  8
SPL3W5K_DRD
 10
2.4620
 20
0.1000
 30
0.0000
  0
SEQEND
  0
POLYLINE
  8
SPL3W5K_DRD
 66
1
 10
0.0000
 20
0.0000
 30
0.0000
 40
0.0100
 41
0.0100
  0
VERTEX
  8
SPL3W5K_DRD
 10
2.5120
 20
0.1500
 30
0.0000
  0
VERTEX
  8
SPL3W5K_DRD
 10
2.4620
 20
0.1500
 30
0.0000
  0
SEQEND
  0
POLYLINE
  8
SPL3W5K_DRD
 66
1
 10
0.0000
 20
0.0000
 30
0.0000
 40
0.0100
 41
0.0100
  0
VERTEX
  8
SPL3W5K_DRD
 10
2.5120
 20
0.1000
 30
0.0000
  0
VERTEX
  8
SPL3W5K_DRD
 10
2.5120
 20
0.1500
 30
0.0000
  0
SEQEND
  0
POLYLINE
  8
SPL3W5K_DRD
 66
1
 10
0.0000
 20
0.0000
 30
0.0000
 40
0.0100
 41
0.0100
  0
VERTEX
  8
SPL3W5K_DRD
 10
2.4620
 20
0.1000
 30
0.0000
  0
VERTEX
  8
SPL3W5K_DRD
 10
2.5120
 20
0.1000
 30
0.0000
  0
SEQEND
  0
POLYLINE
  8
SPL3W5K_DRD
 66
1
 10
0.0000
 20
0.0000
 30
0.0000
 40
0.0100
 41
0.0100
  0
VERTEX
  8
SPL3W5K_DRD
 10
2.5120
 20
0.1250
 30
0.0000
  0
VERTEX
  8
SPL3W5K_DRD
 10
2.4620
 20
0.1250
 30
0.0000
  0
SEQEND
  0
POLYLINE
  8
SPL3W5K_DRD
 66
1
 10
0.0000
 20
0.0000
 30
0.0000
 40
0.0100
 41
0.0100
  0
VERTEX
  8
SPL3W5K_DRD
 10
2.4870
 20
0.1500
 30
0.0000
  0
VERTEX
  8
SPL3W5K_DRD
 10
2.4870
 20
0.1000
 30
0.0000
  0
SEQEND
  0
POLYLINE
  8
SPL3W5K_DRD
 66
1
 10
0.0000
 20
0.0000
 30
0.0000
 40
0.0100
 41
0.0100
  0
VERTEX
  8
SPL3W5K_DRD
 10
0.1000
 20
6.5900
 30
0.0000
  0
VERTEX
  8
SPL3W5K_DRD
 10
0.1000
 20
6.5400
 30
0.0000
  0
SEQEND
  0
POLYLINE
  8
SPL3W5K_DRD
 66
1
 10
0.0000
 20
0.0000
 30
0.0000
 40
0.0100
 41
0.0100
  0
VERTEX
  8
SPL3W5K_DRD
 10
0.1500
 20
6.5900
 30
0.0000
  0
VERTEX
  8
SPL3W5K_DRD
 10
0.1000
 20
6.5900
 30
0.0000
  0
SEQEND
  0
POLYLINE
  8
SPL3W5K_DRD
 66
1
 10
0.0000
 20
0.0000
 30
0.0000
 40
0.0100
 41
0.0100
  0
VERTEX
  8
SPL3W5K_DRD
 10
0.1500
 20
6.5400
 30
0.0000
  0
VERTEX
  8
SPL3W5K_DRD
 10
0.1500
 20
6.5900
 30
0.0000
  0
SEQEND
  0
POLYLINE
  8
SPL3W5K_DRD
 66
1
 10
0.0000
 20
0.0000
 30
0.0000
 40
0.0100
 41
0.0100
  0
VERTEX
  8
SPL3W5K_DRD
 10
0.1000
 20
6.5400
 30
0.0000
  0
VERTEX
  8
SPL3W5K_DRD
 10
0.1500
 20
6.5400
 30
0.0000
  0
SEQEND
  0
POLYLINE
  8
SPL3W5K_DRD
 66
1
 10
0.0000
 20
0.0000
 30
0.0000
 40
0.0100
 41
0.0100
  0
VERTEX
  8
SPL3W5K_DRD
 10
0.1500
 20
6.5650
 30
0.0000
  0
VERTEX
  8
SPL3W5K_DRD
 10
0.1000
 20
6.5650
 30
0.0000
  0
SEQEND
  0
POLYLINE
  8
SPL3W5K_DRD
 66
1
 10
0.0000
 20
0.0000
 30
0.0000
 40
0.0100
 41
0.0100
  0
VERTEX
  8
SPL3W5K_DRD
 10
0.1250
 20
6.5900
 30
0.0000
  0
VERTEX
  8
SPL3W5K_DRD
 10
0.1250
 20
6.5400
 30
0.0000
  0
SEQEND
  0
POLYLINE
  8
SPL3W5K_DRD
 66
1
 10
0.0000
 20
0.0000
 30
0.0000
 40
0.0100
 41
0.0100
  0
VERTEX
  8
SPL3W5K_DRD
 10
1.6400
 20
8.1850
 30
0.0000
  0
VERTEX
  8
SPL3W5K_DRD
 10
1.6400
 20
8.1350
 30
0.0000
  0
SEQEND
  0
POLYLINE
  8
SPL3W5K_DRD
 66
1
 10
0.0000
 20
0.0000
 30
0.0000
 40
0.0100
 41
0.0100
  0
VERTEX
  8
SPL3W5K_DRD
 10
1.6900
 20
8.1850
 30
0.0000
  0
VERTEX
  8
SPL3W5K_DRD
 10
1.6400
 20
8.1850
 30
0.0000
  0
SEQEND
  0
POLYLINE
  8
SPL3W5K_DRD
 66
1
 10
0.0000
 20
0.0000
 30
0.0000
 40
0.0100
 41
0.0100
  0
VERTEX
  8
SPL3W5K_DRD
 10
1.6900
 20
8.1350
 30
0.0000
  0
VERTEX
  8
SPL3W5K_DRD
 10
1.6900
 20
8.1850
 30
0.0000
  0
SEQEND
  0
POLYLINE
  8
SPL3W5K_DRD
 66
1
 10
0.0000
 20
0.0000
 30
0.0000
 40
0.0100
 41
0.0100
  0
VERTEX
  8
SPL3W5K_DRD
 10
1.6400
 20
8.1350
 30
0.0000
  0
VERTEX
  8
SPL3W5K_DRD
 10
1.6900
 20
8.1350
 30
0.0000
  0
SEQEND
  0
POLYLINE
  8
SPL3W5K_DRD
 66
1
 10
0.0000
 20
0.0000
 30
0.0000
 40
0.0100
 41
0.0100
  0
VERTEX
  8
SPL3W5K_DRD
 10
1.6900
 20
8.1600
 30
0.0000
  0
VERTEX
  8
SPL3W5K_DRD
 10
1.6400
 20
8.1600
 30
0.0000
  0
SEQEND
  0
POLYLINE
  8
SPL3W5K_DRD
 66
1
 10
0.0000
 20
0.0000
 30
0.0000
 40
0.0100
 41
0.0100
  0
VERTEX
  8
SPL3W5K_DRD
 10
1.6650
 20
8.1850
 30
0.0000
  0
VERTEX
  8
SPL3W5K_DRD
 10
1.6650
 20
8.1350
 30
0.0000
  0
SEQEND
  0
POLYLINE
  8
SPL3W5K_DRD
 66
1
 10
0.0000
 20
0.0000
 30
0.0000
 40
0.0100
 41
0.0100
  0
VERTEX
  8
SPL3W5K_DRD
 10
4.8250
 20
14.5000
 30
0.0000
  0
VERTEX
  8
SPL3W5K_DRD
 10
4.8250
 20
14.4500
 30
0.0000
  0
SEQEND
  0
POLYLINE
  8
SPL3W5K_DRD
 66
1
 10
0.0000
 20
0.0000
 30
0.0000
 40
0.0100
 41
0.0100
  0
VERTEX
  8
SPL3W5K_DRD
 10
4.8750
 20
14.5000
 30
0.0000
  0
VERTEX
  8
SPL3W5K_DRD
 10
4.8250
 20
14.5000
 30
0.0000
  0
SEQEND
  0
POLYLINE
  8
SPL3W5K_DRD
 66
1
 10
0.0000
 20
0.0000
 30
0.0000
 40
0.0100
 41
0.0100
  0
VERTEX
  8
SPL3W5K_DRD
 10
4.8750
 20
14.4500
 30
0.0000
  0
VERTEX
  8
SPL3W5K_DRD
 10
4.8750
 20
14.5000
 30
0.0000
  0
SEQEND
  0
POLYLINE
  8
SPL3W5K_DRD
 66
1
 10
0.0000
 20
0.0000
 30
0.0000
 40
0.0100
 41
0.0100
  0
VERTEX
  8
SPL3W5K_DRD
 10
4.8250
 20
14.4500
 30
0.0000
  0
VERTEX
  8
SPL3W5K_DRD
 10
4.8750
 20
14.4500
 30
0.0000
  0
SEQEND
  0
POLYLINE
  8
SPL3W5K_DRD
 66
1
 10
0.0000
 20
0.0000
 30
0.0000
 40
0.0100
 41
0.0100
  0
VERTEX
  8
SPL3W5K_DRD
 10
4.8750
 20
14.4750
 30
0.0000
  0
VERTEX
  8
SPL3W5K_DRD
 10
4.8250
 20
14.4750
 30
0.0000
  0
SEQEND
  0
POLYLINE
  8
SPL3W5K_DRD
 66
1
 10
0.0000
 20
0.0000
 30
0.0000
 40
0.0100
 41
0.0100
  0
VERTEX
  8
SPL3W5K_DRD
 10
4.8500
 20
14.5000
 30
0.0000
  0
VERTEX
  8
SPL3W5K_DRD
 10
4.8500
 20
14.4500
 30
0.0000
  0
SEQEND
  0
POLYLINE
  8
SPL3W5K_DRD
 66
1
 10
0.0000
 20
0.0000
 30
0.0000
 40
0.0100
 41
0.0100
  0
VERTEX
  8
SPL3W5K_DRD
 10
4.8300
 20
8.2250
 30
0.0000
  0
VERTEX
  8
SPL3W5K_DRD
 10
4.8300
 20
8.1750
 30
0.0000
  0
SEQEND
  0
POLYLINE
  8
SPL3W5K_DRD
 66
1
 10
0.0000
 20
0.0000
 30
0.0000
 40
0.0100
 41
0.0100
  0
VERTEX
  8
SPL3W5K_DRD
 10
4.8800
 20
8.2250
 30
0.0000
  0
VERTEX
  8
SPL3W5K_DRD
 10
4.8300
 20
8.2250
 30
0.0000
  0
SEQEND
  0
POLYLINE
  8
SPL3W5K_DRD
 66
1
 10
0.0000
 20
0.0000
 30
0.0000
 40
0.0100
 41
0.0100
  0
VERTEX
  8
SPL3W5K_DRD
 10
4.8800
 20
8.1750
 30
0.0000
  0
VERTEX
  8
SPL3W5K_DRD
 10
4.8800
 20
8.2250
 30
0.0000
  0
SEQEND
  0
POLYLINE
  8
SPL3W5K_DRD
 66
1
 10
0.0000
 20
0.0000
 30
0.0000
 40
0.0100
 41
0.0100
  0
VERTEX
  8
SPL3W5K_DRD
 10
4.8300
 20
8.1750
 30
0.0000
  0
VERTEX
  8
SPL3W5K_DRD
 10
4.8800
 20
8.1750
 30
0.0000
  0
SEQEND
  0
POLYLINE
  8
SPL3W5K_DRD
 66
1
 10
0.0000
 20
0.0000
 30
0.0000
 40
0.0100
 41
0.0100
  0
VERTEX
  8
SPL3W5K_DRD
 10
4.8800
 20
8.2000
 30
0.0000
  0
VERTEX
  8
SPL3W5K_DRD
 10
4.8300
 20
8.2000
 30
0.0000
  0
SEQEND
  0
POLYLINE
  8
SPL3W5K_DRD
 66
1
 10
0.0000
 20
0.0000
 30
0.0000
 40
0.0100
 41
0.0100
  0
VERTEX
  8
SPL3W5K_DRD
 10
4.8550
 20
8.2250
 30
0.0000
  0
VERTEX
  8
SPL3W5K_DRD
 10
4.8550
 20
8.1750
 30
0.0000
  0
SEQEND
  0
POLYLINE
  8
SPL3W5K_DRD
 66
1
 10
0.0000
 20
0.0000
 30
0.0000
 40
0.0100
 41
0.0100
  0
VERTEX
  8
SPL3W5K_DRD
 10
0.1000
 20
13.4750
 30
0.0000
  0
VERTEX
  8
SPL3W5K_DRD
 10
0.1000
 20
13.4250
 30
0.0000
  0
SEQEND
  0
POLYLINE
  8
SPL3W5K_DRD
 66
1
 10
0.0000
 20
0.0000
 30
0.0000
 40
0.0100
 41
0.0100
  0
VERTEX
  8
SPL3W5K_DRD
 10
0.1500
 20
13.4750
 30
0.0000
  0
VERTEX
  8
SPL3W5K_DRD
 10
0.1000
 20
13.4750
 30
0.0000
  0
SEQEND
  0
POLYLINE
  8
SPL3W5K_DRD
 66
1
 10
0.0000
 20
0.0000
 30
0.0000
 40
0.0100
 41
0.0100
  0
VERTEX
  8
SPL3W5K_DRD
 10
0.1500
 20
13.4250
 30
0.0000
  0
VERTEX
  8
SPL3W5K_DRD
 10
0.1500
 20
13.4750
 30
0.0000
  0
SEQEND
  0
POLYLINE
  8
SPL3W5K_DRD
 66
1
 10
0.0000
 20
0.0000
 30
0.0000
 40
0.0100
 41
0.0100
  0
VERTEX
  8
SPL3W5K_DRD
 10
0.1000
 20
13.4250
 30
0.0000
  0
VERTEX
  8
SPL3W5K_DRD
 10
0.1500
 20
13.4250
 30
0.0000
  0
SEQEND
  0
POLYLINE
  8
SPL3W5K_DRD
 66
1
 10
0.0000
 20
0.0000
 30
0.0000
 40
0.0100
 41
0.0100
  0
VERTEX
  8
SPL3W5K_DRD
 10
0.1500
 20
13.4500
 30
0.0000
  0
VERTEX
  8
SPL3W5K_DRD
 10
0.1000
 20
13.4500
 30
0.0000
  0
SEQEND
  0
POLYLINE
  8
SPL3W5K_DRD
 66
1
 10
0.0000
 20
0.0000
 30
0.0000
 40
0.0100
 41
0.0100
  0
VERTEX
  8
SPL3W5K_DRD
 10
0.1250
 20
13.4750
 30
0.0000
  0
VERTEX
  8
SPL3W5K_DRD
 10
0.1250
 20
13.4250
 30
0.0000
  0
SEQEND
  0
POLYLINE
  8
SPL3W5K_DRD
 66
1
 10
0.0000
 20
0.0000
 30
0.0000
 40
0.0100
 41
0.0100
  0
VERTEX
  8
SPL3W5K_DRD
 10
1.6400
 20
10.4350
 30
0.0000
  0
VERTEX
  8
SPL3W5K_DRD
 10
1.6400
 20
10.3850
 30
0.0000
  0
SEQEND
  0
POLYLINE
  8
SPL3W5K_DRD
 66
1
 10
0.0000
 20
0.0000
 30
0.0000
 40
0.0100
 41
0.0100
  0
VERTEX
  8
SPL3W5K_DRD
 10
1.6900
 20
10.4350
 30
0.0000
  0
VERTEX
  8
SPL3W5K_DRD
 10
1.6400
 20
10.4350
 30
0.0000
  0
SEQEND
  0
POLYLINE
  8
SPL3W5K_DRD
 66
1
 10
0.0000
 20
0.0000
 30
0.0000
 40
0.0100
 41
0.0100
  0
VERTEX
  8
SPL3W5K_DRD
 10
1.6900
 20
10.3850
 30
0.0000
  0
VERTEX
  8
SPL3W5K_DRD
 10
1.6900
 20
10.4350
 30
0.0000
  0
SEQEND
  0
POLYLINE
  8
SPL3W5K_DRD
 66
1
 10
0.0000
 20
0.0000
 30
0.0000
 40
0.0100
 41
0.0100
  0
VERTEX
  8
SPL3W5K_DRD
 10
1.6400
 20
10.3850
 30
0.0000
  0
VERTEX
  8
SPL3W5K_DRD
 10
1.6900
 20
10.3850
 30
0.0000
  0
SEQEND
  0
POLYLINE
  8
SPL3W5K_DRD
 66
1
 10
0.0000
 20
0.0000
 30
0.0000
 40
0.0100
 41
0.0100
  0
VERTEX
  8
SPL3W5K_DRD
 10
1.6900
 20
10.4100
 30
0.0000
  0
VERTEX
  8
SPL3W5K_DRD
 10
1.6400
 20
10.4100
 30
0.0000
  0
SEQEND
  0
POLYLINE
  8
SPL3W5K_DRD
 66
1
 10
0.0000
 20
0.0000
 30
0.0000
 40
0.0100
 41
0.0100
  0
VERTEX
  8
SPL3W5K_DRD
 10
1.6650
 20
10.4350
 30
0.0000
  0
VERTEX
  8
SPL3W5K_DRD
 10
1.6650
 20
10.3850
 30
0.0000
  0
SEQEND
  0
POLYLINE
  8
SPL3W5K_DRD
 66
1
 10
0.0000
 20
0.0000
 30
0.0000
 40
0.0100
 41
0.0100
  0
VERTEX
  8
SPL3W5K_DRD
 10
2.0000
 20
6.8550
 30
0.0000
  0
VERTEX
  8
SPL3W5K_DRD
 10
2.0000
 20
6.8050
 30
0.0000
  0
SEQEND
  0
POLYLINE
  8
SPL3W5K_DRD
 66
1
 10
0.0000
 20
0.0000
 30
0.0000
 40
0.0100
 41
0.0100
  0
VERTEX
  8
SPL3W5K_DRD
 10
2.0500
 20
6.8550
 30
0.0000
  0
VERTEX
  8
SPL3W5K_DRD
 10
2.0000
 20
6.8550
 30
0.0000
  0
SEQEND
  0
POLYLINE
  8
SPL3W5K_DRD
 66
1
 10
0.0000
 20
0.0000
 30
0.0000
 40
0.0100
 41
0.0100
  0
VERTEX
  8
SPL3W5K_DRD
 10
2.0500
 20
6.8050
 30
0.0000
  0
VERTEX
  8
SPL3W5K_DRD
 10
2.0500
 20
6.8550
 30
0.0000
  0
SEQEND
  0
POLYLINE
  8
SPL3W5K_DRD
 66
1
 10
0.0000
 20
0.0000
 30
0.0000
 40
0.0100
 41
0.0100
  0
VERTEX
  8
SPL3W5K_DRD
 10
2.0000
 20
6.8050
 30
0.0000
  0
VERTEX
  8
SPL3W5K_DRD
 10
2.0500
 20
6.8050
 30
0.0000
  0
SEQEND
  0
POLYLINE
  8
SPL3W5K_DRD
 66
1
 10
0.0000
 20
0.0000
 30
0.0000
 40
0.0100
 41
0.0100
  0
VERTEX
  8
SPL3W5K_DRD
 10
2.0500
 20
6.8300
 30
0.0000
  0
VERTEX
  8
SPL3W5K_DRD
 10
2.0000
 20
6.8300
 30
0.0000
  0
SEQEND
  0
POLYLINE
  8
SPL3W5K_DRD
 66
1
 10
0.0000
 20
0.0000
 30
0.0000
 40
0.0100
 41
0.0100
  0
VERTEX
  8
SPL3W5K_DRD
 10
2.0250
 20
6.8550
 30
0.0000
  0
VERTEX
  8
SPL3W5K_DRD
 10
2.0250
 20
6.8050
 30
0.0000
  0
SEQEND
  0
POLYLINE
  8
SPL3W5K_SMT
 66
1
 10
0.0000
 20
0.0000
 30
0.0000
 40
0.0100
 41
0.0100
  0
VERTEX
  8
SPL3W5K_SMT
 10
0.2590
 20
4.3690
 30
0.0000
  0
VERTEX
  8
SPL3W5K_SMT
 10
0.2590
 20
4.0500
 30
0.0000
  0
SEQEND
  0
POLYLINE
  8
SPL3W5K_SMT
 66
1
 10
0.0000
 20
0.0000
 30
0.0000
 40
0.0100
 41
0.0100
  0
VERTEX
  8
SPL3W5K_SMT
 10
0.2500
 20
4.3690
 30
0.0000
  0
VERTEX
  8
SPL3W5K_SMT
 10
0.2500
 20
4.0500
 30
0.0000
  0
SEQEND
  0
POLYLINE
  8
SPL3W5K_SMT
 66
1
 10
0.0000
 20
0.0000
 30
0.0000
 40
0.0100
 41
0.0100
  0
VERTEX
  8
SPL3W5K_SMT
 10
0.2410
 20
4.3690
 30
0.0000
  0
VERTEX
  8
SPL3W5K_SMT
 10
0.2410
 20
4.0500
 30
0.0000
  0
SEQEND
  0
POLYLINE
  8
SPL3W5K_SMT
 66
1
 10
0.0000
 20
0.0000
 30
0.0000
 40
0.0100
 41
0.0100
  0
VERTEX
  8
SPL3W5K_SMT
 10
0.2320
 20
4.3690
 30
0.0000
  0
VERTEX
  8
SPL3W5K_SMT
 10
0.2320
 20
4.0500
 30
0.0000
  0
SEQEND
  0
POLYLINE
  8
SPL3W5K_SMT
 66
1
 10
0.0000
 20
0.0000
 30
0.0000
 40
0.0100
 41
0.0100
  0
VERTEX
  8
SPL3W5K_SMT
 10
0.2230
 20
4.3690
 30
0.0000
  0
VERTEX
  8
SPL3W5K_SMT
 10
0.2230
 20
4.0500
 30
0.0000
  0
SEQEND
  0
POLYLINE
  8
SPL3W5K_SMT
 66
1
 10
0.0000
 20
0.0000
 30
0.0000
 40
0.0100
 41
0.0100
  0
VERTEX
  8
SPL3W5K_SMT
 10
0.2140
 20
4.3690
 30
0.0000
  0
VERTEX
  8
SPL3W5K_SMT
 10
0.2140
 20
4.0500
 30
0.0000
  0
SEQEND
  0
POLYLINE
  8
SPL3W5K_SMT
 66
1
 10
0.0000
 20
0.0000
 30
0.0000
 40
0.0100
 41
0.0100
  0
VERTEX
  8
SPL3W5K_SMT
 10
0.2050
 20
4.3690
 30
0.0000
  0
VERTEX
  8
SPL3W5K_SMT
 10
0.2050
 20
4.0500
 30
0.0000
  0
SEQEND
  0
POLYLINE
  8
SPL3W5K_SMT
 66
1
 10
0.0000
 20
0.0000
 30
0.0000
 40
0.0100
 41
0.0100
  0
VERTEX
  8
SPL3W5K_SMT
 10
0.1960
 20
4.3690
 30
0.0000
  0
VERTEX
  8
SPL3W5K_SMT
 10
0.1960
 20
4.0500
 30
0.0000
  0
SEQEND
  0
POLYLINE
  8
SPL3W5K_SMT
 66
1
 10
0.0000
 20
0.0000
 30
0.0000
 40
0.0100
 41
0.0100
  0
VERTEX
  8
SPL3W5K_SMT
 10
0.1870
 20
4.3690
 30
0.0000
  0
VERTEX
  8
SPL3W5K_SMT
 10
0.1870
 20
4.0500
 30
0.0000
  0
SEQEND
  0
POLYLINE
  8
SPL3W5K_SMT
 66
1
 10
0.0000
 20
0.0000
 30
0.0000
 40
0.0100
 41
0.0100
  0
VERTEX
  8
SPL3W5K_SMT
 10
0.1780
 20
4.3690
 30
0.0000
  0
VERTEX
  8
SPL3W5K_SMT
 10
0.1780
 20
4.0500
 30
0.0000
  0
SEQEND
  0
POLYLINE
  8
SPL3W5K_SMT
 66
1
 10
0.0000
 20
0.0000
 30
0.0000
 40
0.0100
 41
0.0100
  0
VERTEX
  8
SPL3W5K_SMT
 10
0.1690
 20
4.3690
 30
0.0000
  0
VERTEX
  8
SPL3W5K_SMT
 10
0.1690
 20
4.0500
 30
0.0000
  0
SEQEND
  0
POLYLINE
  8
SPL3W5K_SMT
 66
1
 10
0.0000
 20
0.0000
 30
0.0000
 40
0.0100
 41
0.0100
  0
VERTEX
  8
SPL3W5K_SMT
 10
0.1600
 20
4.3690
 30
0.0000
  0
VERTEX
  8
SPL3W5K_SMT
 10
0.1600
 20
4.0500
 30
0.0000
  0
SEQEND
  0
POLYLINE
  8
SPL3W5K_SMT
 66
1
 10
0.0000
 20
0.0000
 30
0.0000
 40
0.0100
 41
0.0100
  0
VERTEX
  8
SPL3W5K_SMT
 10
0.1510
 20
4.3690
 30
0.0000
  0
VERTEX
  8
SPL3W5K_SMT
 10
0.1510
 20
4.0500
 30
0.0000
  0
SEQEND
  0
POLYLINE
  8
SPL3W5K_SMT
 66
1
 10
0.0000
 20
0.0000
 30
0.0000
 40
0.0100
 41
0.0100
  0
VERTEX
  8
SPL3W5K_SMT
 10
0.1420
 20
4.3690
 30
0.0000
  0
VERTEX
  8
SPL3W5K_SMT
 10
0.1420
 20
4.0500
 30
0.0000
  0
SEQEND
  0
POLYLINE
  8
SPL3W5K_SMT
 66
1
 10
0.0000
 20
0.0000
 30
0.0000
 40
0.0100
 41
0.0100
  0
VERTEX
  8
SPL3W5K_SMT
 10
0.1330
 20
4.3690
 30
0.0000
  0
VERTEX
  8
SPL3W5K_SMT
 10
0.1330
 20
4.0500
 30
0.0000
  0
SEQEND
  0
POLYLINE
  8
SPL3W5K_SMT
 66
1
 10
0.0000
 20
0.0000
 30
0.0000
 40
0.0100
 41
0.0100
  0
VERTEX
  8
SPL3W5K_SMT
 10
0.1240
 20
4.3690
 30
0.0000
  0
VERTEX
  8
SPL3W5K_SMT
 10
0.1240
 20
4.0500
 30
0.0000
  0
SEQEND
  0
POLYLINE
  8
SPL3W5K_SMT
 66
1
 10
0.0000
 20
0.0000
 30
0.0000
 40
0.0100
 41
0.0100
  0
VERTEX
  8
SPL3W5K_SMT
 10
0.1150
 20
4.3690
 30
0.0000
  0
VERTEX
  8
SPL3W5K_SMT
 10
0.1150
 20
4.0500
 30
0.0000
  0
SEQEND
  0
POLYLINE
  8
SPL3W5K_SMT
 66
1
 10
0.0000
 20
0.0000
 30
0.0000
 40
0.0100
 41
0.0100
  0
VERTEX
  8
SPL3W5K_SMT
 10
0.1060
 20
4.3690
 30
0.0000
  0
VERTEX
  8
SPL3W5K_SMT
 10
0.1060
 20
4.0500
 30
0.0000
  0
SEQEND
  0
POLYLINE
  8
SPL3W5K_SMT
 66
1
 10
0.0000
 20
0.0000
 30
0.0000
 40
0.0100
 41
0.0100
  0
VERTEX
  8
SPL3W5K_SMT
 10
0.0970
 20
4.3690
 30
0.0000
  0
VERTEX
  8
SPL3W5K_SMT
 10
0.0970
 20
4.0500
 30
0.0000
  0
SEQEND
  0
POLYLINE
  8
SPL3W5K_SMT
 66
1
 10
0.0000
 20
0.0000
 30
0.0000
 40
0.0100
 41
0.0100
  0
VERTEX
  8
SPL3W5K_SMT
 10
0.0880
 20
4.3690
 30
0.0000
  0
VERTEX
  8
SPL3W5K_SMT
 10
0.0880
 20
4.0500
 30
0.0000
  0
SEQEND
  0
POLYLINE
  8
SPL3W5K_SMT
 66
1
 10
0.0000
 20
0.0000
 30
0.0000
 40
0.0100
 41
0.0100
  0
VERTEX
  8
SPL3W5K_SMT
 10
0.0790
 20
4.3690
 30
0.0000
  0
VERTEX
  8
SPL3W5K_SMT
 10
0.0790
 20
4.0500
 30
0.0000
  0
SEQEND
  0
POLYLINE
  8
SPL3W5K_SMT
 66
1
 10
0.0000
 20
0.0000
 30
0.0000
 40
0.0100
 41
0.0100
  0
VERTEX
  8
SPL3W5K_SMT
 10
0.0700
 20
4.3690
 30
0.0000
  0
VERTEX
  8
SPL3W5K_SMT
 10
0.0700
 20
4.0500
 30
0.0000
  0
SEQEND
  0
POLYLINE
  8
SPL3W5K_SMT
 66
1
 10
0.0000
 20
0.0000
 30
0.0000
 40
0.0100
 41
0.0100
  0
VERTEX
  8
SPL3W5K_SMT
 10
0.0610
 20
4.3690
 30
0.0000
  0
VERTEX
  8
SPL3W5K_SMT
 10
0.0610
 20
4.0500
 30
0.0000
  0
SEQEND
  0
POLYLINE
  8
SPL3W5K_SMT
 66
1
 10
0.0000
 20
0.0000
 30
0.0000
 40
0.0100
 41
0.0100
  0
VERTEX
  8
SPL3W5K_SMT
 10
0.0520
 20
4.3690
 30
0.0000
  0
VERTEX
  8
SPL3W5K_SMT
 10
0.0520
 20
4.0500
 30
0.0000
  0
SEQEND
  0
POLYLINE
  8
SPL3W5K_SMT
 66
1
 10
0.0000
 20
0.0000
 30
0.0000
 40
0.0100
 41
0.0100
  0
VERTEX
  8
SPL3W5K_SMT
 10
0.0430
 20
4.3690
 30
0.0000
  0
VERTEX
  8
SPL3W5K_SMT
 10
0.0430
 20
4.0500
 30
0.0000
  0
SEQEND
  0
POLYLINE
  8
SPL3W5K_SMT
 66
1
 10
0.0000
 20
0.0000
 30
0.0000
 40
0.0100
 41
0.0100
  0
VERTEX
  8
SPL3W5K_SMT
 10
0.3600
 20
4.0540
 30
0.0000
  0
VERTEX
  8
SPL3W5K_SMT
 10
0.0300
 20
4.0540
 30
0.0000
  0
SEQEND
  0
POLYLINE
  8
SPL3W5K_SMT
 66
1
 10
0.0000
 20
0.0000
 30
0.0000
 40
0.0100
 41
0.0100
  0
VERTEX
  8
SPL3W5K_SMT
 10
0.3600
 20
4.3600
 30
0.0000
  0
VERTEX
  8
SPL3W5K_SMT
 10
0.0300
 20
4.3600
 30
0.0000
  0
SEQEND
  0
POLYLINE
  8
SPL3W5K_SMT
 66
1
 10
0.0000
 20
0.0000
 30
0.0000
 40
0.0100
 41
0.0100
  0
VERTEX
  8
SPL3W5K_SMT
 10
0.3600
 20
4.3510
 30
0.0000
  0
VERTEX
  8
SPL3W5K_SMT
 10
0.0300
 20
4.3510
 30
0.0000
  0
SEQEND
  0
POLYLINE
  8
SPL3W5K_SMT
 66
1
 10
0.0000
 20
0.0000
 30
0.0000
 40
0.0100
 41
0.0100
  0
VERTEX
  8
SPL3W5K_SMT
 10
0.3600
 20
4.3420
 30
0.0000
  0
VERTEX
  8
SPL3W5K_SMT
 10
0.0300
 20
4.3420
 30
0.0000
  0
SEQEND
  0
POLYLINE
  8
SPL3W5K_SMT
 66
1
 10
0.0000
 20
0.0000
 30
0.0000
 40
0.0100
 41
0.0100
  0
VERTEX
  8
SPL3W5K_SMT
 10
0.3600
 20
4.3330
 30
0.0000
  0
VERTEX
  8
SPL3W5K_SMT
 10
0.0300
 20
4.3330
 30
0.0000
  0
SEQEND
  0
POLYLINE
  8
SPL3W5K_SMT
 66
1
 10
0.0000
 20
0.0000
 30
0.0000
 40
0.0100
 41
0.0100
  0
VERTEX
  8
SPL3W5K_SMT
 10
0.3600
 20
4.3240
 30
0.0000
  0
VERTEX
  8
SPL3W5K_SMT
 10
0.0300
 20
4.3240
 30
0.0000
  0
SEQEND
  0
POLYLINE
  8
SPL3W5K_SMT
 66
1
 10
0.0000
 20
0.0000
 30
0.0000
 40
0.0100
 41
0.0100
  0
VERTEX
  8
SPL3W5K_SMT
 10
0.3600
 20
4.3150
 30
0.0000
  0
VERTEX
  8
SPL3W5K_SMT
 10
0.0300
 20
4.3150
 30
0.0000
  0
SEQEND
  0
POLYLINE
  8
SPL3W5K_SMT
 66
1
 10
0.0000
 20
0.0000
 30
0.0000
 40
0.0100
 41
0.0100
  0
VERTEX
  8
SPL3W5K_SMT
 10
0.3600
 20
4.3060
 30
0.0000
  0
VERTEX
  8
SPL3W5K_SMT
 10
0.0300
 20
4.3060
 30
0.0000
  0
SEQEND
  0
POLYLINE
  8
SPL3W5K_SMT
 66
1
 10
0.0000
 20
0.0000
 30
0.0000
 40
0.0100
 41
0.0100
  0
VERTEX
  8
SPL3W5K_SMT
 10
0.3600
 20
4.2970
 30
0.0000
  0
VERTEX
  8
SPL3W5K_SMT
 10
0.0300
 20
4.2970
 30
0.0000
  0
SEQEND
  0
POLYLINE
  8
SPL3W5K_SMT
 66
1
 10
0.0000
 20
0.0000
 30
0.0000
 40
0.0100
 41
0.0100
  0
VERTEX
  8
SPL3W5K_SMT
 10
0.3600
 20
4.2880
 30
0.0000
  0
VERTEX
  8
SPL3W5K_SMT
 10
0.0300
 20
4.2880
 30
0.0000
  0
SEQEND
  0
POLYLINE
  8
SPL3W5K_SMT
 66
1
 10
0.0000
 20
0.0000
 30
0.0000
 40
0.0100
 41
0.0100
  0
VERTEX
  8
SPL3W5K_SMT
 10
0.3600
 20
4.2790
 30
0.0000
  0
VERTEX
  8
SPL3W5K_SMT
 10
0.0300
 20
4.2790
 30
0.0000
  0
SEQEND
  0
POLYLINE
  8
SPL3W5K_SMT
 66
1
 10
0.0000
 20
0.0000
 30
0.0000
 40
0.0100
 41
0.0100
  0
VERTEX
  8
SPL3W5K_SMT
 10
0.3600
 20
4.2700
 30
0.0000
  0
VERTEX
  8
SPL3W5K_SMT
 10
0.0300
 20
4.2700
 30
0.0000
  0
SEQEND
  0
POLYLINE
  8
SPL3W5K_SMT
 66
1
 10
0.0000
 20
0.0000
 30
0.0000
 40
0.0100
 41
0.0100
  0
VERTEX
  8
SPL3W5K_SMT
 10
0.3600
 20
4.2610
 30
0.0000
  0
VERTEX
  8
SPL3W5K_SMT
 10
0.0300
 20
4.2610
 30
0.0000
  0
SEQEND
  0
POLYLINE
  8
SPL3W5K_SMT
 66
1
 10
0.0000
 20
0.0000
 30
0.0000
 40
0.0100
 41
0.0100
  0
VERTEX
  8
SPL3W5K_SMT
 10
0.3600
 20
4.2520
 30
0.0000
  0
VERTEX
  8
SPL3W5K_SMT
 10
0.0300
 20
4.2520
 30
0.0000
  0
SEQEND
  0
POLYLINE
  8
SPL3W5K_SMT
 66
1
 10
0.0000
 20
0.0000
 30
0.0000
 40
0.0100
 41
0.0100
  0
VERTEX
  8
SPL3W5K_SMT
 10
0.3600
 20
4.2430
 30
0.0000
  0
VERTEX
  8
SPL3W5K_SMT
 10
0.0300
 20
4.2430
 30
0.0000
  0
SEQEND
  0
POLYLINE
  8
SPL3W5K_SMT
 66
1
 10
0.0000
 20
0.0000
 30
0.0000
 40
0.0100
 41
0.0100
  0
VERTEX
  8
SPL3W5K_SMT
 10
0.3600
 20
4.2340
 30
0.0000
  0
VERTEX
  8
SPL3W5K_SMT
 10
0.0300
 20
4.2340
 30
0.0000
  0
SEQEND
  0
POLYLINE
  8
SPL3W5K_SMT
 66
1
 10
0.0000
 20
0.0000
 30
0.0000
 40
0.0100
 41
0.0100
  0
VERTEX
  8
SPL3W5K_SMT
 10
0.3600
 20
4.2250
 30
0.0000
  0
VERTEX
  8
SPL3W5K_SMT
 10
0.0300
 20
4.2250
 30
0.0000
  0
SEQEND
  0
POLYLINE
  8
SPL3W5K_SMT
 66
1
 10
0.0000
 20
0.0000
 30
0.0000
 40
0.0100
 41
0.0100
  0
VERTEX
  8
SPL3W5K_SMT
 10
0.3600
 20
4.2160
 30
0.0000
  0
VERTEX
  8
SPL3W5K_SMT
 10
0.0300
 20
4.2160
 30
0.0000
  0
SEQEND
  0
POLYLINE
  8
SPL3W5K_SMT
 66
1
 10
0.0000
 20
0.0000
 30
0.0000
 40
0.0100
 41
0.0100
  0
VERTEX
  8
SPL3W5K_SMT
 10
0.3600
 20
4.2070
 30
0.0000
  0
VERTEX
  8
SPL3W5K_SMT
 10
0.0300
 20
4.2070
 30
0.0000
  0
SEQEND
  0
POLYLINE
  8
SPL3W5K_SMT
 66
1
 10
0.0000
 20
0.0000
 30
0.0000
 40
0.0100
 41
0.0100
  0
VERTEX
  8
SPL3W5K_SMT
 10
0.3600
 20
4.1980
 30
0.0000
  0
VERTEX
  8
SPL3W5K_SMT
 10
0.0300
 20
4.1980
 30
0.0000
  0
SEQEND
  0
POLYLINE
  8
SPL3W5K_SMT
 66
1
 10
0.0000
 20
0.0000
 30
0.0000
 40
0.0100
 41
0.0100
  0
VERTEX
  8
SPL3W5K_SMT
 10
0.3600
 20
4.1890
 30
0.0000
  0
VERTEX
  8
SPL3W5K_SMT
 10
0.0300
 20
4.1890
 30
0.0000
  0
SEQEND
  0
POLYLINE
  8
SPL3W5K_SMT
 66
1
 10
0.0000
 20
0.0000
 30
0.0000
 40
0.0100
 41
0.0100
  0
VERTEX
  8
SPL3W5K_SMT
 10
0.3600
 20
4.1800
 30
0.0000
  0
VERTEX
  8
SPL3W5K_SMT
 10
0.0300
 20
4.1800
 30
0.0000
  0
SEQEND
  0
POLYLINE
  8
SPL3W5K_SMT
 66
1
 10
0.0000
 20
0.0000
 30
0.0000
 40
0.0100
 41
0.0100
  0
VERTEX
  8
SPL3W5K_SMT
 10
0.3600
 20
4.1710
 30
0.0000
  0
VERTEX
  8
SPL3W5K_SMT
 10
0.0300
 20
4.1710
 30
0.0000
  0
SEQEND
  0
POLYLINE
  8
SPL3W5K_SMT
 66
1
 10
0.0000
 20
0.0000
 30
0.0000
 40
0.0100
 41
0.0100
  0
VERTEX
  8
SPL3W5K_SMT
 10
0.3600
 20
4.1620
 30
0.0000
  0
VERTEX
  8
SPL3W5K_SMT
 10
0.0300
 20
4.1620
 30
0.0000
  0
SEQEND
  0
POLYLINE
  8
SPL3W5K_SMT
 66
1
 10
0.0000
 20
0.0000
 30
0.0000
 40
0.0100
 41
0.0100
  0
VERTEX
  8
SPL3W5K_SMT
 10
0.3600
 20
4.1530
 30
0.0000
  0
VERTEX
  8
SPL3W5K_SMT
 10
0.0300
 20
4.1530
 30
0.0000
  0
SEQEND
  0
POLYLINE
  8
SPL3W5K_SMT
 66
1
 10
0.0000
 20
0.0000
 30
0.0000
 40
0.0100
 41
0.0100
  0
VERTEX
  8
SPL3W5K_SMT
 10
0.3600
 20
4.1440
 30
0.0000
  0
VERTEX
  8
SPL3W5K_SMT
 10
0.0300
 20
4.1440
 30
0.0000
  0
SEQEND
  0
POLYLINE
  8
SPL3W5K_SMT
 66
1
 10
0.0000
 20
0.0000
 30
0.0000
 40
0.0100
 41
0.0100
  0
VERTEX
  8
SPL3W5K_SMT
 10
0.3600
 20
4.1350
 30
0.0000
  0
VERTEX
  8
SPL3W5K_SMT
 10
0.0300
 20
4.1350
 30
0.0000
  0
SEQEND
  0
POLYLINE
  8
SPL3W5K_SMT
 66
1
 10
0.0000
 20
0.0000
 30
0.0000
 40
0.0100
 41
0.0100
  0
VERTEX
  8
SPL3W5K_SMT
 10
0.3600
 20
4.1260
 30
0.0000
  0
VERTEX
  8
SPL3W5K_SMT
 10
0.0300
 20
4.1260
 30
0.0000
  0
SEQEND
  0
POLYLINE
  8
SPL3W5K_SMT
 66
1
 10
0.0000
 20
0.0000
 30
0.0000
 40
0.0100
 41
0.0100
  0
VERTEX
  8
SPL3W5K_SMT
 10
0.3600
 20
4.1170
 30
0.0000
  0
VERTEX
  8
SPL3W5K_SMT
 10
0.0300
 20
4.1170
 30
0.0000
  0
SEQEND
  0
POLYLINE
  8
SPL3W5K_SMT
 66
1
 10
0.0000
 20
0.0000
 30
0.0000
 40
0.0100
 41
0.0100
  0
VERTEX
  8
SPL3W5K_SMT
 10
0.3600
 20
4.1080
 30
0.0000
  0
VERTEX
  8
SPL3W5K_SMT
 10
0.0300
 20
4.1080
 30
0.0000
  0
SEQEND
  0
POLYLINE
  8
SPL3W5K_SMT
 66
1
 10
0.0000
 20
0.0000
 30
0.0000
 40
0.0100
 41
0.0100
  0
VERTEX
  8
SPL3W5K_SMT
 10
0.3600
 20
4.0990
 30
0.0000
  0
VERTEX
  8
SPL3W5K_SMT
 10
0.0300
 20
4.0990
 30
0.0000
  0
SEQEND
  0
POLYLINE
  8
SPL3W5K_SMT
 66
1
 10
0.0000
 20
0.0000
 30
0.0000
 40
0.0100
 41
0.0100
  0
VERTEX
  8
SPL3W5K_SMT
 10
0.3600
 20
4.0900
 30
0.0000
  0
VERTEX
  8
SPL3W5K_SMT
 10
0.0300
 20
4.0900
 30
0.0000
  0
SEQEND
  0
POLYLINE
  8
SPL3W5K_SMT
 66
1
 10
0.0000
 20
0.0000
 30
0.0000
 40
0.0100
 41
0.0100
  0
VERTEX
  8
SPL3W5K_SMT
 10
0.3600
 20
4.0810
 30
0.0000
  0
VERTEX
  8
SPL3W5K_SMT
 10
0.0300
 20
4.0810
 30
0.0000
  0
SEQEND
  0
POLYLINE
  8
SPL3W5K_SMT
 66
1
 10
0.0000
 20
0.0000
 30
0.0000
 40
0.0100
 41
0.0100
  0
VERTEX
  8
SPL3W5K_SMT
 10
0.3600
 20
4.0720
 30
0.0000
  0
VERTEX
  8
SPL3W5K_SMT
 10
0.0300
 20
4.0720
 30
0.0000
  0
SEQEND
  0
POLYLINE
  8
SPL3W5K_SMT
 66
1
 10
0.0000
 20
0.0000
 30
0.0000
 40
0.0100
 41
0.0100
  0
VERTEX
  8
SPL3W5K_SMT
 10
0.3600
 20
4.0630
 30
0.0000
  0
VERTEX
  8
SPL3W5K_SMT
 10
0.0300
 20
4.0630
 30
0.0000
  0
SEQEND
  0
POLYLINE
  8
SPL3W5K_SMT
 66
1
 10
0.0000
 20
0.0000
 30
0.0000
 40
0.0100
 41
0.0100
  0
VERTEX
  8
SPL3W5K_SMT
 10
0.0340
 20
4.3690
 30
0.0000
  0
VERTEX
  8
SPL3W5K_SMT
 10
0.0340
 20
4.0500
 30
0.0000
  0
SEQEND
  0
POLYLINE
  8
SPL3W5K_SMT
 66
1
 10
0.0000
 20
0.0000
 30
0.0000
 40
0.0100
 41
0.0100
  0
VERTEX
  8
SPL3W5K_SMT
 10
0.0300
 20
4.3690
 30
0.0000
  0
VERTEX
  8
SPL3W5K_SMT
 10
0.0300
 20
4.0500
 30
0.0000
  0
SEQEND
  0
POLYLINE
  8
SPL3W5K_SMT
 66
1
 10
0.0000
 20
0.0000
 30
0.0000
 40
0.0100
 41
0.0100
  0
VERTEX
  8
SPL3W5K_SMT
 10
0.3600
 20
4.0500
 30
0.0000
  0
VERTEX
  8
SPL3W5K_SMT
 10
0.0300
 20
4.0500
 30
0.0000
  0
SEQEND
  0
POLYLINE
  8
SPL3W5K_SMT
 66
1
 10
0.0000
 20
0.0000
 30
0.0000
 40
0.0100
 41
0.0100
  0
VERTEX
  8
SPL3W5K_SMT
 10
0.3600
 20
4.3690
 30
0.0000
  0
VERTEX
  8
SPL3W5K_SMT
 10
0.3600
 20
4.0500
 30
0.0000
  0
SEQEND
  0
POLYLINE
  8
SPL3W5K_SMT
 66
1
 10
0.0000
 20
0.0000
 30
0.0000
 40
0.0100
 41
0.0100
  0
VERTEX
  8
SPL3W5K_SMT
 10
0.3600
 20
4.3690
 30
0.0000
  0
VERTEX
  8
SPL3W5K_SMT
 10
0.0300
 20
4.3690
 30
0.0000
  0
SEQEND
  0
POLYLINE
  8
SPL3W5K_SMT
 66
1
 10
0.0000
 20
0.0000
 30
0.0000
 40
0.0100
 41
0.0100
  0
VERTEX
  8
SPL3W5K_SMT
 10
0.3580
 20
4.3690
 30
0.0000
  0
VERTEX
  8
SPL3W5K_SMT
 10
0.3580
 20
4.0500
 30
0.0000
  0
SEQEND
  0
POLYLINE
  8
SPL3W5K_SMT
 66
1
 10
0.0000
 20
0.0000
 30
0.0000
 40
0.0100
 41
0.0100
  0
VERTEX
  8
SPL3W5K_SMT
 10
0.3490
 20
4.3690
 30
0.0000
  0
VERTEX
  8
SPL3W5K_SMT
 10
0.3490
 20
4.0500
 30
0.0000
  0
SEQEND
  0
POLYLINE
  8
SPL3W5K_SMT
 66
1
 10
0.0000
 20
0.0000
 30
0.0000
 40
0.0100
 41
0.0100
  0
VERTEX
  8
SPL3W5K_SMT
 10
0.3400
 20
4.3690
 30
0.0000
  0
VERTEX
  8
SPL3W5K_SMT
 10
0.3400
 20
4.0500
 30
0.0000
  0
SEQEND
  0
POLYLINE
  8
SPL3W5K_SMT
 66
1
 10
0.0000
 20
0.0000
 30
0.0000
 40
0.0100
 41
0.0100
  0
VERTEX
  8
SPL3W5K_SMT
 10
0.3310
 20
4.3690
 30
0.0000
  0
VERTEX
  8
SPL3W5K_SMT
 10
0.3310
 20
4.0500
 30
0.0000
  0
SEQEND
  0
POLYLINE
  8
SPL3W5K_SMT
 66
1
 10
0.0000
 20
0.0000
 30
0.0000
 40
0.0100
 41
0.0100
  0
VERTEX
  8
SPL3W5K_SMT
 10
0.3220
 20
4.3690
 30
0.0000
  0
VERTEX
  8
SPL3W5K_SMT
 10
0.3220
 20
4.0500
 30
0.0000
  0
SEQEND
  0
POLYLINE
  8
SPL3W5K_SMT
 66
1
 10
0.0000
 20
0.0000
 30
0.0000
 40
0.0100
 41
0.0100
  0
VERTEX
  8
SPL3W5K_SMT
 10
0.3130
 20
4.3690
 30
0.0000
  0
VERTEX
  8
SPL3W5K_SMT
 10
0.3130
 20
4.0500
 30
0.0000
  0
SEQEND
  0
POLYLINE
  8
SPL3W5K_SMT
 66
1
 10
0.0000
 20
0.0000
 30
0.0000
 40
0.0100
 41
0.0100
  0
VERTEX
  8
SPL3W5K_SMT
 10
0.3040
 20
4.3690
 30
0.0000
  0
VERTEX
  8
SPL3W5K_SMT
 10
0.3040
 20
4.0500
 30
0.0000
  0
SEQEND
  0
POLYLINE
  8
SPL3W5K_SMT
 66
1
 10
0.0000
 20
0.0000
 30
0.0000
 40
0.0100
 41
0.0100
  0
VERTEX
  8
SPL3W5K_SMT
 10
0.2950
 20
4.3690
 30
0.0000
  0
VERTEX
  8
SPL3W5K_SMT
 10
0.2950
 20
4.0500
 30
0.0000
  0
SEQEND
  0
POLYLINE
  8
SPL3W5K_SMT
 66
1
 10
0.0000
 20
0.0000
 30
0.0000
 40
0.0100
 41
0.0100
  0
VERTEX
  8
SPL3W5K_SMT
 10
0.2860
 20
4.3690
 30
0.0000
  0
VERTEX
  8
SPL3W5K_SMT
 10
0.2860
 20
4.0500
 30
0.0000
  0
SEQEND
  0
POLYLINE
  8
SPL3W5K_SMT
 66
1
 10
0.0000
 20
0.0000
 30
0.0000
 40
0.0100
 41
0.0100
  0
VERTEX
  8
SPL3W5K_SMT
 10
0.2770
 20
4.3690
 30
0.0000
  0
VERTEX
  8
SPL3W5K_SMT
 10
0.2770
 20
4.0500
 30
0.0000
  0
SEQEND
  0
POLYLINE
  8
SPL3W5K_SMT
 66
1
 10
0.0000
 20
0.0000
 30
0.0000
 40
0.0100
 41
0.0100
  0
VERTEX
  8
SPL3W5K_SMT
 10
0.2680
 20
4.3690
 30
0.0000
  0
VERTEX
  8
SPL3W5K_SMT
 10
0.2680
 20
4.0500
 30
0.0000
  0
SEQEND
  0
POLYLINE
  8
SPL3W5K_SMT
 66
1
 10
0.0000
 20
0.0000
 30
0.0000
 40
0.0100
 41
0.0100
  0
VERTEX
  8
SPL3W5K_SMT
 10
0.2450
 20
9.4450
 30
0.0000
  0
VERTEX
  8
SPL3W5K_SMT
 10
0.2450
 20
9.1340
 30
0.0000
  0
SEQEND
  0
POLYLINE
  8
SPL3W5K_SMT
 66
1
 10
0.0000
 20
0.0000
 30
0.0000
 40
0.0100
 41
0.0100
  0
VERTEX
  8
SPL3W5K_SMT
 10
0.2360
 20
9.4450
 30
0.0000
  0
VERTEX
  8
SPL3W5K_SMT
 10
0.2360
 20
9.1340
 30
0.0000
  0
SEQEND
  0
POLYLINE
  8
SPL3W5K_SMT
 66
1
 10
0.0000
 20
0.0000
 30
0.0000
 40
0.0100
 41
0.0100
  0
VERTEX
  8
SPL3W5K_SMT
 10
0.2270
 20
9.4450
 30
0.0000
  0
VERTEX
  8
SPL3W5K_SMT
 10
0.2270
 20
9.1340
 30
0.0000
  0
SEQEND
  0
POLYLINE
  8
SPL3W5K_SMT
 66
1
 10
0.0000
 20
0.0000
 30
0.0000
 40
0.0100
 41
0.0100
  0
VERTEX
  8
SPL3W5K_SMT
 10
0.2180
 20
9.4450
 30
0.0000
  0
VERTEX
  8
SPL3W5K_SMT
 10
0.2180
 20
9.1340
 30
0.0000
  0
SEQEND
  0
POLYLINE
  8
SPL3W5K_SMT
 66
1
 10
0.0000
 20
0.0000
 30
0.0000
 40
0.0100
 41
0.0100
  0
VERTEX
  8
SPL3W5K_SMT
 10
0.2090
 20
9.4450
 30
0.0000
  0
VERTEX
  8
SPL3W5K_SMT
 10
0.2090
 20
9.1340
 30
0.0000
  0
SEQEND
  0
POLYLINE
  8
SPL3W5K_SMT
 66
1
 10
0.0000
 20
0.0000
 30
0.0000
 40
0.0100
 41
0.0100
  0
VERTEX
  8
SPL3W5K_SMT
 10
0.2000
 20
9.4450
 30
0.0000
  0
VERTEX
  8
SPL3W5K_SMT
 10
0.2000
 20
9.1340
 30
0.0000
  0
SEQEND
  0
POLYLINE
  8
SPL3W5K_SMT
 66
1
 10
0.0000
 20
0.0000
 30
0.0000
 40
0.0100
 41
0.0100
  0
VERTEX
  8
SPL3W5K_SMT
 10
0.1910
 20
9.4450
 30
0.0000
  0
VERTEX
  8
SPL3W5K_SMT
 10
0.1910
 20
9.1340
 30
0.0000
  0
SEQEND
  0
POLYLINE
  8
SPL3W5K_SMT
 66
1
 10
0.0000
 20
0.0000
 30
0.0000
 40
0.0100
 41
0.0100
  0
VERTEX
  8
SPL3W5K_SMT
 10
0.1820
 20
9.4450
 30
0.0000
  0
VERTEX
  8
SPL3W5K_SMT
 10
0.1820
 20
9.1340
 30
0.0000
  0
SEQEND
  0
POLYLINE
  8
SPL3W5K_SMT
 66
1
 10
0.0000
 20
0.0000
 30
0.0000
 40
0.0100
 41
0.0100
  0
VERTEX
  8
SPL3W5K_SMT
 10
0.1730
 20
9.4450
 30
0.0000
  0
VERTEX
  8
SPL3W5K_SMT
 10
0.1730
 20
9.1340
 30
0.0000
  0
SEQEND
  0
POLYLINE
  8
SPL3W5K_SMT
 66
1
 10
0.0000
 20
0.0000
 30
0.0000
 40
0.0100
 41
0.0100
  0
VERTEX
  8
SPL3W5K_SMT
 10
0.1640
 20
9.4450
 30
0.0000
  0
VERTEX
  8
SPL3W5K_SMT
 10
0.1640
 20
9.1340
 30
0.0000
  0
SEQEND
  0
POLYLINE
  8
SPL3W5K_SMT
 66
1
 10
0.0000
 20
0.0000
 30
0.0000
 40
0.0100
 41
0.0100
  0
VERTEX
  8
SPL3W5K_SMT
 10
0.1550
 20
9.4450
 30
0.0000
  0
VERTEX
  8
SPL3W5K_SMT
 10
0.1550
 20
9.1340
 30
0.0000
  0
SEQEND
  0
POLYLINE
  8
SPL3W5K_SMT
 66
1
 10
0.0000
 20
0.0000
 30
0.0000
 40
0.0100
 41
0.0100
  0
VERTEX
  8
SPL3W5K_SMT
 10
0.1460
 20
9.4450
 30
0.0000
  0
VERTEX
  8
SPL3W5K_SMT
 10
0.1460
 20
9.1340
 30
0.0000
  0
SEQEND
  0
POLYLINE
  8
SPL3W5K_SMT
 66
1
 10
0.0000
 20
0.0000
 30
0.0000
 40
0.0100
 41
0.0100
  0
VERTEX
  8
SPL3W5K_SMT
 10
0.1370
 20
9.4450
 30
0.0000
  0
VERTEX
  8
SPL3W5K_SMT
 10
0.1370
 20
9.1340
 30
0.0000
  0
SEQEND
  0
POLYLINE
  8
SPL3W5K_SMT
 66
1
 10
0.0000
 20
0.0000
 30
0.0000
 40
0.0100
 41
0.0100
  0
VERTEX
  8
SPL3W5K_SMT
 10
0.1280
 20
9.4450
 30
0.0000
  0
VERTEX
  8
SPL3W5K_SMT
 10
0.1280
 20
9.1340
 30
0.0000
  0
SEQEND
  0
POLYLINE
  8
SPL3W5K_SMT
 66
1
 10
0.0000
 20
0.0000
 30
0.0000
 40
0.0100
 41
0.0100
  0
VERTEX
  8
SPL3W5K_SMT
 10
0.1190
 20
9.4450
 30
0.0000
  0
VERTEX
  8
SPL3W5K_SMT
 10
0.1190
 20
9.1340
 30
0.0000
  0
SEQEND
  0
POLYLINE
  8
SPL3W5K_SMT
 66
1
 10
0.0000
 20
0.0000
 30
0.0000
 40
0.0100
 41
0.0100
  0
VERTEX
  8
SPL3W5K_SMT
 10
0.1100
 20
9.4450
 30
0.0000
  0
VERTEX
  8
SPL3W5K_SMT
 10
0.1100
 20
9.1340
 30
0.0000
  0
SEQEND
  0
POLYLINE
  8
SPL3W5K_SMT
 66
1
 10
0.0000
 20
0.0000
 30
0.0000
 40
0.0100
 41
0.0100
  0
VERTEX
  8
SPL3W5K_SMT
 10
0.1010
 20
9.4450
 30
0.0000
  0
VERTEX
  8
SPL3W5K_SMT
 10
0.1010
 20
9.1340
 30
0.0000
  0
SEQEND
  0
POLYLINE
  8
SPL3W5K_SMT
 66
1
 10
0.0000
 20
0.0000
 30
0.0000
 40
0.0100
 41
0.0100
  0
VERTEX
  8
SPL3W5K_SMT
 10
0.0920
 20
9.4450
 30
0.0000
  0
VERTEX
  8
SPL3W5K_SMT
 10
0.0920
 20
9.1340
 30
0.0000
  0
SEQEND
  0
POLYLINE
  8
SPL3W5K_SMT
 66
1
 10
0.0000
 20
0.0000
 30
0.0000
 40
0.0100
 41
0.0100
  0
VERTEX
  8
SPL3W5K_SMT
 10
0.0830
 20
9.4450
 30
0.0000
  0
VERTEX
  8
SPL3W5K_SMT
 10
0.0830
 20
9.1340
 30
0.0000
  0
SEQEND
  0
POLYLINE
  8
SPL3W5K_SMT
 66
1
 10
0.0000
 20
0.0000
 30
0.0000
 40
0.0100
 41
0.0100
  0
VERTEX
  8
SPL3W5K_SMT
 10
0.0740
 20
9.4450
 30
0.0000
  0
VERTEX
  8
SPL3W5K_SMT
 10
0.0740
 20
9.1340
 30
0.0000
  0
SEQEND
  0
POLYLINE
  8
SPL3W5K_SMT
 66
1
 10
0.0000
 20
0.0000
 30
0.0000
 40
0.0100
 41
0.0100
  0
VERTEX
  8
SPL3W5K_SMT
 10
0.0650
 20
9.4450
 30
0.0000
  0
VERTEX
  8
SPL3W5K_SMT
 10
0.0650
 20
9.1340
 30
0.0000
  0
SEQEND
  0
POLYLINE
  8
SPL3W5K_SMT
 66
1
 10
0.0000
 20
0.0000
 30
0.0000
 40
0.0100
 41
0.0100
  0
VERTEX
  8
SPL3W5K_SMT
 10
0.0560
 20
9.4450
 30
0.0000
  0
VERTEX
  8
SPL3W5K_SMT
 10
0.0560
 20
9.1340
 30
0.0000
  0
SEQEND
  0
POLYLINE
  8
SPL3W5K_SMT
 66
1
 10
0.0000
 20
0.0000
 30
0.0000
 40
0.0100
 41
0.0100
  0
VERTEX
  8
SPL3W5K_SMT
 10
0.0470
 20
9.4450
 30
0.0000
  0
VERTEX
  8
SPL3W5K_SMT
 10
0.0470
 20
9.1340
 30
0.0000
  0
SEQEND
  0
POLYLINE
  8
SPL3W5K_SMT
 66
1
 10
0.0000
 20
0.0000
 30
0.0000
 40
0.0100
 41
0.0100
  0
VERTEX
  8
SPL3W5K_SMT
 10
0.0380
 20
9.4450
 30
0.0000
  0
VERTEX
  8
SPL3W5K_SMT
 10
0.0380
 20
9.1340
 30
0.0000
  0
SEQEND
  0
POLYLINE
  8
SPL3W5K_SMT
 66
1
 10
0.0000
 20
0.0000
 30
0.0000
 40
0.0100
 41
0.0100
  0
VERTEX
  8
SPL3W5K_SMT
 10
0.0290
 20
9.4450
 30
0.0000
  0
VERTEX
  8
SPL3W5K_SMT
 10
0.0290
 20
9.1340
 30
0.0000
  0
SEQEND
  0
POLYLINE
  8
SPL3W5K_SMT
 66
1
 10
0.0000
 20
0.0000
 30
0.0000
 40
0.0100
 41
0.0100
  0
VERTEX
  8
SPL3W5K_SMT
 10
0.3550
 20
9.4440
 30
0.0000
  0
VERTEX
  8
SPL3W5K_SMT
 10
0.0250
 20
9.4440
 30
0.0000
  0
SEQEND
  0
POLYLINE
  8
SPL3W5K_SMT
 66
1
 10
0.0000
 20
0.0000
 30
0.0000
 40
0.0100
 41
0.0100
  0
VERTEX
  8
SPL3W5K_SMT
 10
0.3550
 20
9.4350
 30
0.0000
  0
VERTEX
  8
SPL3W5K_SMT
 10
0.0250
 20
9.4350
 30
0.0000
  0
SEQEND
  0
POLYLINE
  8
SPL3W5K_SMT
 66
1
 10
0.0000
 20
0.0000
 30
0.0000
 40
0.0100
 41
0.0100
  0
VERTEX
  8
SPL3W5K_SMT
 10
0.3550
 20
9.4260
 30
0.0000
  0
VERTEX
  8
SPL3W5K_SMT
 10
0.0250
 20
9.4260
 30
0.0000
  0
SEQEND
  0
POLYLINE
  8
SPL3W5K_SMT
 66
1
 10
0.0000
 20
0.0000
 30
0.0000
 40
0.0100
 41
0.0100
  0
VERTEX
  8
SPL3W5K_SMT
 10
0.3550
 20
9.4170
 30
0.0000
  0
VERTEX
  8
SPL3W5K_SMT
 10
0.0250
 20
9.4170
 30
0.0000
  0
SEQEND
  0
POLYLINE
  8
SPL3W5K_SMT
 66
1
 10
0.0000
 20
0.0000
 30
0.0000
 40
0.0100
 41
0.0100
  0
VERTEX
  8
SPL3W5K_SMT
 10
0.3550
 20
9.4080
 30
0.0000
  0
VERTEX
  8
SPL3W5K_SMT
 10
0.0250
 20
9.4080
 30
0.0000
  0
SEQEND
  0
POLYLINE
  8
SPL3W5K_SMT
 66
1
 10
0.0000
 20
0.0000
 30
0.0000
 40
0.0100
 41
0.0100
  0
VERTEX
  8
SPL3W5K_SMT
 10
0.3550
 20
9.3990
 30
0.0000
  0
VERTEX
  8
SPL3W5K_SMT
 10
0.0250
 20
9.3990
 30
0.0000
  0
SEQEND
  0
POLYLINE
  8
SPL3W5K_SMT
 66
1
 10
0.0000
 20
0.0000
 30
0.0000
 40
0.0100
 41
0.0100
  0
VERTEX
  8
SPL3W5K_SMT
 10
0.3550
 20
9.3900
 30
0.0000
  0
VERTEX
  8
SPL3W5K_SMT
 10
0.0250
 20
9.3900
 30
0.0000
  0
SEQEND
  0
POLYLINE
  8
SPL3W5K_SMT
 66
1
 10
0.0000
 20
0.0000
 30
0.0000
 40
0.0100
 41
0.0100
  0
VERTEX
  8
SPL3W5K_SMT
 10
0.3550
 20
9.3810
 30
0.0000
  0
VERTEX
  8
SPL3W5K_SMT
 10
0.0250
 20
9.3810
 30
0.0000
  0
SEQEND
  0
POLYLINE
  8
SPL3W5K_SMT
 66
1
 10
0.0000
 20
0.0000
 30
0.0000
 40
0.0100
 41
0.0100
  0
VERTEX
  8
SPL3W5K_SMT
 10
0.3550
 20
9.3720
 30
0.0000
  0
VERTEX
  8
SPL3W5K_SMT
 10
0.0250
 20
9.3720
 30
0.0000
  0
SEQEND
  0
POLYLINE
  8
SPL3W5K_SMT
 66
1
 10
0.0000
 20
0.0000
 30
0.0000
 40
0.0100
 41
0.0100
  0
VERTEX
  8
SPL3W5K_SMT
 10
0.3550
 20
9.3630
 30
0.0000
  0
VERTEX
  8
SPL3W5K_SMT
 10
0.0250
 20
9.3630
 30
0.0000
  0
SEQEND
  0
POLYLINE
  8
SPL3W5K_SMT
 66
1
 10
0.0000
 20
0.0000
 30
0.0000
 40
0.0100
 41
0.0100
  0
VERTEX
  8
SPL3W5K_SMT
 10
0.3550
 20
9.3540
 30
0.0000
  0
VERTEX
  8
SPL3W5K_SMT
 10
0.0250
 20
9.3540
 30
0.0000
  0
SEQEND
  0
POLYLINE
  8
SPL3W5K_SMT
 66
1
 10
0.0000
 20
0.0000
 30
0.0000
 40
0.0100
 41
0.0100
  0
VERTEX
  8
SPL3W5K_SMT
 10
0.3550
 20
9.3450
 30
0.0000
  0
VERTEX
  8
SPL3W5K_SMT
 10
0.0250
 20
9.3450
 30
0.0000
  0
SEQEND
  0
POLYLINE
  8
SPL3W5K_SMT
 66
1
 10
0.0000
 20
0.0000
 30
0.0000
 40
0.0100
 41
0.0100
  0
VERTEX
  8
SPL3W5K_SMT
 10
0.3550
 20
9.3360
 30
0.0000
  0
VERTEX
  8
SPL3W5K_SMT
 10
0.0250
 20
9.3360
 30
0.0000
  0
SEQEND
  0
POLYLINE
  8
SPL3W5K_SMT
 66
1
 10
0.0000
 20
0.0000
 30
0.0000
 40
0.0100
 41
0.0100
  0
VERTEX
  8
SPL3W5K_SMT
 10
0.3550
 20
9.3270
 30
0.0000
  0
VERTEX
  8
SPL3W5K_SMT
 10
0.0250
 20
9.3270
 30
0.0000
  0
SEQEND
  0
POLYLINE
  8
SPL3W5K_SMT
 66
1
 10
0.0000
 20
0.0000
 30
0.0000
 40
0.0100
 41
0.0100
  0
VERTEX
  8
SPL3W5K_SMT
 10
0.3550
 20
9.3180
 30
0.0000
  0
VERTEX
  8
SPL3W5K_SMT
 10
0.0250
 20
9.3180
 30
0.0000
  0
SEQEND
  0
POLYLINE
  8
SPL3W5K_SMT
 66
1
 10
0.0000
 20
0.0000
 30
0.0000
 40
0.0100
 41
0.0100
  0
VERTEX
  8
SPL3W5K_SMT
 10
0.3550
 20
9.3090
 30
0.0000
  0
VERTEX
  8
SPL3W5K_SMT
 10
0.0250
 20
9.3090
 30
0.0000
  0
SEQEND
  0
POLYLINE
  8
SPL3W5K_SMT
 66
1
 10
0.0000
 20
0.0000
 30
0.0000
 40
0.0100
 41
0.0100
  0
VERTEX
  8
SPL3W5K_SMT
 10
0.3550
 20
9.3000
 30
0.0000
  0
VERTEX
  8
SPL3W5K_SMT
 10
0.0250
 20
9.3000
 30
0.0000
  0
SEQEND
  0
POLYLINE
  8
SPL3W5K_SMT
 66
1
 10
0.0000
 20
0.0000
 30
0.0000
 40
0.0100
 41
0.0100
  0
VERTEX
  8
SPL3W5K_SMT
 10
0.3550
 20
9.2910
 30
0.0000
  0
VERTEX
  8
SPL3W5K_SMT
 10
0.0250
 20
9.2910
 30
0.0000
  0
SEQEND
  0
POLYLINE
  8
SPL3W5K_SMT
 66
1
 10
0.0000
 20
0.0000
 30
0.0000
 40
0.0100
 41
0.0100
  0
VERTEX
  8
SPL3W5K_SMT
 10
0.3550
 20
9.2820
 30
0.0000
  0
VERTEX
  8
SPL3W5K_SMT
 10
0.0250
 20
9.2820
 30
0.0000
  0
SEQEND
  0
POLYLINE
  8
SPL3W5K_SMT
 66
1
 10
0.0000
 20
0.0000
 30
0.0000
 40
0.0100
 41
0.0100
  0
VERTEX
  8
SPL3W5K_SMT
 10
0.3550
 20
9.2730
 30
0.0000
  0
VERTEX
  8
SPL3W5K_SMT
 10
0.0250
 20
9.2730
 30
0.0000
  0
SEQEND
  0
POLYLINE
  8
SPL3W5K_SMT
 66
1
 10
0.0000
 20
0.0000
 30
0.0000
 40
0.0100
 41
0.0100
  0
VERTEX
  8
SPL3W5K_SMT
 10
0.3550
 20
9.2640
 30
0.0000
  0
VERTEX
  8
SPL3W5K_SMT
 10
0.0250
 20
9.2640
 30
0.0000
  0
SEQEND
  0
POLYLINE
  8
SPL3W5K_SMT
 66
1
 10
0.0000
 20
0.0000
 30
0.0000
 40
0.0100
 41
0.0100
  0
VERTEX
  8
SPL3W5K_SMT
 10
0.3550
 20
9.2550
 30
0.0000
  0
VERTEX
  8
SPL3W5K_SMT
 10
0.0250
 20
9.2550
 30
0.0000
  0
SEQEND
  0
POLYLINE
  8
SPL3W5K_SMT
 66
1
 10
0.0000
 20
0.0000
 30
0.0000
 40
0.0100
 41
0.0100
  0
VERTEX
  8
SPL3W5K_SMT
 10
0.3550
 20
9.2460
 30
0.0000
  0
VERTEX
  8
SPL3W5K_SMT
 10
0.0250
 20
9.2460
 30
0.0000
  0
SEQEND
  0
POLYLINE
  8
SPL3W5K_SMT
 66
1
 10
0.0000
 20
0.0000
 30
0.0000
 40
0.0100
 41
0.0100
  0
VERTEX
  8
SPL3W5K_SMT
 10
0.3550
 20
9.2370
 30
0.0000
  0
VERTEX
  8
SPL3W5K_SMT
 10
0.0250
 20
9.2370
 30
0.0000
  0
SEQEND
  0
POLYLINE
  8
SPL3W5K_SMT
 66
1
 10
0.0000
 20
0.0000
 30
0.0000
 40
0.0100
 41
0.0100
  0
VERTEX
  8
SPL3W5K_SMT
 10
0.3550
 20
9.2280
 30
0.0000
  0
VERTEX
  8
SPL3W5K_SMT
 10
0.0250
 20
9.2280
 30
0.0000
  0
SEQEND
  0
POLYLINE
  8
SPL3W5K_SMT
 66
1
 10
0.0000
 20
0.0000
 30
0.0000
 40
0.0100
 41
0.0100
  0
VERTEX
  8
SPL3W5K_SMT
 10
0.3550
 20
9.2190
 30
0.0000
  0
VERTEX
  8
SPL3W5K_SMT
 10
0.0250
 20
9.2190
 30
0.0000
  0
SEQEND
  0
POLYLINE
  8
SPL3W5K_SMT
 66
1
 10
0.0000
 20
0.0000
 30
0.0000
 40
0.0100
 41
0.0100
  0
VERTEX
  8
SPL3W5K_SMT
 10
0.3550
 20
9.2100
 30
0.0000
  0
VERTEX
  8
SPL3W5K_SMT
 10
0.0250
 20
9.2100
 30
0.0000
  0
SEQEND
  0
POLYLINE
  8
SPL3W5K_SMT
 66
1
 10
0.0000
 20
0.0000
 30
0.0000
 40
0.0100
 41
0.0100
  0
VERTEX
  8
SPL3W5K_SMT
 10
0.3550
 20
9.2010
 30
0.0000
  0
VERTEX
  8
SPL3W5K_SMT
 10
0.0250
 20
9.2010
 30
0.0000
  0
SEQEND
  0
POLYLINE
  8
SPL3W5K_SMT
 66
1
 10
0.0000
 20
0.0000
 30
0.0000
 40
0.0100
 41
0.0100
  0
VERTEX
  8
SPL3W5K_SMT
 10
0.3550
 20
9.1920
 30
0.0000
  0
VERTEX
  8
SPL3W5K_SMT
 10
0.0250
 20
9.1920
 30
0.0000
  0
SEQEND
  0
POLYLINE
  8
SPL3W5K_SMT
 66
1
 10
0.0000
 20
0.0000
 30
0.0000
 40
0.0100
 41
0.0100
  0
VERTEX
  8
SPL3W5K_SMT
 10
0.3550
 20
9.1830
 30
0.0000
  0
VERTEX
  8
SPL3W5K_SMT
 10
0.0250
 20
9.1830
 30
0.0000
  0
SEQEND
  0
POLYLINE
  8
SPL3W5K_SMT
 66
1
 10
0.0000
 20
0.0000
 30
0.0000
 40
0.0100
 41
0.0100
  0
VERTEX
  8
SPL3W5K_SMT
 10
0.3550
 20
9.1740
 30
0.0000
  0
VERTEX
  8
SPL3W5K_SMT
 10
0.0250
 20
9.1740
 30
0.0000
  0
SEQEND
  0
POLYLINE
  8
SPL3W5K_SMT
 66
1
 10
0.0000
 20
0.0000
 30
0.0000
 40
0.0100
 41
0.0100
  0
VERTEX
  8
SPL3W5K_SMT
 10
0.3550
 20
9.1650
 30
0.0000
  0
VERTEX
  8
SPL3W5K_SMT
 10
0.0250
 20
9.1650
 30
0.0000
  0
SEQEND
  0
POLYLINE
  8
SPL3W5K_SMT
 66
1
 10
0.0000
 20
0.0000
 30
0.0000
 40
0.0100
 41
0.0100
  0
VERTEX
  8
SPL3W5K_SMT
 10
0.3550
 20
9.1560
 30
0.0000
  0
VERTEX
  8
SPL3W5K_SMT
 10
0.0250
 20
9.1560
 30
0.0000
  0
SEQEND
  0
POLYLINE
  8
SPL3W5K_SMT
 66
1
 10
0.0000
 20
0.0000
 30
0.0000
 40
0.0100
 41
0.0100
  0
VERTEX
  8
SPL3W5K_SMT
 10
0.3550
 20
9.1470
 30
0.0000
  0
VERTEX
  8
SPL3W5K_SMT
 10
0.0250
 20
9.1470
 30
0.0000
  0
SEQEND
  0
POLYLINE
  8
SPL3W5K_SMT
 66
1
 10
0.0000
 20
0.0000
 30
0.0000
 40
0.0100
 41
0.0100
  0
VERTEX
  8
SPL3W5K_SMT
 10
0.3550
 20
9.1380
 30
0.0000
  0
VERTEX
  8
SPL3W5K_SMT
 10
0.0250
 20
9.1380
 30
0.0000
  0
SEQEND
  0
POLYLINE
  8
SPL3W5K_SMT
 66
1
 10
0.0000
 20
0.0000
 30
0.0000
 40
0.0100
 41
0.0100
  0
VERTEX
  8
SPL3W5K_SMT
 10
0.3550
 20
9.4450
 30
0.0000
  0
VERTEX
  8
SPL3W5K_SMT
 10
0.0250
 20
9.4450
 30
0.0000
  0
SEQEND
  0
POLYLINE
  8
SPL3W5K_SMT
 66
1
 10
0.0000
 20
0.0000
 30
0.0000
 40
0.0100
 41
0.0100
  0
VERTEX
  8
SPL3W5K_SMT
 10
0.3550
 20
9.4450
 30
0.0000
  0
VERTEX
  8
SPL3W5K_SMT
 10
0.3550
 20
9.1340
 30
0.0000
  0
VERTEX
  8
SPL3W5K_SMT
 10
0.0250
 20
9.1340
 30
0.0000
  0
SEQEND
  0
POLYLINE
  8
SPL3W5K_SMT
 66
1
 10
0.0000
 20
0.0000
 30
0.0000
 40
0.0100
 41
0.0100
  0
VERTEX
  8
SPL3W5K_SMT
 10
0.0250
 20
9.4450
 30
0.0000
  0
VERTEX
  8
SPL3W5K_SMT
 10
0.0250
 20
9.1340
 30
0.0000
  0
SEQEND
  0
POLYLINE
  8
SPL3W5K_SMT
 66
1
 10
0.0000
 20
0.0000
 30
0.0000
 40
0.0100
 41
0.0100
  0
VERTEX
  8
SPL3W5K_SMT
 10
0.3530
 20
9.4450
 30
0.0000
  0
VERTEX
  8
SPL3W5K_SMT
 10
0.3530
 20
9.1340
 30
0.0000
  0
SEQEND
  0
POLYLINE
  8
SPL3W5K_SMT
 66
1
 10
0.0000
 20
0.0000
 30
0.0000
 40
0.0100
 41
0.0100
  0
VERTEX
  8
SPL3W5K_SMT
 10
0.3440
 20
9.4450
 30
0.0000
  0
VERTEX
  8
SPL3W5K_SMT
 10
0.3440
 20
9.1340
 30
0.0000
  0
SEQEND
  0
POLYLINE
  8
SPL3W5K_SMT
 66
1
 10
0.0000
 20
0.0000
 30
0.0000
 40
0.0100
 41
0.0100
  0
VERTEX
  8
SPL3W5K_SMT
 10
0.3350
 20
9.4450
 30
0.0000
  0
VERTEX
  8
SPL3W5K_SMT
 10
0.3350
 20
9.1340
 30
0.0000
  0
SEQEND
  0
POLYLINE
  8
SPL3W5K_SMT
 66
1
 10
0.0000
 20
0.0000
 30
0.0000
 40
0.0100
 41
0.0100
  0
VERTEX
  8
SPL3W5K_SMT
 10
0.3260
 20
9.4450
 30
0.0000
  0
VERTEX
  8
SPL3W5K_SMT
 10
0.3260
 20
9.1340
 30
0.0000
  0
SEQEND
  0
POLYLINE
  8
SPL3W5K_SMT
 66
1
 10
0.0000
 20
0.0000
 30
0.0000
 40
0.0100
 41
0.0100
  0
VERTEX
  8
SPL3W5K_SMT
 10
0.3170
 20
9.4450
 30
0.0000
  0
VERTEX
  8
SPL3W5K_SMT
 10
0.3170
 20
9.1340
 30
0.0000
  0
SEQEND
  0
POLYLINE
  8
SPL3W5K_SMT
 66
1
 10
0.0000
 20
0.0000
 30
0.0000
 40
0.0100
 41
0.0100
  0
VERTEX
  8
SPL3W5K_SMT
 10
0.3080
 20
9.4450
 30
0.0000
  0
VERTEX
  8
SPL3W5K_SMT
 10
0.3080
 20
9.1340
 30
0.0000
  0
SEQEND
  0
POLYLINE
  8
SPL3W5K_SMT
 66
1
 10
0.0000
 20
0.0000
 30
0.0000
 40
0.0100
 41
0.0100
  0
VERTEX
  8
SPL3W5K_SMT
 10
0.2990
 20
9.4450
 30
0.0000
  0
VERTEX
  8
SPL3W5K_SMT
 10
0.2990
 20
9.1340
 30
0.0000
  0
SEQEND
  0
POLYLINE
  8
SPL3W5K_SMT
 66
1
 10
0.0000
 20
0.0000
 30
0.0000
 40
0.0100
 41
0.0100
  0
VERTEX
  8
SPL3W5K_SMT
 10
0.2900
 20
9.4450
 30
0.0000
  0
VERTEX
  8
SPL3W5K_SMT
 10
0.2900
 20
9.1340
 30
0.0000
  0
SEQEND
  0
POLYLINE
  8
SPL3W5K_SMT
 66
1
 10
0.0000
 20
0.0000
 30
0.0000
 40
0.0100
 41
0.0100
  0
VERTEX
  8
SPL3W5K_SMT
 10
0.2810
 20
9.4450
 30
0.0000
  0
VERTEX
  8
SPL3W5K_SMT
 10
0.2810
 20
9.1340
 30
0.0000
  0
SEQEND
  0
POLYLINE
  8
SPL3W5K_SMT
 66
1
 10
0.0000
 20
0.0000
 30
0.0000
 40
0.0100
 41
0.0100
  0
VERTEX
  8
SPL3W5K_SMT
 10
0.2720
 20
9.4450
 30
0.0000
  0
VERTEX
  8
SPL3W5K_SMT
 10
0.2720
 20
9.1340
 30
0.0000
  0
SEQEND
  0
POLYLINE
  8
SPL3W5K_SMT
 66
1
 10
0.0000
 20
0.0000
 30
0.0000
 40
0.0100
 41
0.0100
  0
VERTEX
  8
SPL3W5K_SMT
 10
0.2630
 20
9.4450
 30
0.0000
  0
VERTEX
  8
SPL3W5K_SMT
 10
0.2630
 20
9.1340
 30
0.0000
  0
SEQEND
  0
POLYLINE
  8
SPL3W5K_SMT
 66
1
 10
0.0000
 20
0.0000
 30
0.0000
 40
0.0100
 41
0.0100
  0
VERTEX
  8
SPL3W5K_SMT
 10
0.2540
 20
9.4450
 30
0.0000
  0
VERTEX
  8
SPL3W5K_SMT
 10
0.2540
 20
9.1340
 30
0.0000
  0
SEQEND
  0
POLYLINE
  8
SPL3W5K_SMT
 66
1
 10
0.0000
 20
0.0000
 30
0.0000
 40
0.0100
 41
0.0100
  0
VERTEX
  8
SPL3W5K_SMT
 10
0.2590
 20
14.5100
 30
0.0000
  0
VERTEX
  8
SPL3W5K_SMT
 10
0.2590
 20
14.1900
 30
0.0000
  0
SEQEND
  0
POLYLINE
  8
SPL3W5K_SMT
 66
1
 10
0.0000
 20
0.0000
 30
0.0000
 40
0.0100
 41
0.0100
  0
VERTEX
  8
SPL3W5K_SMT
 10
0.2500
 20
14.5100
 30
0.0000
  0
VERTEX
  8
SPL3W5K_SMT
 10
0.2500
 20
14.1900
 30
0.0000
  0
SEQEND
  0
POLYLINE
  8
SPL3W5K_SMT
 66
1
 10
0.0000
 20
0.0000
 30
0.0000
 40
0.0100
 41
0.0100
  0
VERTEX
  8
SPL3W5K_SMT
 10
0.2410
 20
14.5100
 30
0.0000
  0
VERTEX
  8
SPL3W5K_SMT
 10
0.2410
 20
14.1900
 30
0.0000
  0
SEQEND
  0
POLYLINE
  8
SPL3W5K_SMT
 66
1
 10
0.0000
 20
0.0000
 30
0.0000
 40
0.0100
 41
0.0100
  0
VERTEX
  8
SPL3W5K_SMT
 10
0.2320
 20
14.5100
 30
0.0000
  0
VERTEX
  8
SPL3W5K_SMT
 10
0.2320
 20
14.1900
 30
0.0000
  0
SEQEND
  0
POLYLINE
  8
SPL3W5K_SMT
 66
1
 10
0.0000
 20
0.0000
 30
0.0000
 40
0.0100
 41
0.0100
  0
VERTEX
  8
SPL3W5K_SMT
 10
0.2230
 20
14.5100
 30
0.0000
  0
VERTEX
  8
SPL3W5K_SMT
 10
0.2230
 20
14.1900
 30
0.0000
  0
SEQEND
  0
POLYLINE
  8
SPL3W5K_SMT
 66
1
 10
0.0000
 20
0.0000
 30
0.0000
 40
0.0100
 41
0.0100
  0
VERTEX
  8
SPL3W5K_SMT
 10
0.2140
 20
14.5100
 30
0.0000
  0
VERTEX
  8
SPL3W5K_SMT
 10
0.2140
 20
14.1900
 30
0.0000
  0
SEQEND
  0
POLYLINE
  8
SPL3W5K_SMT
 66
1
 10
0.0000
 20
0.0000
 30
0.0000
 40
0.0100
 41
0.0100
  0
VERTEX
  8
SPL3W5K_SMT
 10
0.2050
 20
14.5100
 30
0.0000
  0
VERTEX
  8
SPL3W5K_SMT
 10
0.2050
 20
14.1900
 30
0.0000
  0
SEQEND
  0
POLYLINE
  8
SPL3W5K_SMT
 66
1
 10
0.0000
 20
0.0000
 30
0.0000
 40
0.0100
 41
0.0100
  0
VERTEX
  8
SPL3W5K_SMT
 10
0.1960
 20
14.5100
 30
0.0000
  0
VERTEX
  8
SPL3W5K_SMT
 10
0.1960
 20
14.1900
 30
0.0000
  0
SEQEND
  0
POLYLINE
  8
SPL3W5K_SMT
 66
1
 10
0.0000
 20
0.0000
 30
0.0000
 40
0.0100
 41
0.0100
  0
VERTEX
  8
SPL3W5K_SMT
 10
0.1870
 20
14.5100
 30
0.0000
  0
VERTEX
  8
SPL3W5K_SMT
 10
0.1870
 20
14.1900
 30
0.0000
  0
SEQEND
  0
POLYLINE
  8
SPL3W5K_SMT
 66
1
 10
0.0000
 20
0.0000
 30
0.0000
 40
0.0100
 41
0.0100
  0
VERTEX
  8
SPL3W5K_SMT
 10
0.1780
 20
14.5100
 30
0.0000
  0
VERTEX
  8
SPL3W5K_SMT
 10
0.1780
 20
14.1900
 30
0.0000
  0
SEQEND
  0
POLYLINE
  8
SPL3W5K_SMT
 66
1
 10
0.0000
 20
0.0000
 30
0.0000
 40
0.0100
 41
0.0100
  0
VERTEX
  8
SPL3W5K_SMT
 10
0.1690
 20
14.5100
 30
0.0000
  0
VERTEX
  8
SPL3W5K_SMT
 10
0.1690
 20
14.1900
 30
0.0000
  0
SEQEND
  0
POLYLINE
  8
SPL3W5K_SMT
 66
1
 10
0.0000
 20
0.0000
 30
0.0000
 40
0.0100
 41
0.0100
  0
VERTEX
  8
SPL3W5K_SMT
 10
0.1600
 20
14.5100
 30
0.0000
  0
VERTEX
  8
SPL3W5K_SMT
 10
0.1600
 20
14.1900
 30
0.0000
  0
SEQEND
  0
POLYLINE
  8
SPL3W5K_SMT
 66
1
 10
0.0000
 20
0.0000
 30
0.0000
 40
0.0100
 41
0.0100
  0
VERTEX
  8
SPL3W5K_SMT
 10
0.1510
 20
14.5100
 30
0.0000
  0
VERTEX
  8
SPL3W5K_SMT
 10
0.1510
 20
14.1900
 30
0.0000
  0
SEQEND
  0
POLYLINE
  8
SPL3W5K_SMT
 66
1
 10
0.0000
 20
0.0000
 30
0.0000
 40
0.0100
 41
0.0100
  0
VERTEX
  8
SPL3W5K_SMT
 10
0.1420
 20
14.5100
 30
0.0000
  0
VERTEX
  8
SPL3W5K_SMT
 10
0.1420
 20
14.1900
 30
0.0000
  0
SEQEND
  0
POLYLINE
  8
SPL3W5K_SMT
 66
1
 10
0.0000
 20
0.0000
 30
0.0000
 40
0.0100
 41
0.0100
  0
VERTEX
  8
SPL3W5K_SMT
 10
0.1330
 20
14.5100
 30
0.0000
  0
VERTEX
  8
SPL3W5K_SMT
 10
0.1330
 20
14.1900
 30
0.0000
  0
SEQEND
  0
POLYLINE
  8
SPL3W5K_SMT
 66
1
 10
0.0000
 20
0.0000
 30
0.0000
 40
0.0100
 41
0.0100
  0
VERTEX
  8
SPL3W5K_SMT
 10
0.1240
 20
14.5100
 30
0.0000
  0
VERTEX
  8
SPL3W5K_SMT
 10
0.1240
 20
14.1900
 30
0.0000
  0
SEQEND
  0
POLYLINE
  8
SPL3W5K_SMT
 66
1
 10
0.0000
 20
0.0000
 30
0.0000
 40
0.0100
 41
0.0100
  0
VERTEX
  8
SPL3W5K_SMT
 10
0.1150
 20
14.5100
 30
0.0000
  0
VERTEX
  8
SPL3W5K_SMT
 10
0.1150
 20
14.1900
 30
0.0000
  0
SEQEND
  0
POLYLINE
  8
SPL3W5K_SMT
 66
1
 10
0.0000
 20
0.0000
 30
0.0000
 40
0.0100
 41
0.0100
  0
VERTEX
  8
SPL3W5K_SMT
 10
0.1060
 20
14.5100
 30
0.0000
  0
VERTEX
  8
SPL3W5K_SMT
 10
0.1060
 20
14.1900
 30
0.0000
  0
SEQEND
  0
POLYLINE
  8
SPL3W5K_SMT
 66
1
 10
0.0000
 20
0.0000
 30
0.0000
 40
0.0100
 41
0.0100
  0
VERTEX
  8
SPL3W5K_SMT
 10
0.0970
 20
14.5100
 30
0.0000
  0
VERTEX
  8
SPL3W5K_SMT
 10
0.0970
 20
14.1900
 30
0.0000
  0
SEQEND
  0
POLYLINE
  8
SPL3W5K_SMT
 66
1
 10
0.0000
 20
0.0000
 30
0.0000
 40
0.0100
 41
0.0100
  0
VERTEX
  8
SPL3W5K_SMT
 10
0.0880
 20
14.5100
 30
0.0000
  0
VERTEX
  8
SPL3W5K_SMT
 10
0.0880
 20
14.1900
 30
0.0000
  0
SEQEND
  0
POLYLINE
  8
SPL3W5K_SMT
 66
1
 10
0.0000
 20
0.0000
 30
0.0000
 40
0.0100
 41
0.0100
  0
VERTEX
  8
SPL3W5K_SMT
 10
0.0790
 20
14.5100
 30
0.0000
  0
VERTEX
  8
SPL3W5K_SMT
 10
0.0790
 20
14.1900
 30
0.0000
  0
SEQEND
  0
POLYLINE
  8
SPL3W5K_SMT
 66
1
 10
0.0000
 20
0.0000
 30
0.0000
 40
0.0100
 41
0.0100
  0
VERTEX
  8
SPL3W5K_SMT
 10
0.0700
 20
14.5100
 30
0.0000
  0
VERTEX
  8
SPL3W5K_SMT
 10
0.0700
 20
14.1900
 30
0.0000
  0
SEQEND
  0
POLYLINE
  8
SPL3W5K_SMT
 66
1
 10
0.0000
 20
0.0000
 30
0.0000
 40
0.0100
 41
0.0100
  0
VERTEX
  8
SPL3W5K_SMT
 10
0.0610
 20
14.5100
 30
0.0000
  0
VERTEX
  8
SPL3W5K_SMT
 10
0.0610
 20
14.1900
 30
0.0000
  0
SEQEND
  0
POLYLINE
  8
SPL3W5K_SMT
 66
1
 10
0.0000
 20
0.0000
 30
0.0000
 40
0.0100
 41
0.0100
  0
VERTEX
  8
SPL3W5K_SMT
 10
0.0520
 20
14.5100
 30
0.0000
  0
VERTEX
  8
SPL3W5K_SMT
 10
0.0520
 20
14.1900
 30
0.0000
  0
SEQEND
  0
POLYLINE
  8
SPL3W5K_SMT
 66
1
 10
0.0000
 20
0.0000
 30
0.0000
 40
0.0100
 41
0.0100
  0
VERTEX
  8
SPL3W5K_SMT
 10
0.0430
 20
14.5100
 30
0.0000
  0
VERTEX
  8
SPL3W5K_SMT
 10
0.0430
 20
14.1900
 30
0.0000
  0
SEQEND
  0
POLYLINE
  8
SPL3W5K_SMT
 66
1
 10
0.0000
 20
0.0000
 30
0.0000
 40
0.0100
 41
0.0100
  0
VERTEX
  8
SPL3W5K_SMT
 10
0.0340
 20
14.5100
 30
0.0000
  0
VERTEX
  8
SPL3W5K_SMT
 10
0.0340
 20
14.1900
 30
0.0000
  0
SEQEND
  0
POLYLINE
  8
SPL3W5K_SMT
 66
1
 10
0.0000
 20
0.0000
 30
0.0000
 40
0.0100
 41
0.0100
  0
VERTEX
  8
SPL3W5K_SMT
 10
0.3600
 20
14.5090
 30
0.0000
  0
VERTEX
  8
SPL3W5K_SMT
 10
0.0300
 20
14.5090
 30
0.0000
  0
SEQEND
  0
POLYLINE
  8
SPL3W5K_SMT
 66
1
 10
0.0000
 20
0.0000
 30
0.0000
 40
0.0100
 41
0.0100
  0
VERTEX
  8
SPL3W5K_SMT
 10
0.3600
 20
14.5000
 30
0.0000
  0
VERTEX
  8
SPL3W5K_SMT
 10
0.0300
 20
14.5000
 30
0.0000
  0
SEQEND
  0
POLYLINE
  8
SPL3W5K_SMT
 66
1
 10
0.0000
 20
0.0000
 30
0.0000
 40
0.0100
 41
0.0100
  0
VERTEX
  8
SPL3W5K_SMT
 10
0.3600
 20
14.4910
 30
0.0000
  0
VERTEX
  8
SPL3W5K_SMT
 10
0.0300
 20
14.4910
 30
0.0000
  0
SEQEND
  0
POLYLINE
  8
SPL3W5K_SMT
 66
1
 10
0.0000
 20
0.0000
 30
0.0000
 40
0.0100
 41
0.0100
  0
VERTEX
  8
SPL3W5K_SMT
 10
0.3600
 20
14.4820
 30
0.0000
  0
VERTEX
  8
SPL3W5K_SMT
 10
0.0300
 20
14.4820
 30
0.0000
  0
SEQEND
  0
POLYLINE
  8
SPL3W5K_SMT
 66
1
 10
0.0000
 20
0.0000
 30
0.0000
 40
0.0100
 41
0.0100
  0
VERTEX
  8
SPL3W5K_SMT
 10
0.3600
 20
14.4730
 30
0.0000
  0
VERTEX
  8
SPL3W5K_SMT
 10
0.0300
 20
14.4730
 30
0.0000
  0
SEQEND
  0
POLYLINE
  8
SPL3W5K_SMT
 66
1
 10
0.0000
 20
0.0000
 30
0.0000
 40
0.0100
 41
0.0100
  0
VERTEX
  8
SPL3W5K_SMT
 10
0.3600
 20
14.4640
 30
0.0000
  0
VERTEX
  8
SPL3W5K_SMT
 10
0.0300
 20
14.4640
 30
0.0000
  0
SEQEND
  0
POLYLINE
  8
SPL3W5K_SMT
 66
1
 10
0.0000
 20
0.0000
 30
0.0000
 40
0.0100
 41
0.0100
  0
VERTEX
  8
SPL3W5K_SMT
 10
0.3600
 20
14.4550
 30
0.0000
  0
VERTEX
  8
SPL3W5K_SMT
 10
0.0300
 20
14.4550
 30
0.0000
  0
SEQEND
  0
POLYLINE
  8
SPL3W5K_SMT
 66
1
 10
0.0000
 20
0.0000
 30
0.0000
 40
0.0100
 41
0.0100
  0
VERTEX
  8
SPL3W5K_SMT
 10
0.3600
 20
14.4460
 30
0.0000
  0
VERTEX
  8
SPL3W5K_SMT
 10
0.0300
 20
14.4460
 30
0.0000
  0
SEQEND
  0
POLYLINE
  8
SPL3W5K_SMT
 66
1
 10
0.0000
 20
0.0000
 30
0.0000
 40
0.0100
 41
0.0100
  0
VERTEX
  8
SPL3W5K_SMT
 10
0.3600
 20
14.4370
 30
0.0000
  0
VERTEX
  8
SPL3W5K_SMT
 10
0.0300
 20
14.4370
 30
0.0000
  0
SEQEND
  0
POLYLINE
  8
SPL3W5K_SMT
 66
1
 10
0.0000
 20
0.0000
 30
0.0000
 40
0.0100
 41
0.0100
  0
VERTEX
  8
SPL3W5K_SMT
 10
0.3600
 20
14.4280
 30
0.0000
  0
VERTEX
  8
SPL3W5K_SMT
 10
0.0300
 20
14.4280
 30
0.0000
  0
SEQEND
  0
POLYLINE
  8
SPL3W5K_SMT
 66
1
 10
0.0000
 20
0.0000
 30
0.0000
 40
0.0100
 41
0.0100
  0
VERTEX
  8
SPL3W5K_SMT
 10
0.3600
 20
14.4190
 30
0.0000
  0
VERTEX
  8
SPL3W5K_SMT
 10
0.0300
 20
14.4190
 30
0.0000
  0
SEQEND
  0
POLYLINE
  8
SPL3W5K_SMT
 66
1
 10
0.0000
 20
0.0000
 30
0.0000
 40
0.0100
 41
0.0100
  0
VERTEX
  8
SPL3W5K_SMT
 10
0.3600
 20
14.4100
 30
0.0000
  0
VERTEX
  8
SPL3W5K_SMT
 10
0.0300
 20
14.4100
 30
0.0000
  0
SEQEND
  0
POLYLINE
  8
SPL3W5K_SMT
 66
1
 10
0.0000
 20
0.0000
 30
0.0000
 40
0.0100
 41
0.0100
  0
VERTEX
  8
SPL3W5K_SMT
 10
0.3600
 20
14.4010
 30
0.0000
  0
VERTEX
  8
SPL3W5K_SMT
 10
0.0300
 20
14.4010
 30
0.0000
  0
SEQEND
  0
POLYLINE
  8
SPL3W5K_SMT
 66
1
 10
0.0000
 20
0.0000
 30
0.0000
 40
0.0100
 41
0.0100
  0
VERTEX
  8
SPL3W5K_SMT
 10
0.3600
 20
14.3920
 30
0.0000
  0
VERTEX
  8
SPL3W5K_SMT
 10
0.0300
 20
14.3920
 30
0.0000
  0
SEQEND
  0
POLYLINE
  8
SPL3W5K_SMT
 66
1
 10
0.0000
 20
0.0000
 30
0.0000
 40
0.0100
 41
0.0100
  0
VERTEX
  8
SPL3W5K_SMT
 10
0.3600
 20
14.3830
 30
0.0000
  0
VERTEX
  8
SPL3W5K_SMT
 10
0.0300
 20
14.3830
 30
0.0000
  0
SEQEND
  0
POLYLINE
  8
SPL3W5K_SMT
 66
1
 10
0.0000
 20
0.0000
 30
0.0000
 40
0.0100
 41
0.0100
  0
VERTEX
  8
SPL3W5K_SMT
 10
0.3600
 20
14.3740
 30
0.0000
  0
VERTEX
  8
SPL3W5K_SMT
 10
0.0300
 20
14.3740
 30
0.0000
  0
SEQEND
  0
POLYLINE
  8
SPL3W5K_SMT
 66
1
 10
0.0000
 20
0.0000
 30
0.0000
 40
0.0100
 41
0.0100
  0
VERTEX
  8
SPL3W5K_SMT
 10
0.3600
 20
14.3650
 30
0.0000
  0
VERTEX
  8
SPL3W5K_SMT
 10
0.0300
 20
14.3650
 30
0.0000
  0
SEQEND
  0
POLYLINE
  8
SPL3W5K_SMT
 66
1
 10
0.0000
 20
0.0000
 30
0.0000
 40
0.0100
 41
0.0100
  0
VERTEX
  8
SPL3W5K_SMT
 10
0.3600
 20
14.3560
 30
0.0000
  0
VERTEX
  8
SPL3W5K_SMT
 10
0.0300
 20
14.3560
 30
0.0000
  0
SEQEND
  0
POLYLINE
  8
SPL3W5K_SMT
 66
1
 10
0.0000
 20
0.0000
 30
0.0000
 40
0.0100
 41
0.0100
  0
VERTEX
  8
SPL3W5K_SMT
 10
0.3600
 20
14.3470
 30
0.0000
  0
VERTEX
  8
SPL3W5K_SMT
 10
0.0300
 20
14.3470
 30
0.0000
  0
SEQEND
  0
POLYLINE
  8
SPL3W5K_SMT
 66
1
 10
0.0000
 20
0.0000
 30
0.0000
 40
0.0100
 41
0.0100
  0
VERTEX
  8
SPL3W5K_SMT
 10
0.3600
 20
14.3380
 30
0.0000
  0
VERTEX
  8
SPL3W5K_SMT
 10
0.0300
 20
14.3380
 30
0.0000
  0
SEQEND
  0
POLYLINE
  8
SPL3W5K_SMT
 66
1
 10
0.0000
 20
0.0000
 30
0.0000
 40
0.0100
 41
0.0100
  0
VERTEX
  8
SPL3W5K_SMT
 10
0.3600
 20
14.3290
 30
0.0000
  0
VERTEX
  8
SPL3W5K_SMT
 10
0.0300
 20
14.3290
 30
0.0000
  0
SEQEND
  0
POLYLINE
  8
SPL3W5K_SMT
 66
1
 10
0.0000
 20
0.0000
 30
0.0000
 40
0.0100
 41
0.0100
  0
VERTEX
  8
SPL3W5K_SMT
 10
0.3600
 20
14.3200
 30
0.0000
  0
VERTEX
  8
SPL3W5K_SMT
 10
0.0300
 20
14.3200
 30
0.0000
  0
SEQEND
  0
POLYLINE
  8
SPL3W5K_SMT
 66
1
 10
0.0000
 20
0.0000
 30
0.0000
 40
0.0100
 41
0.0100
  0
VERTEX
  8
SPL3W5K_SMT
 10
0.3600
 20
14.3110
 30
0.0000
  0
VERTEX
  8
SPL3W5K_SMT
 10
0.0300
 20
14.3110
 30
0.0000
  0
SEQEND
  0
POLYLINE
  8
SPL3W5K_SMT
 66
1
 10
0.0000
 20
0.0000
 30
0.0000
 40
0.0100
 41
0.0100
  0
VERTEX
  8
SPL3W5K_SMT
 10
0.3600
 20
14.3020
 30
0.0000
  0
VERTEX
  8
SPL3W5K_SMT
 10
0.0300
 20
14.3020
 30
0.0000
  0
SEQEND
  0
POLYLINE
  8
SPL3W5K_SMT
 66
1
 10
0.0000
 20
0.0000
 30
0.0000
 40
0.0100
 41
0.0100
  0
VERTEX
  8
SPL3W5K_SMT
 10
0.3600
 20
14.2930
 30
0.0000
  0
VERTEX
  8
SPL3W5K_SMT
 10
0.0300
 20
14.2930
 30
0.0000
  0
SEQEND
  0
POLYLINE
  8
SPL3W5K_SMT
 66
1
 10
0.0000
 20
0.0000
 30
0.0000
 40
0.0100
 41
0.0100
  0
VERTEX
  8
SPL3W5K_SMT
 10
0.3600
 20
14.2840
 30
0.0000
  0
VERTEX
  8
SPL3W5K_SMT
 10
0.0300
 20
14.2840
 30
0.0000
  0
SEQEND
  0
POLYLINE
  8
SPL3W5K_SMT
 66
1
 10
0.0000
 20
0.0000
 30
0.0000
 40
0.0100
 41
0.0100
  0
VERTEX
  8
SPL3W5K_SMT
 10
0.3600
 20
14.2750
 30
0.0000
  0
VERTEX
  8
SPL3W5K_SMT
 10
0.0300
 20
14.2750
 30
0.0000
  0
SEQEND
  0
POLYLINE
  8
SPL3W5K_SMT
 66
1
 10
0.0000
 20
0.0000
 30
0.0000
 40
0.0100
 41
0.0100
  0
VERTEX
  8
SPL3W5K_SMT
 10
0.3600
 20
14.2660
 30
0.0000
  0
VERTEX
  8
SPL3W5K_SMT
 10
0.0300
 20
14.2660
 30
0.0000
  0
SEQEND
  0
POLYLINE
  8
SPL3W5K_SMT
 66
1
 10
0.0000
 20
0.0000
 30
0.0000
 40
0.0100
 41
0.0100
  0
VERTEX
  8
SPL3W5K_SMT
 10
0.3600
 20
14.2570
 30
0.0000
  0
VERTEX
  8
SPL3W5K_SMT
 10
0.0300
 20
14.2570
 30
0.0000
  0
SEQEND
  0
POLYLINE
  8
SPL3W5K_SMT
 66
1
 10
0.0000
 20
0.0000
 30
0.0000
 40
0.0100
 41
0.0100
  0
VERTEX
  8
SPL3W5K_SMT
 10
0.3600
 20
14.2480
 30
0.0000
  0
VERTEX
  8
SPL3W5K_SMT
 10
0.0300
 20
14.2480
 30
0.0000
  0
SEQEND
  0
POLYLINE
  8
SPL3W5K_SMT
 66
1
 10
0.0000
 20
0.0000
 30
0.0000
 40
0.0100
 41
0.0100
  0
VERTEX
  8
SPL3W5K_SMT
 10
0.3600
 20
14.2390
 30
0.0000
  0
VERTEX
  8
SPL3W5K_SMT
 10
0.0300
 20
14.2390
 30
0.0000
  0
SEQEND
  0
POLYLINE
  8
SPL3W5K_SMT
 66
1
 10
0.0000
 20
0.0000
 30
0.0000
 40
0.0100
 41
0.0100
  0
VERTEX
  8
SPL3W5K_SMT
 10
0.3600
 20
14.2300
 30
0.0000
  0
VERTEX
  8
SPL3W5K_SMT
 10
0.0300
 20
14.2300
 30
0.0000
  0
SEQEND
  0
POLYLINE
  8
SPL3W5K_SMT
 66
1
 10
0.0000
 20
0.0000
 30
0.0000
 40
0.0100
 41
0.0100
  0
VERTEX
  8
SPL3W5K_SMT
 10
0.3600
 20
14.2210
 30
0.0000
  0
VERTEX
  8
SPL3W5K_SMT
 10
0.0300
 20
14.2210
 30
0.0000
  0
SEQEND
  0
POLYLINE
  8
SPL3W5K_SMT
 66
1
 10
0.0000
 20
0.0000
 30
0.0000
 40
0.0100
 41
0.0100
  0
VERTEX
  8
SPL3W5K_SMT
 10
0.3600
 20
14.2120
 30
0.0000
  0
VERTEX
  8
SPL3W5K_SMT
 10
0.0300
 20
14.2120
 30
0.0000
  0
SEQEND
  0
POLYLINE
  8
SPL3W5K_SMT
 66
1
 10
0.0000
 20
0.0000
 30
0.0000
 40
0.0100
 41
0.0100
  0
VERTEX
  8
SPL3W5K_SMT
 10
0.3600
 20
14.2030
 30
0.0000
  0
VERTEX
  8
SPL3W5K_SMT
 10
0.0300
 20
14.2030
 30
0.0000
  0
SEQEND
  0
POLYLINE
  8
SPL3W5K_SMT
 66
1
 10
0.0000
 20
0.0000
 30
0.0000
 40
0.0100
 41
0.0100
  0
VERTEX
  8
SPL3W5K_SMT
 10
0.3600
 20
14.1940
 30
0.0000
  0
VERTEX
  8
SPL3W5K_SMT
 10
0.0300
 20
14.1940
 30
0.0000
  0
SEQEND
  0
POLYLINE
  8
SPL3W5K_SMT
 66
1
 10
0.0000
 20
0.0000
 30
0.0000
 40
0.0100
 41
0.0100
  0
VERTEX
  8
SPL3W5K_SMT
 10
0.0300
 20
14.5100
 30
0.0000
  0
VERTEX
  8
SPL3W5K_SMT
 10
0.0300
 20
14.1900
 30
0.0000
  0
SEQEND
  0
POLYLINE
  8
SPL3W5K_SMT
 66
1
 10
0.0000
 20
0.0000
 30
0.0000
 40
0.0100
 41
0.0100
  0
VERTEX
  8
SPL3W5K_SMT
 10
0.3600
 20
14.1900
 30
0.0000
  0
VERTEX
  8
SPL3W5K_SMT
 10
0.0300
 20
14.1900
 30
0.0000
  0
SEQEND
  0
POLYLINE
  8
SPL3W5K_SMT
 66
1
 10
0.0000
 20
0.0000
 30
0.0000
 40
0.0100
 41
0.0100
  0
VERTEX
  8
SPL3W5K_SMT
 10
0.3600
 20
14.5100
 30
0.0000
  0
VERTEX
  8
SPL3W5K_SMT
 10
0.3600
 20
14.1900
 30
0.0000
  0
SEQEND
  0
POLYLINE
  8
SPL3W5K_SMT
 66
1
 10
0.0000
 20
0.0000
 30
0.0000
 40
0.0100
 41
0.0100
  0
VERTEX
  8
SPL3W5K_SMT
 10
0.3600
 20
14.5100
 30
0.0000
  0
VERTEX
  8
SPL3W5K_SMT
 10
0.0300
 20
14.5100
 30
0.0000
  0
SEQEND
  0
POLYLINE
  8
SPL3W5K_SMT
 66
1
 10
0.0000
 20
0.0000
 30
0.0000
 40
0.0100
 41
0.0100
  0
VERTEX
  8
SPL3W5K_SMT
 10
0.3580
 20
14.5100
 30
0.0000
  0
VERTEX
  8
SPL3W5K_SMT
 10
0.3580
 20
14.1900
 30
0.0000
  0
SEQEND
  0
POLYLINE
  8
SPL3W5K_SMT
 66
1
 10
0.0000
 20
0.0000
 30
0.0000
 40
0.0100
 41
0.0100
  0
VERTEX
  8
SPL3W5K_SMT
 10
0.3490
 20
14.5100
 30
0.0000
  0
VERTEX
  8
SPL3W5K_SMT
 10
0.3490
 20
14.1900
 30
0.0000
  0
SEQEND
  0
POLYLINE
  8
SPL3W5K_SMT
 66
1
 10
0.0000
 20
0.0000
 30
0.0000
 40
0.0100
 41
0.0100
  0
VERTEX
  8
SPL3W5K_SMT
 10
0.3400
 20
14.5100
 30
0.0000
  0
VERTEX
  8
SPL3W5K_SMT
 10
0.3400
 20
14.1900
 30
0.0000
  0
SEQEND
  0
POLYLINE
  8
SPL3W5K_SMT
 66
1
 10
0.0000
 20
0.0000
 30
0.0000
 40
0.0100
 41
0.0100
  0
VERTEX
  8
SPL3W5K_SMT
 10
0.3310
 20
14.5100
 30
0.0000
  0
VERTEX
  8
SPL3W5K_SMT
 10
0.3310
 20
14.1900
 30
0.0000
  0
SEQEND
  0
POLYLINE
  8
SPL3W5K_SMT
 66
1
 10
0.0000
 20
0.0000
 30
0.0000
 40
0.0100
 41
0.0100
  0
VERTEX
  8
SPL3W5K_SMT
 10
0.3220
 20
14.5100
 30
0.0000
  0
VERTEX
  8
SPL3W5K_SMT
 10
0.3220
 20
14.1900
 30
0.0000
  0
SEQEND
  0
POLYLINE
  8
SPL3W5K_SMT
 66
1
 10
0.0000
 20
0.0000
 30
0.0000
 40
0.0100
 41
0.0100
  0
VERTEX
  8
SPL3W5K_SMT
 10
0.3130
 20
14.5100
 30
0.0000
  0
VERTEX
  8
SPL3W5K_SMT
 10
0.3130
 20
14.1900
 30
0.0000
  0
SEQEND
  0
POLYLINE
  8
SPL3W5K_SMT
 66
1
 10
0.0000
 20
0.0000
 30
0.0000
 40
0.0100
 41
0.0100
  0
VERTEX
  8
SPL3W5K_SMT
 10
0.3040
 20
14.5100
 30
0.0000
  0
VERTEX
  8
SPL3W5K_SMT
 10
0.3040
 20
14.1900
 30
0.0000
  0
SEQEND
  0
POLYLINE
  8
SPL3W5K_SMT
 66
1
 10
0.0000
 20
0.0000
 30
0.0000
 40
0.0100
 41
0.0100
  0
VERTEX
  8
SPL3W5K_SMT
 10
0.2950
 20
14.5100
 30
0.0000
  0
VERTEX
  8
SPL3W5K_SMT
 10
0.2950
 20
14.1900
 30
0.0000
  0
SEQEND
  0
POLYLINE
  8
SPL3W5K_SMT
 66
1
 10
0.0000
 20
0.0000
 30
0.0000
 40
0.0100
 41
0.0100
  0
VERTEX
  8
SPL3W5K_SMT
 10
0.2860
 20
14.5100
 30
0.0000
  0
VERTEX
  8
SPL3W5K_SMT
 10
0.2860
 20
14.1900
 30
0.0000
  0
SEQEND
  0
POLYLINE
  8
SPL3W5K_SMT
 66
1
 10
0.0000
 20
0.0000
 30
0.0000
 40
0.0100
 41
0.0100
  0
VERTEX
  8
SPL3W5K_SMT
 10
0.2770
 20
14.5100
 30
0.0000
  0
VERTEX
  8
SPL3W5K_SMT
 10
0.2770
 20
14.1900
 30
0.0000
  0
SEQEND
  0
POLYLINE
  8
SPL3W5K_SMT
 66
1
 10
0.0000
 20
0.0000
 30
0.0000
 40
0.0100
 41
0.0100
  0
VERTEX
  8
SPL3W5K_SMT
 10
0.2680
 20
14.5100
 30
0.0000
  0
VERTEX
  8
SPL3W5K_SMT
 10
0.2680
 20
14.1900
 30
0.0000
  0
SEQEND
  0
POLYLINE
  8
SPL3W5K_SMT
 66
1
 10
0.0000
 20
0.0000
 30
0.0000
 40
0.0100
 41
0.0100
  0
VERTEX
  8
SPL3W5K_SMT
 10
4.8530
 20
0.9000
 30
0.0000
  0
VERTEX
  8
SPL3W5K_SMT
 10
4.8530
 20
0.5600
 30
0.0000
  0
SEQEND
  0
POLYLINE
  8
SPL3W5K_SMT
 66
1
 10
0.0000
 20
0.0000
 30
0.0000
 40
0.0100
 41
0.0100
  0
VERTEX
  8
SPL3W5K_SMT
 10
4.8440
 20
0.9000
 30
0.0000
  0
VERTEX
  8
SPL3W5K_SMT
 10
4.8440
 20
0.5600
 30
0.0000
  0
SEQEND
  0
POLYLINE
  8
SPL3W5K_SMT
 66
1
 10
0.0000
 20
0.0000
 30
0.0000
 40
0.0100
 41
0.0100
  0
VERTEX
  8
SPL3W5K_SMT
 10
4.8350
 20
0.9000
 30
0.0000
  0
VERTEX
  8
SPL3W5K_SMT
 10
4.8350
 20
0.5600
 30
0.0000
  0
SEQEND
  0
POLYLINE
  8
SPL3W5K_SMT
 66
1
 10
0.0000
 20
0.0000
 30
0.0000
 40
0.0100
 41
0.0100
  0
VERTEX
  8
SPL3W5K_SMT
 10
4.8260
 20
0.9000
 30
0.0000
  0
VERTEX
  8
SPL3W5K_SMT
 10
4.8260
 20
0.5600
 30
0.0000
  0
SEQEND
  0
POLYLINE
  8
SPL3W5K_SMT
 66
1
 10
0.0000
 20
0.0000
 30
0.0000
 40
0.0100
 41
0.0100
  0
VERTEX
  8
SPL3W5K_SMT
 10
4.8170
 20
0.9000
 30
0.0000
  0
VERTEX
  8
SPL3W5K_SMT
 10
4.8170
 20
0.5600
 30
0.0000
  0
SEQEND
  0
POLYLINE
  8
SPL3W5K_SMT
 66
1
 10
0.0000
 20
0.0000
 30
0.0000
 40
0.0100
 41
0.0100
  0
VERTEX
  8
SPL3W5K_SMT
 10
4.8080
 20
0.9000
 30
0.0000
  0
VERTEX
  8
SPL3W5K_SMT
 10
4.8080
 20
0.5600
 30
0.0000
  0
SEQEND
  0
POLYLINE
  8
SPL3W5K_SMT
 66
1
 10
0.0000
 20
0.0000
 30
0.0000
 40
0.0100
 41
0.0100
  0
VERTEX
  8
SPL3W5K_SMT
 10
4.7990
 20
0.9000
 30
0.0000
  0
VERTEX
  8
SPL3W5K_SMT
 10
4.7990
 20
0.5600
 30
0.0000
  0
SEQEND
  0
POLYLINE
  8
SPL3W5K_SMT
 66
1
 10
0.0000
 20
0.0000
 30
0.0000
 40
0.0100
 41
0.0100
  0
VERTEX
  8
SPL3W5K_SMT
 10
4.7900
 20
0.9000
 30
0.0000
  0
VERTEX
  8
SPL3W5K_SMT
 10
4.7900
 20
0.5600
 30
0.0000
  0
SEQEND
  0
POLYLINE
  8
SPL3W5K_SMT
 66
1
 10
0.0000
 20
0.0000
 30
0.0000
 40
0.0100
 41
0.0100
  0
VERTEX
  8
SPL3W5K_SMT
 10
4.7810
 20
0.9000
 30
0.0000
  0
VERTEX
  8
SPL3W5K_SMT
 10
4.7810
 20
0.5600
 30
0.0000
  0
SEQEND
  0
POLYLINE
  8
SPL3W5K_SMT
 66
1
 10
0.0000
 20
0.0000
 30
0.0000
 40
0.0100
 41
0.0100
  0
VERTEX
  8
SPL3W5K_SMT
 10
4.7720
 20
0.9000
 30
0.0000
  0
VERTEX
  8
SPL3W5K_SMT
 10
4.7720
 20
0.5600
 30
0.0000
  0
SEQEND
  0
POLYLINE
  8
SPL3W5K_SMT
 66
1
 10
0.0000
 20
0.0000
 30
0.0000
 40
0.0100
 41
0.0100
  0
VERTEX
  8
SPL3W5K_SMT
 10
4.7630
 20
0.9000
 30
0.0000
  0
VERTEX
  8
SPL3W5K_SMT
 10
4.7630
 20
0.5600
 30
0.0000
  0
SEQEND
  0
POLYLINE
  8
SPL3W5K_SMT
 66
1
 10
0.0000
 20
0.0000
 30
0.0000
 40
0.0100
 41
0.0100
  0
VERTEX
  8
SPL3W5K_SMT
 10
4.7540
 20
0.9000
 30
0.0000
  0
VERTEX
  8
SPL3W5K_SMT
 10
4.7540
 20
0.5600
 30
0.0000
  0
SEQEND
  0
POLYLINE
  8
SPL3W5K_SMT
 66
1
 10
0.0000
 20
0.0000
 30
0.0000
 40
0.0100
 41
0.0100
  0
VERTEX
  8
SPL3W5K_SMT
 10
4.7450
 20
0.9000
 30
0.0000
  0
VERTEX
  8
SPL3W5K_SMT
 10
4.7450
 20
0.5600
 30
0.0000
  0
SEQEND
  0
POLYLINE
  8
SPL3W5K_SMT
 66
1
 10
0.0000
 20
0.0000
 30
0.0000
 40
0.0100
 41
0.0100
  0
VERTEX
  8
SPL3W5K_SMT
 10
4.7360
 20
0.9000
 30
0.0000
  0
VERTEX
  8
SPL3W5K_SMT
 10
4.7360
 20
0.5600
 30
0.0000
  0
SEQEND
  0
POLYLINE
  8
SPL3W5K_SMT
 66
1
 10
0.0000
 20
0.0000
 30
0.0000
 40
0.0100
 41
0.0100
  0
VERTEX
  8
SPL3W5K_SMT
 10
4.7270
 20
0.9000
 30
0.0000
  0
VERTEX
  8
SPL3W5K_SMT
 10
4.7270
 20
0.5600
 30
0.0000
  0
SEQEND
  0
POLYLINE
  8
SPL3W5K_SMT
 66
1
 10
0.0000
 20
0.0000
 30
0.0000
 40
0.0100
 41
0.0100
  0
VERTEX
  8
SPL3W5K_SMT
 10
4.7180
 20
0.9000
 30
0.0000
  0
VERTEX
  8
SPL3W5K_SMT
 10
4.7180
 20
0.5600
 30
0.0000
  0
SEQEND
  0
POLYLINE
  8
SPL3W5K_SMT
 66
1
 10
0.0000
 20
0.0000
 30
0.0000
 40
0.0100
 41
0.0100
  0
VERTEX
  8
SPL3W5K_SMT
 10
4.7090
 20
0.9000
 30
0.0000
  0
VERTEX
  8
SPL3W5K_SMT
 10
4.7090
 20
0.5600
 30
0.0000
  0
SEQEND
  0
POLYLINE
  8
SPL3W5K_SMT
 66
1
 10
0.0000
 20
0.0000
 30
0.0000
 40
0.0100
 41
0.0100
  0
VERTEX
  8
SPL3W5K_SMT
 10
4.7000
 20
0.9000
 30
0.0000
  0
VERTEX
  8
SPL3W5K_SMT
 10
4.7000
 20
0.5600
 30
0.0000
  0
SEQEND
  0
POLYLINE
  8
SPL3W5K_SMT
 66
1
 10
0.0000
 20
0.0000
 30
0.0000
 40
0.0100
 41
0.0100
  0
VERTEX
  8
SPL3W5K_SMT
 10
4.6910
 20
0.9000
 30
0.0000
  0
VERTEX
  8
SPL3W5K_SMT
 10
4.6910
 20
0.5600
 30
0.0000
  0
SEQEND
  0
POLYLINE
  8
SPL3W5K_SMT
 66
1
 10
0.0000
 20
0.0000
 30
0.0000
 40
0.0100
 41
0.0100
  0
VERTEX
  8
SPL3W5K_SMT
 10
4.6820
 20
0.9000
 30
0.0000
  0
VERTEX
  8
SPL3W5K_SMT
 10
4.6820
 20
0.5600
 30
0.0000
  0
SEQEND
  0
POLYLINE
  8
SPL3W5K_SMT
 66
1
 10
0.0000
 20
0.0000
 30
0.0000
 40
0.0100
 41
0.0100
  0
VERTEX
  8
SPL3W5K_SMT
 10
4.6730
 20
0.9000
 30
0.0000
  0
VERTEX
  8
SPL3W5K_SMT
 10
4.6730
 20
0.5600
 30
0.0000
  0
SEQEND
  0
POLYLINE
  8
SPL3W5K_SMT
 66
1
 10
0.0000
 20
0.0000
 30
0.0000
 40
0.0100
 41
0.0100
  0
VERTEX
  8
SPL3W5K_SMT
 10
4.6640
 20
0.9000
 30
0.0000
  0
VERTEX
  8
SPL3W5K_SMT
 10
4.6640
 20
0.5600
 30
0.0000
  0
SEQEND
  0
POLYLINE
  8
SPL3W5K_SMT
 66
1
 10
0.0000
 20
0.0000
 30
0.0000
 40
0.0100
 41
0.0100
  0
VERTEX
  8
SPL3W5K_SMT
 10
4.6550
 20
0.9000
 30
0.0000
  0
VERTEX
  8
SPL3W5K_SMT
 10
4.6550
 20
0.5600
 30
0.0000
  0
SEQEND
  0
POLYLINE
  8
SPL3W5K_SMT
 66
1
 10
0.0000
 20
0.0000
 30
0.0000
 40
0.0100
 41
0.0100
  0
VERTEX
  8
SPL3W5K_SMT
 10
4.6460
 20
0.9000
 30
0.0000
  0
VERTEX
  8
SPL3W5K_SMT
 10
4.6460
 20
0.5600
 30
0.0000
  0
SEQEND
  0
POLYLINE
  8
SPL3W5K_SMT
 66
1
 10
0.0000
 20
0.0000
 30
0.0000
 40
0.0100
 41
0.0100
  0
VERTEX
  8
SPL3W5K_SMT
 10
4.6370
 20
0.9000
 30
0.0000
  0
VERTEX
  8
SPL3W5K_SMT
 10
4.6370
 20
0.5600
 30
0.0000
  0
SEQEND
  0
POLYLINE
  8
SPL3W5K_SMT
 66
1
 10
0.0000
 20
0.0000
 30
0.0000
 40
0.0100
 41
0.0100
  0
VERTEX
  8
SPL3W5K_SMT
 10
4.6280
 20
0.9000
 30
0.0000
  0
VERTEX
  8
SPL3W5K_SMT
 10
4.6280
 20
0.5600
 30
0.0000
  0
SEQEND
  0
POLYLINE
  8
SPL3W5K_SMT
 66
1
 10
0.0000
 20
0.0000
 30
0.0000
 40
0.0100
 41
0.0100
  0
VERTEX
  8
SPL3W5K_SMT
 10
4.6190
 20
0.9000
 30
0.0000
  0
VERTEX
  8
SPL3W5K_SMT
 10
4.6190
 20
0.5600
 30
0.0000
  0
SEQEND
  0
POLYLINE
  8
SPL3W5K_SMT
 66
1
 10
0.0000
 20
0.0000
 30
0.0000
 40
0.0100
 41
0.0100
  0
VERTEX
  8
SPL3W5K_SMT
 10
4.9450
 20
0.8970
 30
0.0000
  0
VERTEX
  8
SPL3W5K_SMT
 10
4.6150
 20
0.8970
 30
0.0000
  0
SEQEND
  0
POLYLINE
  8
SPL3W5K_SMT
 66
1
 10
0.0000
 20
0.0000
 30
0.0000
 40
0.0100
 41
0.0100
  0
VERTEX
  8
SPL3W5K_SMT
 10
4.9450
 20
0.8880
 30
0.0000
  0
VERTEX
  8
SPL3W5K_SMT
 10
4.6150
 20
0.8880
 30
0.0000
  0
SEQEND
  0
POLYLINE
  8
SPL3W5K_SMT
 66
1
 10
0.0000
 20
0.0000
 30
0.0000
 40
0.0100
 41
0.0100
  0
VERTEX
  8
SPL3W5K_SMT
 10
4.9450
 20
0.8790
 30
0.0000
  0
VERTEX
  8
SPL3W5K_SMT
 10
4.6150
 20
0.8790
 30
0.0000
  0
SEQEND
  0
POLYLINE
  8
SPL3W5K_SMT
 66
1
 10
0.0000
 20
0.0000
 30
0.0000
 40
0.0100
 41
0.0100
  0
VERTEX
  8
SPL3W5K_SMT
 10
4.9450
 20
0.8700
 30
0.0000
  0
VERTEX
  8
SPL3W5K_SMT
 10
4.6150
 20
0.8700
 30
0.0000
  0
SEQEND
  0
POLYLINE
  8
SPL3W5K_SMT
 66
1
 10
0.0000
 20
0.0000
 30
0.0000
 40
0.0100
 41
0.0100
  0
VERTEX
  8
SPL3W5K_SMT
 10
4.9450
 20
0.8610
 30
0.0000
  0
VERTEX
  8
SPL3W5K_SMT
 10
4.6150
 20
0.8610
 30
0.0000
  0
SEQEND
  0
POLYLINE
  8
SPL3W5K_SMT
 66
1
 10
0.0000
 20
0.0000
 30
0.0000
 40
0.0100
 41
0.0100
  0
VERTEX
  8
SPL3W5K_SMT
 10
4.9450
 20
0.8520
 30
0.0000
  0
VERTEX
  8
SPL3W5K_SMT
 10
4.6150
 20
0.8520
 30
0.0000
  0
SEQEND
  0
POLYLINE
  8
SPL3W5K_SMT
 66
1
 10
0.0000
 20
0.0000
 30
0.0000
 40
0.0100
 41
0.0100
  0
VERTEX
  8
SPL3W5K_SMT
 10
4.9450
 20
0.8430
 30
0.0000
  0
VERTEX
  8
SPL3W5K_SMT
 10
4.6150
 20
0.8430
 30
0.0000
  0
SEQEND
  0
POLYLINE
  8
SPL3W5K_SMT
 66
1
 10
0.0000
 20
0.0000
 30
0.0000
 40
0.0100
 41
0.0100
  0
VERTEX
  8
SPL3W5K_SMT
 10
4.9450
 20
0.8340
 30
0.0000
  0
VERTEX
  8
SPL3W5K_SMT
 10
4.6150
 20
0.8340
 30
0.0000
  0
SEQEND
  0
POLYLINE
  8
SPL3W5K_SMT
 66
1
 10
0.0000
 20
0.0000
 30
0.0000
 40
0.0100
 41
0.0100
  0
VERTEX
  8
SPL3W5K_SMT
 10
4.9450
 20
0.8250
 30
0.0000
  0
VERTEX
  8
SPL3W5K_SMT
 10
4.6150
 20
0.8250
 30
0.0000
  0
SEQEND
  0
POLYLINE
  8
SPL3W5K_SMT
 66
1
 10
0.0000
 20
0.0000
 30
0.0000
 40
0.0100
 41
0.0100
  0
VERTEX
  8
SPL3W5K_SMT
 10
4.9450
 20
0.8160
 30
0.0000
  0
VERTEX
  8
SPL3W5K_SMT
 10
4.6150
 20
0.8160
 30
0.0000
  0
SEQEND
  0
POLYLINE
  8
SPL3W5K_SMT
 66
1
 10
0.0000
 20
0.0000
 30
0.0000
 40
0.0100
 41
0.0100
  0
VERTEX
  8
SPL3W5K_SMT
 10
4.9450
 20
0.8070
 30
0.0000
  0
VERTEX
  8
SPL3W5K_SMT
 10
4.6150
 20
0.8070
 30
0.0000
  0
SEQEND
  0
POLYLINE
  8
SPL3W5K_SMT
 66
1
 10
0.0000
 20
0.0000
 30
0.0000
 40
0.0100
 41
0.0100
  0
VERTEX
  8
SPL3W5K_SMT
 10
4.9450
 20
0.7980
 30
0.0000
  0
VERTEX
  8
SPL3W5K_SMT
 10
4.6150
 20
0.7980
 30
0.0000
  0
SEQEND
  0
POLYLINE
  8
SPL3W5K_SMT
 66
1
 10
0.0000
 20
0.0000
 30
0.0000
 40
0.0100
 41
0.0100
  0
VERTEX
  8
SPL3W5K_SMT
 10
4.9450
 20
0.7890
 30
0.0000
  0
VERTEX
  8
SPL3W5K_SMT
 10
4.6150
 20
0.7890
 30
0.0000
  0
SEQEND
  0
POLYLINE
  8
SPL3W5K_SMT
 66
1
 10
0.0000
 20
0.0000
 30
0.0000
 40
0.0100
 41
0.0100
  0
VERTEX
  8
SPL3W5K_SMT
 10
4.9450
 20
0.7800
 30
0.0000
  0
VERTEX
  8
SPL3W5K_SMT
 10
4.6150
 20
0.7800
 30
0.0000
  0
SEQEND
  0
POLYLINE
  8
SPL3W5K_SMT
 66
1
 10
0.0000
 20
0.0000
 30
0.0000
 40
0.0100
 41
0.0100
  0
VERTEX
  8
SPL3W5K_SMT
 10
4.9450
 20
0.7710
 30
0.0000
  0
VERTEX
  8
SPL3W5K_SMT
 10
4.6150
 20
0.7710
 30
0.0000
  0
SEQEND
  0
POLYLINE
  8
SPL3W5K_SMT
 66
1
 10
0.0000
 20
0.0000
 30
0.0000
 40
0.0100
 41
0.0100
  0
VERTEX
  8
SPL3W5K_SMT
 10
4.9450
 20
0.7620
 30
0.0000
  0
VERTEX
  8
SPL3W5K_SMT
 10
4.6150
 20
0.7620
 30
0.0000
  0
SEQEND
  0
POLYLINE
  8
SPL3W5K_SMT
 66
1
 10
0.0000
 20
0.0000
 30
0.0000
 40
0.0100
 41
0.0100
  0
VERTEX
  8
SPL3W5K_SMT
 10
4.9450
 20
0.7530
 30
0.0000
  0
VERTEX
  8
SPL3W5K_SMT
 10
4.6150
 20
0.7530
 30
0.0000
  0
SEQEND
  0
POLYLINE
  8
SPL3W5K_SMT
 66
1
 10
0.0000
 20
0.0000
 30
0.0000
 40
0.0100
 41
0.0100
  0
VERTEX
  8
SPL3W5K_SMT
 10
4.9450
 20
0.7440
 30
0.0000
  0
VERTEX
  8
SPL3W5K_SMT
 10
4.6150
 20
0.7440
 30
0.0000
  0
SEQEND
  0
POLYLINE
  8
SPL3W5K_SMT
 66
1
 10
0.0000
 20
0.0000
 30
0.0000
 40
0.0100
 41
0.0100
  0
VERTEX
  8
SPL3W5K_SMT
 10
4.9450
 20
0.7350
 30
0.0000
  0
VERTEX
  8
SPL3W5K_SMT
 10
4.6150
 20
0.7350
 30
0.0000
  0
SEQEND
  0
POLYLINE
  8
SPL3W5K_SMT
 66
1
 10
0.0000
 20
0.0000
 30
0.0000
 40
0.0100
 41
0.0100
  0
VERTEX
  8
SPL3W5K_SMT
 10
4.9450
 20
0.7260
 30
0.0000
  0
VERTEX
  8
SPL3W5K_SMT
 10
4.6150
 20
0.7260
 30
0.0000
  0
SEQEND
  0
POLYLINE
  8
SPL3W5K_SMT
 66
1
 10
0.0000
 20
0.0000
 30
0.0000
 40
0.0100
 41
0.0100
  0
VERTEX
  8
SPL3W5K_SMT
 10
4.9450
 20
0.7170
 30
0.0000
  0
VERTEX
  8
SPL3W5K_SMT
 10
4.6150
 20
0.7170
 30
0.0000
  0
SEQEND
  0
POLYLINE
  8
SPL3W5K_SMT
 66
1
 10
0.0000
 20
0.0000
 30
0.0000
 40
0.0100
 41
0.0100
  0
VERTEX
  8
SPL3W5K_SMT
 10
4.9450
 20
0.7080
 30
0.0000
  0
VERTEX
  8
SPL3W5K_SMT
 10
4.6150
 20
0.7080
 30
0.0000
  0
SEQEND
  0
POLYLINE
  8
SPL3W5K_SMT
 66
1
 10
0.0000
 20
0.0000
 30
0.0000
 40
0.0100
 41
0.0100
  0
VERTEX
  8
SPL3W5K_SMT
 10
4.9450
 20
0.6990
 30
0.0000
  0
VERTEX
  8
SPL3W5K_SMT
 10
4.6150
 20
0.6990
 30
0.0000
  0
SEQEND
  0
POLYLINE
  8
SPL3W5K_SMT
 66
1
 10
0.0000
 20
0.0000
 30
0.0000
 40
0.0100
 41
0.0100
  0
VERTEX
  8
SPL3W5K_SMT
 10
4.9450
 20
0.6900
 30
0.0000
  0
VERTEX
  8
SPL3W5K_SMT
 10
4.6150
 20
0.6900
 30
0.0000
  0
SEQEND
  0
POLYLINE
  8
SPL3W5K_SMT
 66
1
 10
0.0000
 20
0.0000
 30
0.0000
 40
0.0100
 41
0.0100
  0
VERTEX
  8
SPL3W5K_SMT
 10
4.9450
 20
0.6810
 30
0.0000
  0
VERTEX
  8
SPL3W5K_SMT
 10
4.6150
 20
0.6810
 30
0.0000
  0
SEQEND
  0
POLYLINE
  8
SPL3W5K_SMT
 66
1
 10
0.0000
 20
0.0000
 30
0.0000
 40
0.0100
 41
0.0100
  0
VERTEX
  8
SPL3W5K_SMT
 10
4.9450
 20
0.6720
 30
0.0000
  0
VERTEX
  8
SPL3W5K_SMT
 10
4.6150
 20
0.6720
 30
0.0000
  0
SEQEND
  0
POLYLINE
  8
SPL3W5K_SMT
 66
1
 10
0.0000
 20
0.0000
 30
0.0000
 40
0.0100
 41
0.0100
  0
VERTEX
  8
SPL3W5K_SMT
 10
4.9450
 20
0.6630
 30
0.0000
  0
VERTEX
  8
SPL3W5K_SMT
 10
4.6150
 20
0.6630
 30
0.0000
  0
SEQEND
  0
POLYLINE
  8
SPL3W5K_SMT
 66
1
 10
0.0000
 20
0.0000
 30
0.0000
 40
0.0100
 41
0.0100
  0
VERTEX
  8
SPL3W5K_SMT
 10
4.9450
 20
0.6540
 30
0.0000
  0
VERTEX
  8
SPL3W5K_SMT
 10
4.6150
 20
0.6540
 30
0.0000
  0
SEQEND
  0
POLYLINE
  8
SPL3W5K_SMT
 66
1
 10
0.0000
 20
0.0000
 30
0.0000
 40
0.0100
 41
0.0100
  0
VERTEX
  8
SPL3W5K_SMT
 10
4.9450
 20
0.6450
 30
0.0000
  0
VERTEX
  8
SPL3W5K_SMT
 10
4.6150
 20
0.6450
 30
0.0000
  0
SEQEND
  0
POLYLINE
  8
SPL3W5K_SMT
 66
1
 10
0.0000
 20
0.0000
 30
0.0000
 40
0.0100
 41
0.0100
  0
VERTEX
  8
SPL3W5K_SMT
 10
4.9450
 20
0.6360
 30
0.0000
  0
VERTEX
  8
SPL3W5K_SMT
 10
4.6150
 20
0.6360
 30
0.0000
  0
SEQEND
  0
POLYLINE
  8
SPL3W5K_SMT
 66
1
 10
0.0000
 20
0.0000
 30
0.0000
 40
0.0100
 41
0.0100
  0
VERTEX
  8
SPL3W5K_SMT
 10
4.9450
 20
0.6270
 30
0.0000
  0
VERTEX
  8
SPL3W5K_SMT
 10
4.6150
 20
0.6270
 30
0.0000
  0
SEQEND
  0
POLYLINE
  8
SPL3W5K_SMT
 66
1
 10
0.0000
 20
0.0000
 30
0.0000
 40
0.0100
 41
0.0100
  0
VERTEX
  8
SPL3W5K_SMT
 10
4.9450
 20
0.6180
 30
0.0000
  0
VERTEX
  8
SPL3W5K_SMT
 10
4.6150
 20
0.6180
 30
0.0000
  0
SEQEND
  0
POLYLINE
  8
SPL3W5K_SMT
 66
1
 10
0.0000
 20
0.0000
 30
0.0000
 40
0.0100
 41
0.0100
  0
VERTEX
  8
SPL3W5K_SMT
 10
4.9450
 20
0.6090
 30
0.0000
  0
VERTEX
  8
SPL3W5K_SMT
 10
4.6150
 20
0.6090
 30
0.0000
  0
SEQEND
  0
POLYLINE
  8
SPL3W5K_SMT
 66
1
 10
0.0000
 20
0.0000
 30
0.0000
 40
0.0100
 41
0.0100
  0
VERTEX
  8
SPL3W5K_SMT
 10
4.9450
 20
0.6000
 30
0.0000
  0
VERTEX
  8
SPL3W5K_SMT
 10
4.6150
 20
0.6000
 30
0.0000
  0
SEQEND
  0
POLYLINE
  8
SPL3W5K_SMT
 66
1
 10
0.0000
 20
0.0000
 30
0.0000
 40
0.0100
 41
0.0100
  0
VERTEX
  8
SPL3W5K_SMT
 10
4.9450
 20
0.5910
 30
0.0000
  0
VERTEX
  8
SPL3W5K_SMT
 10
4.6150
 20
0.5910
 30
0.0000
  0
SEQEND
  0
POLYLINE
  8
SPL3W5K_SMT
 66
1
 10
0.0000
 20
0.0000
 30
0.0000
 40
0.0100
 41
0.0100
  0
VERTEX
  8
SPL3W5K_SMT
 10
4.9450
 20
0.5820
 30
0.0000
  0
VERTEX
  8
SPL3W5K_SMT
 10
4.6150
 20
0.5820
 30
0.0000
  0
SEQEND
  0
POLYLINE
  8
SPL3W5K_SMT
 66
1
 10
0.0000
 20
0.0000
 30
0.0000
 40
0.0100
 41
0.0100
  0
VERTEX
  8
SPL3W5K_SMT
 10
4.9450
 20
0.5730
 30
0.0000
  0
VERTEX
  8
SPL3W5K_SMT
 10
4.6150
 20
0.5730
 30
0.0000
  0
SEQEND
  0
POLYLINE
  8
SPL3W5K_SMT
 66
1
 10
0.0000
 20
0.0000
 30
0.0000
 40
0.0100
 41
0.0100
  0
VERTEX
  8
SPL3W5K_SMT
 10
4.9450
 20
0.5640
 30
0.0000
  0
VERTEX
  8
SPL3W5K_SMT
 10
4.6150
 20
0.5640
 30
0.0000
  0
SEQEND
  0
POLYLINE
  8
SPL3W5K_SMT
 66
1
 10
0.0000
 20
0.0000
 30
0.0000
 40
0.0100
 41
0.0100
  0
VERTEX
  8
SPL3W5K_SMT
 10
4.9450
 20
0.9000
 30
0.0000
  0
VERTEX
  8
SPL3W5K_SMT
 10
4.6150
 20
0.9000
 30
0.0000
  0
SEQEND
  0
POLYLINE
  8
SPL3W5K_SMT
 66
1
 10
0.0000
 20
0.0000
 30
0.0000
 40
0.0100
 41
0.0100
  0
VERTEX
  8
SPL3W5K_SMT
 10
4.9450
 20
0.9000
 30
0.0000
  0
VERTEX
  8
SPL3W5K_SMT
 10
4.9450
 20
0.5600
 30
0.0000
  0
VERTEX
  8
SPL3W5K_SMT
 10
4.6150
 20
0.5600
 30
0.0000
  0
SEQEND
  0
POLYLINE
  8
SPL3W5K_SMT
 66
1
 10
0.0000
 20
0.0000
 30
0.0000
 40
0.0100
 41
0.0100
  0
VERTEX
  8
SPL3W5K_SMT
 10
4.6150
 20
0.9000
 30
0.0000
  0
VERTEX
  8
SPL3W5K_SMT
 10
4.6150
 20
0.5600
 30
0.0000
  0
SEQEND
  0
POLYLINE
  8
SPL3W5K_SMT
 66
1
 10
0.0000
 20
0.0000
 30
0.0000
 40
0.0100
 41
0.0100
  0
VERTEX
  8
SPL3W5K_SMT
 10
4.9430
 20
0.9000
 30
0.0000
  0
VERTEX
  8
SPL3W5K_SMT
 10
4.9430
 20
0.5600
 30
0.0000
  0
SEQEND
  0
POLYLINE
  8
SPL3W5K_SMT
 66
1
 10
0.0000
 20
0.0000
 30
0.0000
 40
0.0100
 41
0.0100
  0
VERTEX
  8
SPL3W5K_SMT
 10
4.9340
 20
0.9000
 30
0.0000
  0
VERTEX
  8
SPL3W5K_SMT
 10
4.9340
 20
0.5600
 30
0.0000
  0
SEQEND
  0
POLYLINE
  8
SPL3W5K_SMT
 66
1
 10
0.0000
 20
0.0000
 30
0.0000
 40
0.0100
 41
0.0100
  0
VERTEX
  8
SPL3W5K_SMT
 10
4.9250
 20
0.9000
 30
0.0000
  0
VERTEX
  8
SPL3W5K_SMT
 10
4.9250
 20
0.5600
 30
0.0000
  0
SEQEND
  0
POLYLINE
  8
SPL3W5K_SMT
 66
1
 10
0.0000
 20
0.0000
 30
0.0000
 40
0.0100
 41
0.0100
  0
VERTEX
  8
SPL3W5K_SMT
 10
4.9160
 20
0.9000
 30
0.0000
  0
VERTEX
  8
SPL3W5K_SMT
 10
4.9160
 20
0.5600
 30
0.0000
  0
SEQEND
  0
POLYLINE
  8
SPL3W5K_SMT
 66
1
 10
0.0000
 20
0.0000
 30
0.0000
 40
0.0100
 41
0.0100
  0
VERTEX
  8
SPL3W5K_SMT
 10
4.9070
 20
0.9000
 30
0.0000
  0
VERTEX
  8
SPL3W5K_SMT
 10
4.9070
 20
0.5600
 30
0.0000
  0
SEQEND
  0
POLYLINE
  8
SPL3W5K_SMT
 66
1
 10
0.0000
 20
0.0000
 30
0.0000
 40
0.0100
 41
0.0100
  0
VERTEX
  8
SPL3W5K_SMT
 10
4.8980
 20
0.9000
 30
0.0000
  0
VERTEX
  8
SPL3W5K_SMT
 10
4.8980
 20
0.5600
 30
0.0000
  0
SEQEND
  0
POLYLINE
  8
SPL3W5K_SMT
 66
1
 10
0.0000
 20
0.0000
 30
0.0000
 40
0.0100
 41
0.0100
  0
VERTEX
  8
SPL3W5K_SMT
 10
4.8890
 20
0.9000
 30
0.0000
  0
VERTEX
  8
SPL3W5K_SMT
 10
4.8890
 20
0.5600
 30
0.0000
  0
SEQEND
  0
POLYLINE
  8
SPL3W5K_SMT
 66
1
 10
0.0000
 20
0.0000
 30
0.0000
 40
0.0100
 41
0.0100
  0
VERTEX
  8
SPL3W5K_SMT
 10
4.8800
 20
0.9000
 30
0.0000
  0
VERTEX
  8
SPL3W5K_SMT
 10
4.8800
 20
0.5600
 30
0.0000
  0
SEQEND
  0
POLYLINE
  8
SPL3W5K_SMT
 66
1
 10
0.0000
 20
0.0000
 30
0.0000
 40
0.0100
 41
0.0100
  0
VERTEX
  8
SPL3W5K_SMT
 10
4.8710
 20
0.9000
 30
0.0000
  0
VERTEX
  8
SPL3W5K_SMT
 10
4.8710
 20
0.5600
 30
0.0000
  0
SEQEND
  0
POLYLINE
  8
SPL3W5K_SMT
 66
1
 10
0.0000
 20
0.0000
 30
0.0000
 40
0.0100
 41
0.0100
  0
VERTEX
  8
SPL3W5K_SMT
 10
4.8620
 20
0.9000
 30
0.0000
  0
VERTEX
  8
SPL3W5K_SMT
 10
4.8620
 20
0.5600
 30
0.0000
  0
SEQEND
  0
ENDSEC
  0
EOF
