  0
SECTION
  2
HEADER
  9
$EXTMIN
 10
-0.2745
 20
-0.3270
 30
0.0000
  9
$EXTMAX
 10
4.5051
 20
2.6395
 30
0.0000
  0
ENDSEC
  0
SECTION
  2
TABLES
  0
TABLE
  2
LTYPE
 70
3
  0
LTYPE
  2
BYBLOCK
 70
0
  3

 72
65
 73
0
 40
0.0000
  0
LTYPE
  2
BYLAYER
 70
0
  3

 72
65
 73
0
 40
0.0000
  0
LTYPE
  2
CONTINUOUS
 70
0
  3
Solid line
 72
65
 73
0
 40
0.0000
  0
ENDTAB
  0
TABLE
  2
LAYER
 70
2
  0
LAYER
  2
0
 70
0
 62
7
  6
CONTINUOUS
  0
LAYER
  2
PA2011_DRD
 70
0
 62
6
  6
CONTINUOUS
  0
LAYER
  2
PA2011_SMT
 70
0
 62
1
  6
CONTINUOUS
  0
ENDTAB
  0
TABLE
  2
STYLE
 70
1
  0
STYLE
  2
STYLE_0
 70
0
 40
0.065625
 41
1.0000
 50
0.0000
 71
0
 42
0.1000
  3
TXT
  0
ENDTAB
  0
ENDSEC
  0
SECTION
  2
BLOCKS
  0
BLOCK
  2
ROUND_1
  3
ROUND_1
 70
64
 10
0.0000
 20
0.0000
 30
0.0000
  0
CIRCLE
  8
0
 10
0.0000
 20
0.0000
 30
0.0000
 40
0.1250
  0
ENDBLK
  0
BLOCK
  2
RECTANGLE_24
  3
RECTANGLE_24
 70
64
 10
0.0000
 20
0.0000
 30
0.0000
  0
SOLID
  8
0
 10
0.1250
 20
0.0500
 30
0.0000
 11
0.1250
 21
-0.0500
 31
0.0000
 12
-0.1250
 22
0.0500
 32
0.0000
 13
-0.1250
 23
-0.0500
 33
0.0000
  0
ENDBLK
  0
BLOCK
  2
ROUND_25
  3
ROUND_25
 70
64
 10
0.0000
 20
0.0000
 30
0.0000
  0
CIRCLE
  8
0
 10
0.0000
 20
0.0000
 30
0.0000
 40
0.0050
  0
ENDBLK
  0
BLOCK
  2
ROUND_44
  3
ROUND_44
 70
64
 10
0.0000
 20
0.0000
 30
0.0000
  0
CIRCLE
  8
0
 10
0.0000
 20
0.0000
 30
0.0000
 40
0.0020
  0
ENDBLK
  0
ENDSEC
  0
SECTION
  2
ENTITIES
  0
POLYLINE
  8
PA2011_DRD
 66
1
 10
0.0000
 20
0.0000
 30
0.0000
 40
0.0100
 41
0.0100
  0
VERTEX
  8
PA2011_DRD
 10
2.3361
 20
2.4928
 30
0.0000
  0
VERTEX
  8
PA2011_DRD
 10
2.3278
 20
2.5011
 30
0.0000
  0
VERTEX
  8
PA2011_DRD
 10
2.3237
 20
2.5095
 30
0.0000
  0
SEQEND
  0
POLYLINE
  8
PA2011_DRD
 66
1
 10
0.0000
 20
0.0000
 30
0.0000
 40
0.0100
 41
0.0100
  0
VERTEX
  8
PA2011_DRD
 10
2.3236
 20
2.5095
 30
0.0000
  0
VERTEX
  8
PA2011_DRD
 10
2.3237
 20
2.5262
 30
0.0000
  0
SEQEND
  0
POLYLINE
  8
PA2011_DRD
 66
1
 10
0.0000
 20
0.0000
 30
0.0000
 40
0.0100
 41
0.0100
  0
VERTEX
  8
PA2011_DRD
 10
2.3236
 20
2.5262
 30
0.0000
  0
VERTEX
  8
PA2011_DRD
 10
2.3278
 20
2.5345
 30
0.0000
  0
VERTEX
  8
PA2011_DRD
 10
2.3362
 20
2.5428
 30
0.0000
  0
SEQEND
  0
POLYLINE
  8
PA2011_DRD
 66
1
 10
0.0000
 20
0.0000
 30
0.0000
 40
0.0100
 41
0.0100
  0
VERTEX
  8
PA2011_DRD
 10
2.3361
 20
2.5428
 30
0.0000
  0
VERTEX
  8
PA2011_DRD
 10
2.3445
 20
2.5428
 30
0.0000
  0
VERTEX
  8
PA2011_DRD
 10
2.3528
 20
2.5345
 30
0.0000
  0
VERTEX
  8
PA2011_DRD
 10
2.3570
 20
2.5262
 30
0.0000
  0
VERTEX
  8
PA2011_DRD
 10
2.3570
 20
2.5095
 30
0.0000
  0
VERTEX
  8
PA2011_DRD
 10
2.3528
 20
2.5011
 30
0.0000
  0
VERTEX
  8
PA2011_DRD
 10
2.3445
 20
2.4928
 30
0.0000
  0
VERTEX
  8
PA2011_DRD
 10
2.3362
 20
2.4928
 30
0.0000
  0
SEQEND
  0
POLYLINE
  8
PA2011_DRD
 66
1
 10
0.0000
 20
0.0000
 30
0.0000
 40
0.0100
 41
0.0100
  0
VERTEX
  8
PA2011_DRD
 10
2.2786
 20
2.4928
 30
0.0000
  0
VERTEX
  8
PA2011_DRD
 10
2.2703
 20
2.5011
 30
0.0000
  0
VERTEX
  8
PA2011_DRD
 10
2.2662
 20
2.5095
 30
0.0000
  0
SEQEND
  0
POLYLINE
  8
PA2011_DRD
 66
1
 10
0.0000
 20
0.0000
 30
0.0000
 40
0.0100
 41
0.0100
  0
VERTEX
  8
PA2011_DRD
 10
2.2661
 20
2.5095
 30
0.0000
  0
VERTEX
  8
PA2011_DRD
 10
2.2662
 20
2.5262
 30
0.0000
  0
SEQEND
  0
POLYLINE
  8
PA2011_DRD
 66
1
 10
0.0000
 20
0.0000
 30
0.0000
 40
0.0100
 41
0.0100
  0
VERTEX
  8
PA2011_DRD
 10
2.2661
 20
2.5262
 30
0.0000
  0
VERTEX
  8
PA2011_DRD
 10
2.2703
 20
2.5345
 30
0.0000
  0
VERTEX
  8
PA2011_DRD
 10
2.2787
 20
2.5428
 30
0.0000
  0
SEQEND
  0
POLYLINE
  8
PA2011_DRD
 66
1
 10
0.0000
 20
0.0000
 30
0.0000
 40
0.0100
 41
0.0100
  0
VERTEX
  8
PA2011_DRD
 10
2.2786
 20
2.5428
 30
0.0000
  0
VERTEX
  8
PA2011_DRD
 10
2.2870
 20
2.5428
 30
0.0000
  0
VERTEX
  8
PA2011_DRD
 10
2.2953
 20
2.5345
 30
0.0000
  0
VERTEX
  8
PA2011_DRD
 10
2.2995
 20
2.5262
 30
0.0000
  0
VERTEX
  8
PA2011_DRD
 10
2.2995
 20
2.5095
 30
0.0000
  0
VERTEX
  8
PA2011_DRD
 10
2.2953
 20
2.5011
 30
0.0000
  0
VERTEX
  8
PA2011_DRD
 10
2.2870
 20
2.4928
 30
0.0000
  0
VERTEX
  8
PA2011_DRD
 10
2.2787
 20
2.4928
 30
0.0000
  0
SEQEND
  0
POLYLINE
  8
PA2011_DRD
 66
1
 10
0.0000
 20
0.0000
 30
0.0000
 40
0.0100
 41
0.0100
  0
VERTEX
  8
PA2011_DRD
 10
2.2086
 20
2.5011
 30
0.0000
  0
VERTEX
  8
PA2011_DRD
 10
2.2128
 20
2.4928
 30
0.0000
  0
VERTEX
  8
PA2011_DRD
 10
2.2378
 20
2.4928
 30
0.0000
  0
VERTEX
  8
PA2011_DRD
 10
2.2420
 20
2.5011
 30
0.0000
  0
VERTEX
  8
PA2011_DRD
 10
2.2420
 20
2.5178
 30
0.0000
  0
VERTEX
  8
PA2011_DRD
 10
2.2336
 20
2.5262
 30
0.0000
  0
VERTEX
  8
PA2011_DRD
 10
2.2087
 20
2.5262
 30
0.0000
  0
SEQEND
  0
POLYLINE
  8
PA2011_DRD
 66
1
 10
0.0000
 20
0.0000
 30
0.0000
 40
0.0100
 41
0.0100
  0
VERTEX
  8
PA2011_DRD
 10
2.2086
 20
2.5262
 30
0.0000
  0
VERTEX
  8
PA2011_DRD
 10
2.2087
 20
2.5428
 30
0.0000
  0
SEQEND
  0
POLYLINE
  8
PA2011_DRD
 66
1
 10
0.0000
 20
0.0000
 30
0.0000
 40
0.0100
 41
0.0100
  0
VERTEX
  8
PA2011_DRD
 10
2.2086
 20
2.5428
 30
0.0000
  0
VERTEX
  8
PA2011_DRD
 10
2.2420
 20
2.5428
 30
0.0000
  0
SEQEND
  0
POLYLINE
  8
PA2011_DRD
 66
1
 10
0.0000
 20
0.0000
 30
0.0000
 40
0.0100
 41
0.0100
  0
VERTEX
  8
PA2011_DRD
 10
2.1845
 20
2.5095
 30
0.0000
  0
VERTEX
  8
PA2011_DRD
 10
2.1512
 20
2.5095
 30
0.0000
  0
SEQEND
  0
POLYLINE
  8
PA2011_DRD
 66
1
 10
0.0000
 20
0.0000
 30
0.0000
 40
0.0100
 41
0.0100
  0
VERTEX
  8
PA2011_DRD
 10
2.1511
 20
2.5095
 30
0.0000
  0
VERTEX
  8
PA2011_DRD
 10
2.1678
 20
2.5428
 30
0.0000
  0
VERTEX
  8
PA2011_DRD
 10
2.1761
 20
2.5428
 30
0.0000
  0
VERTEX
  8
PA2011_DRD
 10
2.1761
 20
2.4928
 30
0.0000
  0
SEQEND
  0
POLYLINE
  8
PA2011_DRD
 66
1
 10
0.0000
 20
0.0000
 30
0.0000
 40
0.0100
 41
0.0100
  0
VERTEX
  8
PA2011_DRD
 10
-0.1278
 20
1.2113
 30
0.0000
  0
VERTEX
  8
PA2011_DRD
 10
-0.1361
 20
1.2029
 30
0.0000
  0
VERTEX
  8
PA2011_DRD
 10
-0.1445
 20
1.1988
 30
0.0000
  0
VERTEX
  8
PA2011_DRD
 10
-0.1612
 20
1.1988
 30
0.0000
  0
VERTEX
  8
PA2011_DRD
 10
-0.1695
 20
1.2029
 30
0.0000
  0
VERTEX
  8
PA2011_DRD
 10
-0.1778
 20
1.2113
 30
0.0000
  0
VERTEX
  8
PA2011_DRD
 10
-0.1778
 20
1.2196
 30
0.0000
  0
VERTEX
  8
PA2011_DRD
 10
-0.1695
 20
1.2279
 30
0.0000
  0
VERTEX
  8
PA2011_DRD
 10
-0.1612
 20
1.2321
 30
0.0000
  0
VERTEX
  8
PA2011_DRD
 10
-0.1445
 20
1.2321
 30
0.0000
  0
VERTEX
  8
PA2011_DRD
 10
-0.1361
 20
1.2279
 30
0.0000
  0
VERTEX
  8
PA2011_DRD
 10
-0.1278
 20
1.2196
 30
0.0000
  0
VERTEX
  8
PA2011_DRD
 10
-0.1278
 20
1.2113
 30
0.0000
  0
SEQEND
  0
POLYLINE
  8
PA2011_DRD
 66
1
 10
0.0000
 20
0.0000
 30
0.0000
 40
0.0100
 41
0.0100
  0
VERTEX
  8
PA2011_DRD
 10
-0.1361
 20
1.1413
 30
0.0000
  0
VERTEX
  8
PA2011_DRD
 10
-0.1278
 20
1.1454
 30
0.0000
  0
VERTEX
  8
PA2011_DRD
 10
-0.1278
 20
1.1704
 30
0.0000
  0
VERTEX
  8
PA2011_DRD
 10
-0.1361
 20
1.1746
 30
0.0000
  0
VERTEX
  8
PA2011_DRD
 10
-0.1528
 20
1.1746
 30
0.0000
  0
VERTEX
  8
PA2011_DRD
 10
-0.1612
 20
1.1663
 30
0.0000
  0
VERTEX
  8
PA2011_DRD
 10
-0.1612
 20
1.1413
 30
0.0000
  0
VERTEX
  8
PA2011_DRD
 10
-0.1778
 20
1.1413
 30
0.0000
  0
VERTEX
  8
PA2011_DRD
 10
-0.1778
 20
1.1746
 30
0.0000
  0
SEQEND
  0
POLYLINE
  8
PA2011_DRD
 66
1
 10
0.0000
 20
0.0000
 30
0.0000
 40
0.0100
 41
0.0100
  0
VERTEX
  8
PA2011_DRD
 10
-0.1278
 20
1.1171
 30
0.0000
  0
VERTEX
  8
PA2011_DRD
 10
-0.1278
 20
1.0838
 30
0.0000
  0
VERTEX
  8
PA2011_DRD
 10
-0.1612
 20
1.1171
 30
0.0000
  0
VERTEX
  8
PA2011_DRD
 10
-0.1695
 20
1.1171
 30
0.0000
  0
VERTEX
  8
PA2011_DRD
 10
-0.1778
 20
1.1129
 30
0.0000
  0
VERTEX
  8
PA2011_DRD
 10
-0.1778
 20
1.0879
 30
0.0000
  0
VERTEX
  8
PA2011_DRD
 10
-0.1695
 20
1.0838
 30
0.0000
  0
SEQEND
  0
POLYLINE
  8
PA2011_DRD
 66
1
 10
0.0000
 20
0.0000
 30
0.0000
 40
0.0100
 41
0.0100
  0
VERTEX
  8
PA2011_DRD
 10
-0.1278
 20
1.0596
 30
0.0000
  0
VERTEX
  8
PA2011_DRD
 10
-0.1278
 20
1.0263
 30
0.0000
  0
VERTEX
  8
PA2011_DRD
 10
-0.1612
 20
1.0596
 30
0.0000
  0
VERTEX
  8
PA2011_DRD
 10
-0.1695
 20
1.0596
 30
0.0000
  0
VERTEX
  8
PA2011_DRD
 10
-0.1778
 20
1.0554
 30
0.0000
  0
VERTEX
  8
PA2011_DRD
 10
-0.1778
 20
1.0304
 30
0.0000
  0
VERTEX
  8
PA2011_DRD
 10
-0.1695
 20
1.0263
 30
0.0000
  0
SEQEND
  0
POLYLINE
  8
PA2011_DRD
 66
1
 10
0.0000
 20
0.0000
 30
0.0000
 40
0.0100
 41
0.0100
  0
VERTEX
  8
PA2011_DRD
 10
4.5001
 20
2.6345
 30
0.0000
  0
VERTEX
  8
PA2011_DRD
 10
4.5001
 20
2.4095
 30
0.0000
  0
SEQEND
  0
POLYLINE
  8
PA2011_DRD
 66
1
 10
0.0000
 20
0.0000
 30
0.0000
 40
0.0100
 41
0.0100
  0
VERTEX
  8
PA2011_DRD
 10
2.4091
 20
2.5220
 30
0.0000
  0
VERTEX
  8
PA2011_DRD
 10
4.5001
 20
2.5220
 30
0.0000
  0
SEQEND
  0
POLYLINE
  8
PA2011_DRD
 66
1
 10
0.0000
 20
0.0000
 30
0.0000
 40
0.0100
 41
0.0100
  0
VERTEX
  8
PA2011_DRD
 10
4.4438
 20
2.5407
 30
0.0000
  0
VERTEX
  8
PA2011_DRD
 10
4.5001
 20
2.5220
 30
0.0000
  0
VERTEX
  8
PA2011_DRD
 10
4.4438
 20
2.5032
 30
0.0000
  0
SEQEND
  0
POLYLINE
  8
PA2011_DRD
 66
1
 10
0.0000
 20
0.0000
 30
0.0000
 40
0.0100
 41
0.0100
  0
VERTEX
  8
PA2011_DRD
 10
-0.0445
 20
2.2501
 30
0.0000
  0
VERTEX
  8
PA2011_DRD
 10
-0.2695
 20
2.2501
 30
0.0000
  0
SEQEND
  0
POLYLINE
  8
PA2011_DRD
 66
1
 10
0.0000
 20
0.0000
 30
0.0000
 40
0.0100
 41
0.0100
  0
VERTEX
  8
PA2011_DRD
 10
-0.1570
 20
1.2842
 30
0.0000
  0
VERTEX
  8
PA2011_DRD
 10
-0.1570
 20
2.2501
 30
0.0000
  0
SEQEND
  0
POLYLINE
  8
PA2011_DRD
 66
1
 10
0.0000
 20
0.0000
 30
0.0000
 40
0.0100
 41
0.0100
  0
VERTEX
  8
PA2011_DRD
 10
-0.1757
 20
2.1938
 30
0.0000
  0
VERTEX
  8
PA2011_DRD
 10
-0.1570
 20
2.2501
 30
0.0000
  0
VERTEX
  8
PA2011_DRD
 10
-0.1382
 20
2.1938
 30
0.0000
  0
SEQEND
  0
POLYLINE
  8
PA2011_DRD
 66
1
 10
0.0000
 20
0.0000
 30
0.0000
 40
0.0100
 41
0.0100
  0
VERTEX
  8
PA2011_DRD
 10
-0.0445
 20
0.0000
 30
0.0000
  0
VERTEX
  8
PA2011_DRD
 10
-0.2695
 20
0.0000
 30
0.0000
  0
SEQEND
  0
POLYLINE
  8
PA2011_DRD
 66
1
 10
0.0000
 20
0.0000
 30
0.0000
 40
0.0100
 41
0.0100
  0
VERTEX
  8
PA2011_DRD
 10
-0.1570
 20
0.9659
 30
0.0000
  0
VERTEX
  8
PA2011_DRD
 10
-0.1570
 20
0.0000
 30
0.0000
  0
SEQEND
  0
POLYLINE
  8
PA2011_DRD
 66
1
 10
0.0000
 20
0.0000
 30
0.0000
 40
0.0100
 41
0.0100
  0
VERTEX
  8
PA2011_DRD
 10
-0.1382
 20
0.0562
 30
0.0000
  0
VERTEX
  8
PA2011_DRD
 10
-0.1570
 20
0.0000
 30
0.0000
  0
VERTEX
  8
PA2011_DRD
 10
-0.1757
 20
0.0562
 30
0.0000
  0
SEQEND
  0
POLYLINE
  8
PA2011_DRD
 66
1
 10
0.0000
 20
0.0000
 30
0.0000
 40
0.0100
 41
0.0100
  0
VERTEX
  8
PA2011_DRD
 10
-0.0002
 20
2.6345
 30
0.0000
  0
VERTEX
  8
PA2011_DRD
 10
-0.0002
 20
2.3950
 30
0.0000
  0
SEQEND
  0
POLYLINE
  8
PA2011_DRD
 66
1
 10
0.0000
 20
0.0000
 30
0.0000
 40
0.0100
 41
0.0100
  0
VERTEX
  8
PA2011_DRD
 10
2.0907
 20
2.5220
 30
0.0000
  0
VERTEX
  8
PA2011_DRD
 10
-0.0002
 20
2.5220
 30
0.0000
  0
SEQEND
  0
POLYLINE
  8
PA2011_DRD
 66
1
 10
0.0000
 20
0.0000
 30
0.0000
 40
0.0100
 41
0.0100
  0
VERTEX
  8
PA2011_DRD
 10
0.0560
 20
2.5032
 30
0.0000
  0
VERTEX
  8
PA2011_DRD
 10
-0.0002
 20
2.5220
 30
0.0000
  0
VERTEX
  8
PA2011_DRD
 10
0.0560
 20
2.5407
 30
0.0000
  0
SEQEND
  0
POLYLINE
  8
PA2011_DRD
 66
1
 10
0.0000
 20
0.0000
 30
0.0000
 40
0.0100
 41
0.0100
  0
VERTEX
  8
PA2011_DRD
 10
0.0000
 20
-0.0010
 30
0.0000
  0
VERTEX
  8
PA2011_DRD
 10
0.0000
 20
2.2490
 30
0.0000
  0
VERTEX
  8
PA2011_DRD
 10
4.5000
 20
2.2490
 30
0.0000
  0
VERTEX
  8
PA2011_DRD
 10
4.5000
 20
-0.0010
 30
0.0000
  0
VERTEX
  8
PA2011_DRD
 10
0.0000
 20
-0.0010
 30
0.0000
  0
SEQEND
  0
POLYLINE
  8
PA2011_DRD
 66
1
 10
0.0000
 20
0.0000
 30
0.0000
 40
0.0100
 41
0.0100
  0
VERTEX
  8
PA2011_DRD
 10
0.4260
 20
0.2000
 30
0.0000
  0
VERTEX
  8
PA2011_DRD
 10
0.3760
 20
0.2000
 30
0.0000
  0
SEQEND
  0
POLYLINE
  8
PA2011_DRD
 66
1
 10
0.0000
 20
0.0000
 30
0.0000
 40
0.0100
 41
0.0100
  0
VERTEX
  8
PA2011_DRD
 10
0.4010
 20
0.2250
 30
0.0000
  0
VERTEX
  8
PA2011_DRD
 10
0.4010
 20
0.1750
 30
0.0000
  0
SEQEND
  0
POLYLINE
  8
PA2011_DRD
 66
1
 10
0.0000
 20
0.0000
 30
0.0000
 40
0.0100
 41
0.0100
  0
VERTEX
  8
PA2011_DRD
 10
3.9980
 20
2.0500
 30
0.0000
  0
VERTEX
  8
PA2011_DRD
 10
3.9480
 20
2.0500
 30
0.0000
  0
SEQEND
  0
POLYLINE
  8
PA2011_DRD
 66
1
 10
0.0000
 20
0.0000
 30
0.0000
 40
0.0100
 41
0.0100
  0
VERTEX
  8
PA2011_DRD
 10
3.9730
 20
2.0750
 30
0.0000
  0
VERTEX
  8
PA2011_DRD
 10
3.9730
 20
2.0250
 30
0.0000
  0
SEQEND
  0
POLYLINE
  8
PA2011_DRD
 66
1
 10
0.0000
 20
0.0000
 30
0.0000
 40
0.0100
 41
0.0100
  0
VERTEX
  8
PA2011_DRD
 10
3.7040
 20
0.2000
 30
0.0000
  0
VERTEX
  8
PA2011_DRD
 10
3.6540
 20
0.2000
 30
0.0000
  0
SEQEND
  0
POLYLINE
  8
PA2011_DRD
 66
1
 10
0.0000
 20
0.0000
 30
0.0000
 40
0.0100
 41
0.0100
  0
VERTEX
  8
PA2011_DRD
 10
3.6790
 20
0.2250
 30
0.0000
  0
VERTEX
  8
PA2011_DRD
 10
3.6790
 20
0.1750
 30
0.0000
  0
SEQEND
  0
POLYLINE
  8
PA2011_DRD
 66
1
 10
0.0000
 20
0.0000
 30
0.0000
 40
0.0100
 41
0.0100
  0
VERTEX
  8
PA2011_DRD
 10
0.4120
 20
2.0500
 30
0.0000
  0
VERTEX
  8
PA2011_DRD
 10
0.3620
 20
2.0500
 30
0.0000
  0
SEQEND
  0
POLYLINE
  8
PA2011_DRD
 66
1
 10
0.0000
 20
0.0000
 30
0.0000
 40
0.0100
 41
0.0100
  0
VERTEX
  8
PA2011_DRD
 10
0.3870
 20
2.0750
 30
0.0000
  0
VERTEX
  8
PA2011_DRD
 10
0.3870
 20
2.0250
 30
0.0000
  0
SEQEND
  0
POLYLINE
  8
PA2011_DRD
 66
1
 10
0.0000
 20
0.0000
 30
0.0000
 40
0.0100
 41
0.0100
  0
VERTEX
  8
PA2011_DRD
 10
1.9990
 20
0.2620
 30
0.0000
  0
VERTEX
  8
PA2011_DRD
 10
1.9490
 20
0.2620
 30
0.0000
  0
SEQEND
  0
POLYLINE
  8
PA2011_DRD
 66
1
 10
0.0000
 20
0.0000
 30
0.0000
 40
0.0100
 41
0.0100
  0
VERTEX
  8
PA2011_DRD
 10
1.9740
 20
0.2870
 30
0.0000
  0
VERTEX
  8
PA2011_DRD
 10
1.9740
 20
0.2370
 30
0.0000
  0
SEQEND
  0
POLYLINE
  8
PA2011_DRD
 66
1
 10
0.0000
 20
0.0000
 30
0.0000
 40
0.0100
 41
0.0100
  0
VERTEX
  8
PA2011_DRD
 10
2.6020
 20
1.7500
 30
0.0000
  0
VERTEX
  8
PA2011_DRD
 10
2.5520
 20
1.7500
 30
0.0000
  0
SEQEND
  0
POLYLINE
  8
PA2011_DRD
 66
1
 10
0.0000
 20
0.0000
 30
0.0000
 40
0.0100
 41
0.0100
  0
VERTEX
  8
PA2011_DRD
 10
2.5770
 20
1.7750
 30
0.0000
  0
VERTEX
  8
PA2011_DRD
 10
2.5770
 20
1.7250
 30
0.0000
  0
SEQEND
  0
TEXT
  8
PA2011_DRD
 10
0.3250
 20
0.9500
 30
0.0000
 40
0.065625
 41
1.0000
 51
0.0000
 71
0
  1
RF Input
 50
0.0000
  7
STYLE_0
  0
TEXT
  8
PA2011_DRD
 10
3.7250
 20
0.9500
 30
0.0000
 40
0.065625
 41
1.0000
 51
0.0000
 71
0
  1
RF Output
 50
0.0000
  7
STYLE_0
  0
TEXT
  8
PA2011_DRD
 10
0.5500
 20
1.9750
 30
0.0000
 40
0.065625
 41
1.0000
 51
0.0000
 71
0
  1
28V @2.5A
 50
0.0000
  7
STYLE_0
  0
TEXT
  8
PA2011_DRD
 10
0.0000
 20
-0.1750
 30
0.0000
 40
0.065625
 41
1.0000
 51
0.0000
 71
0
  1
Notes: Units are in mils: 1 mil = .001 inches
 50
0.0000
  7
STYLE_0
  0
TEXT
  8
PA2011_DRD
 10
0.0000
 20
-0.3000
 30
0.0000
 40
0.065625
 41
1.0000
 51
0.0000
 71
0
  1
6 mounting holes "+" are 0.156 inch thru
 50
0.0000
  7
STYLE_0
  0
INSERT
  2
RECTANGLE_24
  8
PA2011_SMT
 10
0.1400
 20
0.9890
 30
0.0000
 41
1.0000
 42
1.0000
 50
0.0000
  0
INSERT
  2
RECTANGLE_24
  8
PA2011_SMT
 10
4.3620
 20
0.9890
 30
0.0000
 41
1.0000
 42
1.0000
 50
0.0000
  0
POLYLINE
  8
PA2011_SMT
 66
1
 10
0.0000
 20
0.0000
 30
0.0000
 40
0.0100
 41
0.0100
  0
VERTEX
  8
PA2011_SMT
 10
0.7590
 20
2.2270
 30
0.0000
  0
VERTEX
  8
PA2011_SMT
 10
0.7590
 20
2.0770
 30
0.0000
  0
SEQEND
  0
POLYLINE
  8
PA2011_SMT
 66
1
 10
0.0000
 20
0.0000
 30
0.0000
 40
0.0100
 41
0.0100
  0
VERTEX
  8
PA2011_SMT
 10
0.7500
 20
2.2270
 30
0.0000
  0
VERTEX
  8
PA2011_SMT
 10
0.7500
 20
2.0770
 30
0.0000
  0
SEQEND
  0
POLYLINE
  8
PA2011_SMT
 66
1
 10
0.0000
 20
0.0000
 30
0.0000
 40
0.0100
 41
0.0100
  0
VERTEX
  8
PA2011_SMT
 10
0.7410
 20
2.2270
 30
0.0000
  0
VERTEX
  8
PA2011_SMT
 10
0.7410
 20
2.0770
 30
0.0000
  0
SEQEND
  0
POLYLINE
  8
PA2011_SMT
 66
1
 10
0.0000
 20
0.0000
 30
0.0000
 40
0.0100
 41
0.0100
  0
VERTEX
  8
PA2011_SMT
 10
0.7320
 20
2.2270
 30
0.0000
  0
VERTEX
  8
PA2011_SMT
 10
0.7320
 20
2.0770
 30
0.0000
  0
SEQEND
  0
POLYLINE
  8
PA2011_SMT
 66
1
 10
0.0000
 20
0.0000
 30
0.0000
 40
0.0100
 41
0.0100
  0
VERTEX
  8
PA2011_SMT
 10
0.7230
 20
2.2270
 30
0.0000
  0
VERTEX
  8
PA2011_SMT
 10
0.7230
 20
2.0770
 30
0.0000
  0
SEQEND
  0
POLYLINE
  8
PA2011_SMT
 66
1
 10
0.0000
 20
0.0000
 30
0.0000
 40
0.0100
 41
0.0100
  0
VERTEX
  8
PA2011_SMT
 10
0.7140
 20
2.2270
 30
0.0000
  0
VERTEX
  8
PA2011_SMT
 10
0.7140
 20
2.0770
 30
0.0000
  0
SEQEND
  0
POLYLINE
  8
PA2011_SMT
 66
1
 10
0.0000
 20
0.0000
 30
0.0000
 40
0.0100
 41
0.0100
  0
VERTEX
  8
PA2011_SMT
 10
0.7050
 20
2.2270
 30
0.0000
  0
VERTEX
  8
PA2011_SMT
 10
0.7050
 20
2.0770
 30
0.0000
  0
SEQEND
  0
POLYLINE
  8
PA2011_SMT
 66
1
 10
0.0000
 20
0.0000
 30
0.0000
 40
0.0100
 41
0.0100
  0
VERTEX
  8
PA2011_SMT
 10
0.6960
 20
2.2270
 30
0.0000
  0
VERTEX
  8
PA2011_SMT
 10
0.6960
 20
2.0770
 30
0.0000
  0
SEQEND
  0
POLYLINE
  8
PA2011_SMT
 66
1
 10
0.0000
 20
0.0000
 30
0.0000
 40
0.0100
 41
0.0100
  0
VERTEX
  8
PA2011_SMT
 10
0.6870
 20
2.2270
 30
0.0000
  0
VERTEX
  8
PA2011_SMT
 10
0.6870
 20
2.0770
 30
0.0000
  0
SEQEND
  0
POLYLINE
  8
PA2011_SMT
 66
1
 10
0.0000
 20
0.0000
 30
0.0000
 40
0.0100
 41
0.0100
  0
VERTEX
  8
PA2011_SMT
 10
0.6780
 20
2.2270
 30
0.0000
  0
VERTEX
  8
PA2011_SMT
 10
0.6780
 20
2.0770
 30
0.0000
  0
SEQEND
  0
POLYLINE
  8
PA2011_SMT
 66
1
 10
0.0000
 20
0.0000
 30
0.0000
 40
0.0100
 41
0.0100
  0
VERTEX
  8
PA2011_SMT
 10
0.6690
 20
2.2270
 30
0.0000
  0
VERTEX
  8
PA2011_SMT
 10
0.6690
 20
2.0770
 30
0.0000
  0
SEQEND
  0
POLYLINE
  8
PA2011_SMT
 66
1
 10
0.0000
 20
0.0000
 30
0.0000
 40
0.0100
 41
0.0100
  0
VERTEX
  8
PA2011_SMT
 10
0.6600
 20
2.2270
 30
0.0000
  0
VERTEX
  8
PA2011_SMT
 10
0.6600
 20
2.0770
 30
0.0000
  0
SEQEND
  0
POLYLINE
  8
PA2011_SMT
 66
1
 10
0.0000
 20
0.0000
 30
0.0000
 40
0.0100
 41
0.0100
  0
VERTEX
  8
PA2011_SMT
 10
0.6510
 20
2.2270
 30
0.0000
  0
VERTEX
  8
PA2011_SMT
 10
0.6510
 20
2.0770
 30
0.0000
  0
SEQEND
  0
POLYLINE
  8
PA2011_SMT
 66
1
 10
0.0000
 20
0.0000
 30
0.0000
 40
0.0100
 41
0.0100
  0
VERTEX
  8
PA2011_SMT
 10
0.6420
 20
2.2270
 30
0.0000
  0
VERTEX
  8
PA2011_SMT
 10
0.6420
 20
2.0770
 30
0.0000
  0
SEQEND
  0
POLYLINE
  8
PA2011_SMT
 66
1
 10
0.0000
 20
0.0000
 30
0.0000
 40
0.0100
 41
0.0100
  0
VERTEX
  8
PA2011_SMT
 10
0.6330
 20
2.2270
 30
0.0000
  0
VERTEX
  8
PA2011_SMT
 10
0.6330
 20
2.0770
 30
0.0000
  0
SEQEND
  0
POLYLINE
  8
PA2011_SMT
 66
1
 10
0.0000
 20
0.0000
 30
0.0000
 40
0.0100
 41
0.0100
  0
VERTEX
  8
PA2011_SMT
 10
0.6240
 20
2.2270
 30
0.0000
  0
VERTEX
  8
PA2011_SMT
 10
0.6240
 20
2.0770
 30
0.0000
  0
SEQEND
  0
POLYLINE
  8
PA2011_SMT
 66
1
 10
0.0000
 20
0.0000
 30
0.0000
 40
0.0100
 41
0.0100
  0
VERTEX
  8
PA2011_SMT
 10
0.6150
 20
2.2270
 30
0.0000
  0
VERTEX
  8
PA2011_SMT
 10
0.6150
 20
2.0770
 30
0.0000
  0
SEQEND
  0
POLYLINE
  8
PA2011_SMT
 66
1
 10
0.0000
 20
0.0000
 30
0.0000
 40
0.0100
 41
0.0100
  0
VERTEX
  8
PA2011_SMT
 10
0.6060
 20
2.2270
 30
0.0000
  0
VERTEX
  8
PA2011_SMT
 10
0.6060
 20
2.0770
 30
0.0000
  0
SEQEND
  0
POLYLINE
  8
PA2011_SMT
 66
1
 10
0.0000
 20
0.0000
 30
0.0000
 40
0.0100
 41
0.0100
  0
VERTEX
  8
PA2011_SMT
 10
0.5970
 20
2.2270
 30
0.0000
  0
VERTEX
  8
PA2011_SMT
 10
0.5970
 20
2.0770
 30
0.0000
  0
SEQEND
  0
POLYLINE
  8
PA2011_SMT
 66
1
 10
0.0000
 20
0.0000
 30
0.0000
 40
0.0100
 41
0.0100
  0
VERTEX
  8
PA2011_SMT
 10
0.5880
 20
2.2270
 30
0.0000
  0
VERTEX
  8
PA2011_SMT
 10
0.5880
 20
2.0770
 30
0.0000
  0
SEQEND
  0
POLYLINE
  8
PA2011_SMT
 66
1
 10
0.0000
 20
0.0000
 30
0.0000
 40
0.0100
 41
0.0100
  0
VERTEX
  8
PA2011_SMT
 10
0.5790
 20
2.2270
 30
0.0000
  0
VERTEX
  8
PA2011_SMT
 10
0.5790
 20
2.0770
 30
0.0000
  0
SEQEND
  0
POLYLINE
  8
PA2011_SMT
 66
1
 10
0.0000
 20
0.0000
 30
0.0000
 40
0.0100
 41
0.0100
  0
VERTEX
  8
PA2011_SMT
 10
1.0000
 20
2.2250
 30
0.0000
  0
VERTEX
  8
PA2011_SMT
 10
0.5750
 20
2.2250
 30
0.0000
  0
SEQEND
  0
POLYLINE
  8
PA2011_SMT
 66
1
 10
0.0000
 20
0.0000
 30
0.0000
 40
0.0100
 41
0.0100
  0
VERTEX
  8
PA2011_SMT
 10
1.0000
 20
2.2160
 30
0.0000
  0
VERTEX
  8
PA2011_SMT
 10
0.5750
 20
2.2160
 30
0.0000
  0
SEQEND
  0
POLYLINE
  8
PA2011_SMT
 66
1
 10
0.0000
 20
0.0000
 30
0.0000
 40
0.0100
 41
0.0100
  0
VERTEX
  8
PA2011_SMT
 10
1.0000
 20
2.2070
 30
0.0000
  0
VERTEX
  8
PA2011_SMT
 10
0.5750
 20
2.2070
 30
0.0000
  0
SEQEND
  0
POLYLINE
  8
PA2011_SMT
 66
1
 10
0.0000
 20
0.0000
 30
0.0000
 40
0.0100
 41
0.0100
  0
VERTEX
  8
PA2011_SMT
 10
1.0000
 20
2.1980
 30
0.0000
  0
VERTEX
  8
PA2011_SMT
 10
0.5750
 20
2.1980
 30
0.0000
  0
SEQEND
  0
POLYLINE
  8
PA2011_SMT
 66
1
 10
0.0000
 20
0.0000
 30
0.0000
 40
0.0100
 41
0.0100
  0
VERTEX
  8
PA2011_SMT
 10
1.0000
 20
2.1890
 30
0.0000
  0
VERTEX
  8
PA2011_SMT
 10
0.5750
 20
2.1890
 30
0.0000
  0
SEQEND
  0
POLYLINE
  8
PA2011_SMT
 66
1
 10
0.0000
 20
0.0000
 30
0.0000
 40
0.0100
 41
0.0100
  0
VERTEX
  8
PA2011_SMT
 10
1.0000
 20
2.1800
 30
0.0000
  0
VERTEX
  8
PA2011_SMT
 10
0.5750
 20
2.1800
 30
0.0000
  0
SEQEND
  0
POLYLINE
  8
PA2011_SMT
 66
1
 10
0.0000
 20
0.0000
 30
0.0000
 40
0.0100
 41
0.0100
  0
VERTEX
  8
PA2011_SMT
 10
1.0000
 20
2.1710
 30
0.0000
  0
VERTEX
  8
PA2011_SMT
 10
0.5750
 20
2.1710
 30
0.0000
  0
SEQEND
  0
POLYLINE
  8
PA2011_SMT
 66
1
 10
0.0000
 20
0.0000
 30
0.0000
 40
0.0100
 41
0.0100
  0
VERTEX
  8
PA2011_SMT
 10
1.0000
 20
2.1620
 30
0.0000
  0
VERTEX
  8
PA2011_SMT
 10
0.5750
 20
2.1620
 30
0.0000
  0
SEQEND
  0
POLYLINE
  8
PA2011_SMT
 66
1
 10
0.0000
 20
0.0000
 30
0.0000
 40
0.0100
 41
0.0100
  0
VERTEX
  8
PA2011_SMT
 10
1.0000
 20
2.1530
 30
0.0000
  0
VERTEX
  8
PA2011_SMT
 10
0.5750
 20
2.1530
 30
0.0000
  0
SEQEND
  0
POLYLINE
  8
PA2011_SMT
 66
1
 10
0.0000
 20
0.0000
 30
0.0000
 40
0.0100
 41
0.0100
  0
VERTEX
  8
PA2011_SMT
 10
1.0000
 20
2.1440
 30
0.0000
  0
VERTEX
  8
PA2011_SMT
 10
0.5750
 20
2.1440
 30
0.0000
  0
SEQEND
  0
POLYLINE
  8
PA2011_SMT
 66
1
 10
0.0000
 20
0.0000
 30
0.0000
 40
0.0100
 41
0.0100
  0
VERTEX
  8
PA2011_SMT
 10
1.0000
 20
2.1350
 30
0.0000
  0
VERTEX
  8
PA2011_SMT
 10
0.5750
 20
2.1350
 30
0.0000
  0
SEQEND
  0
POLYLINE
  8
PA2011_SMT
 66
1
 10
0.0000
 20
0.0000
 30
0.0000
 40
0.0100
 41
0.0100
  0
VERTEX
  8
PA2011_SMT
 10
1.0000
 20
2.1260
 30
0.0000
  0
VERTEX
  8
PA2011_SMT
 10
0.5750
 20
2.1260
 30
0.0000
  0
SEQEND
  0
POLYLINE
  8
PA2011_SMT
 66
1
 10
0.0000
 20
0.0000
 30
0.0000
 40
0.0100
 41
0.0100
  0
VERTEX
  8
PA2011_SMT
 10
1.0000
 20
2.1170
 30
0.0000
  0
VERTEX
  8
PA2011_SMT
 10
0.5750
 20
2.1170
 30
0.0000
  0
SEQEND
  0
POLYLINE
  8
PA2011_SMT
 66
1
 10
0.0000
 20
0.0000
 30
0.0000
 40
0.0100
 41
0.0100
  0
VERTEX
  8
PA2011_SMT
 10
1.0000
 20
2.1080
 30
0.0000
  0
VERTEX
  8
PA2011_SMT
 10
0.5750
 20
2.1080
 30
0.0000
  0
SEQEND
  0
POLYLINE
  8
PA2011_SMT
 66
1
 10
0.0000
 20
0.0000
 30
0.0000
 40
0.0100
 41
0.0100
  0
VERTEX
  8
PA2011_SMT
 10
1.0000
 20
2.0990
 30
0.0000
  0
VERTEX
  8
PA2011_SMT
 10
0.5750
 20
2.0990
 30
0.0000
  0
SEQEND
  0
POLYLINE
  8
PA2011_SMT
 66
1
 10
0.0000
 20
0.0000
 30
0.0000
 40
0.0100
 41
0.0100
  0
VERTEX
  8
PA2011_SMT
 10
1.0000
 20
2.0900
 30
0.0000
  0
VERTEX
  8
PA2011_SMT
 10
0.5750
 20
2.0900
 30
0.0000
  0
SEQEND
  0
POLYLINE
  8
PA2011_SMT
 66
1
 10
0.0000
 20
0.0000
 30
0.0000
 40
0.0100
 41
0.0100
  0
VERTEX
  8
PA2011_SMT
 10
1.0000
 20
2.0810
 30
0.0000
  0
VERTEX
  8
PA2011_SMT
 10
0.5750
 20
2.0810
 30
0.0000
  0
SEQEND
  0
POLYLINE
  8
PA2011_SMT
 66
1
 10
0.0000
 20
0.0000
 30
0.0000
 40
0.0100
 41
0.0100
  0
VERTEX
  8
PA2011_SMT
 10
1.0000
 20
2.2270
 30
0.0000
  0
VERTEX
  8
PA2011_SMT
 10
0.5750
 20
2.2270
 30
0.0000
  0
SEQEND
  0
POLYLINE
  8
PA2011_SMT
 66
1
 10
0.0000
 20
0.0000
 30
0.0000
 40
0.0100
 41
0.0100
  0
VERTEX
  8
PA2011_SMT
 10
1.0000
 20
2.2270
 30
0.0000
  0
VERTEX
  8
PA2011_SMT
 10
1.0000
 20
2.0770
 30
0.0000
  0
VERTEX
  8
PA2011_SMT
 10
0.5750
 20
2.0770
 30
0.0000
  0
SEQEND
  0
POLYLINE
  8
PA2011_SMT
 66
1
 10
0.0000
 20
0.0000
 30
0.0000
 40
0.0100
 41
0.0100
  0
VERTEX
  8
PA2011_SMT
 10
0.5750
 20
2.2270
 30
0.0000
  0
VERTEX
  8
PA2011_SMT
 10
0.5750
 20
2.0770
 30
0.0000
  0
SEQEND
  0
POLYLINE
  8
PA2011_SMT
 66
1
 10
0.0000
 20
0.0000
 30
0.0000
 40
0.0100
 41
0.0100
  0
VERTEX
  8
PA2011_SMT
 10
0.9930
 20
2.2270
 30
0.0000
  0
VERTEX
  8
PA2011_SMT
 10
0.9930
 20
2.0770
 30
0.0000
  0
SEQEND
  0
POLYLINE
  8
PA2011_SMT
 66
1
 10
0.0000
 20
0.0000
 30
0.0000
 40
0.0100
 41
0.0100
  0
VERTEX
  8
PA2011_SMT
 10
0.9840
 20
2.2270
 30
0.0000
  0
VERTEX
  8
PA2011_SMT
 10
0.9840
 20
2.0770
 30
0.0000
  0
SEQEND
  0
POLYLINE
  8
PA2011_SMT
 66
1
 10
0.0000
 20
0.0000
 30
0.0000
 40
0.0100
 41
0.0100
  0
VERTEX
  8
PA2011_SMT
 10
0.9750
 20
2.2270
 30
0.0000
  0
VERTEX
  8
PA2011_SMT
 10
0.9750
 20
2.0770
 30
0.0000
  0
SEQEND
  0
POLYLINE
  8
PA2011_SMT
 66
1
 10
0.0000
 20
0.0000
 30
0.0000
 40
0.0100
 41
0.0100
  0
VERTEX
  8
PA2011_SMT
 10
0.9660
 20
2.2270
 30
0.0000
  0
VERTEX
  8
PA2011_SMT
 10
0.9660
 20
2.0770
 30
0.0000
  0
SEQEND
  0
POLYLINE
  8
PA2011_SMT
 66
1
 10
0.0000
 20
0.0000
 30
0.0000
 40
0.0100
 41
0.0100
  0
VERTEX
  8
PA2011_SMT
 10
0.9570
 20
2.2270
 30
0.0000
  0
VERTEX
  8
PA2011_SMT
 10
0.9570
 20
2.0770
 30
0.0000
  0
SEQEND
  0
POLYLINE
  8
PA2011_SMT
 66
1
 10
0.0000
 20
0.0000
 30
0.0000
 40
0.0100
 41
0.0100
  0
VERTEX
  8
PA2011_SMT
 10
0.9480
 20
2.2270
 30
0.0000
  0
VERTEX
  8
PA2011_SMT
 10
0.9480
 20
2.0770
 30
0.0000
  0
SEQEND
  0
POLYLINE
  8
PA2011_SMT
 66
1
 10
0.0000
 20
0.0000
 30
0.0000
 40
0.0100
 41
0.0100
  0
VERTEX
  8
PA2011_SMT
 10
0.9390
 20
2.2270
 30
0.0000
  0
VERTEX
  8
PA2011_SMT
 10
0.9390
 20
2.0770
 30
0.0000
  0
SEQEND
  0
POLYLINE
  8
PA2011_SMT
 66
1
 10
0.0000
 20
0.0000
 30
0.0000
 40
0.0100
 41
0.0100
  0
VERTEX
  8
PA2011_SMT
 10
0.9300
 20
2.2270
 30
0.0000
  0
VERTEX
  8
PA2011_SMT
 10
0.9300
 20
2.0770
 30
0.0000
  0
SEQEND
  0
POLYLINE
  8
PA2011_SMT
 66
1
 10
0.0000
 20
0.0000
 30
0.0000
 40
0.0100
 41
0.0100
  0
VERTEX
  8
PA2011_SMT
 10
0.9210
 20
2.2270
 30
0.0000
  0
VERTEX
  8
PA2011_SMT
 10
0.9210
 20
2.0770
 30
0.0000
  0
SEQEND
  0
POLYLINE
  8
PA2011_SMT
 66
1
 10
0.0000
 20
0.0000
 30
0.0000
 40
0.0100
 41
0.0100
  0
VERTEX
  8
PA2011_SMT
 10
0.9120
 20
2.2270
 30
0.0000
  0
VERTEX
  8
PA2011_SMT
 10
0.9120
 20
2.0770
 30
0.0000
  0
SEQEND
  0
POLYLINE
  8
PA2011_SMT
 66
1
 10
0.0000
 20
0.0000
 30
0.0000
 40
0.0100
 41
0.0100
  0
VERTEX
  8
PA2011_SMT
 10
0.9030
 20
2.2270
 30
0.0000
  0
VERTEX
  8
PA2011_SMT
 10
0.9030
 20
2.0770
 30
0.0000
  0
SEQEND
  0
POLYLINE
  8
PA2011_SMT
 66
1
 10
0.0000
 20
0.0000
 30
0.0000
 40
0.0100
 41
0.0100
  0
VERTEX
  8
PA2011_SMT
 10
0.8940
 20
2.2270
 30
0.0000
  0
VERTEX
  8
PA2011_SMT
 10
0.8940
 20
2.0770
 30
0.0000
  0
SEQEND
  0
POLYLINE
  8
PA2011_SMT
 66
1
 10
0.0000
 20
0.0000
 30
0.0000
 40
0.0100
 41
0.0100
  0
VERTEX
  8
PA2011_SMT
 10
0.8850
 20
2.2270
 30
0.0000
  0
VERTEX
  8
PA2011_SMT
 10
0.8850
 20
2.0770
 30
0.0000
  0
SEQEND
  0
POLYLINE
  8
PA2011_SMT
 66
1
 10
0.0000
 20
0.0000
 30
0.0000
 40
0.0100
 41
0.0100
  0
VERTEX
  8
PA2011_SMT
 10
0.8760
 20
2.2270
 30
0.0000
  0
VERTEX
  8
PA2011_SMT
 10
0.8760
 20
2.0770
 30
0.0000
  0
SEQEND
  0
POLYLINE
  8
PA2011_SMT
 66
1
 10
0.0000
 20
0.0000
 30
0.0000
 40
0.0100
 41
0.0100
  0
VERTEX
  8
PA2011_SMT
 10
0.8670
 20
2.2270
 30
0.0000
  0
VERTEX
  8
PA2011_SMT
 10
0.8670
 20
2.0770
 30
0.0000
  0
SEQEND
  0
POLYLINE
  8
PA2011_SMT
 66
1
 10
0.0000
 20
0.0000
 30
0.0000
 40
0.0100
 41
0.0100
  0
VERTEX
  8
PA2011_SMT
 10
0.8580
 20
2.2270
 30
0.0000
  0
VERTEX
  8
PA2011_SMT
 10
0.8580
 20
2.0770
 30
0.0000
  0
SEQEND
  0
POLYLINE
  8
PA2011_SMT
 66
1
 10
0.0000
 20
0.0000
 30
0.0000
 40
0.0100
 41
0.0100
  0
VERTEX
  8
PA2011_SMT
 10
0.8490
 20
2.2270
 30
0.0000
  0
VERTEX
  8
PA2011_SMT
 10
0.8490
 20
2.0770
 30
0.0000
  0
SEQEND
  0
POLYLINE
  8
PA2011_SMT
 66
1
 10
0.0000
 20
0.0000
 30
0.0000
 40
0.0100
 41
0.0100
  0
VERTEX
  8
PA2011_SMT
 10
0.8400
 20
2.2270
 30
0.0000
  0
VERTEX
  8
PA2011_SMT
 10
0.8400
 20
2.0770
 30
0.0000
  0
SEQEND
  0
POLYLINE
  8
PA2011_SMT
 66
1
 10
0.0000
 20
0.0000
 30
0.0000
 40
0.0100
 41
0.0100
  0
VERTEX
  8
PA2011_SMT
 10
0.8310
 20
2.2270
 30
0.0000
  0
VERTEX
  8
PA2011_SMT
 10
0.8310
 20
2.0770
 30
0.0000
  0
SEQEND
  0
POLYLINE
  8
PA2011_SMT
 66
1
 10
0.0000
 20
0.0000
 30
0.0000
 40
0.0100
 41
0.0100
  0
VERTEX
  8
PA2011_SMT
 10
0.8220
 20
2.2270
 30
0.0000
  0
VERTEX
  8
PA2011_SMT
 10
0.8220
 20
2.0770
 30
0.0000
  0
SEQEND
  0
POLYLINE
  8
PA2011_SMT
 66
1
 10
0.0000
 20
0.0000
 30
0.0000
 40
0.0100
 41
0.0100
  0
VERTEX
  8
PA2011_SMT
 10
0.8130
 20
2.2270
 30
0.0000
  0
VERTEX
  8
PA2011_SMT
 10
0.8130
 20
2.0770
 30
0.0000
  0
SEQEND
  0
POLYLINE
  8
PA2011_SMT
 66
1
 10
0.0000
 20
0.0000
 30
0.0000
 40
0.0100
 41
0.0100
  0
VERTEX
  8
PA2011_SMT
 10
0.8040
 20
2.2270
 30
0.0000
  0
VERTEX
  8
PA2011_SMT
 10
0.8040
 20
2.0770
 30
0.0000
  0
SEQEND
  0
POLYLINE
  8
PA2011_SMT
 66
1
 10
0.0000
 20
0.0000
 30
0.0000
 40
0.0100
 41
0.0100
  0
VERTEX
  8
PA2011_SMT
 10
0.7950
 20
2.2270
 30
0.0000
  0
VERTEX
  8
PA2011_SMT
 10
0.7950
 20
2.0770
 30
0.0000
  0
SEQEND
  0
POLYLINE
  8
PA2011_SMT
 66
1
 10
0.0000
 20
0.0000
 30
0.0000
 40
0.0100
 41
0.0100
  0
VERTEX
  8
PA2011_SMT
 10
0.7860
 20
2.2270
 30
0.0000
  0
VERTEX
  8
PA2011_SMT
 10
0.7860
 20
2.0770
 30
0.0000
  0
SEQEND
  0
POLYLINE
  8
PA2011_SMT
 66
1
 10
0.0000
 20
0.0000
 30
0.0000
 40
0.0100
 41
0.0100
  0
VERTEX
  8
PA2011_SMT
 10
0.7770
 20
2.2270
 30
0.0000
  0
VERTEX
  8
PA2011_SMT
 10
0.7770
 20
2.0770
 30
0.0000
  0
SEQEND
  0
POLYLINE
  8
PA2011_SMT
 66
1
 10
0.0000
 20
0.0000
 30
0.0000
 40
0.0100
 41
0.0100
  0
VERTEX
  8
PA2011_SMT
 10
0.7680
 20
2.2270
 30
0.0000
  0
VERTEX
  8
PA2011_SMT
 10
0.7680
 20
2.0770
 30
0.0000
  0
SEQEND
  0
ENDSEC
  0
EOF
