  0
SECTION
  2
HEADER
  9
$EXTMIN
 10
-0.2095
 20
-0.0060
 30
0.0000
  9
$EXTMAX
 10
4.0049
 20
10.2540
 30
0.0000
  0
ENDSEC
  0
SECTION
  2
TABLES
  0
TABLE
  2
LTYPE
 70
3
  0
LTYPE
  2
BYBLOCK
 70
0
  3

 72
65
 73
0
 40
0.0000
  0
LTYPE
  2
BYLAYER
 70
0
  3

 72
65
 73
0
 40
0.0000
  0
LTYPE
  2
CONTINUOUS
 70
0
  3
Solid line
 72
65
 73
0
 40
0.0000
  0
ENDTAB
  0
TABLE
  2
LAYER
 70
3
  0
LAYER
  2
0
 70
0
 62
7
  6
CONTINUOUS
  0
LAYER
  2
LPF3500_DRD
 70
0
 62
6
  6
CONTINUOUS
  0
LAYER
  2
LPF3500_SMT
 70
0
 62
1
  6
CONTINUOUS
  0
LAYER
  2
LPF3500_SST
 70
0
 62
4
  6
CONTINUOUS
  0
ENDTAB
  0
TABLE
  2
STYLE
 70
7
  0
STYLE
  2
STYLE_0
 70
0
 40
0.065625
 41
1.0000
 50
0.0000
 71
0
 42
0.1000
  3
TXT
  0
STYLE
  2
STYLE_1
 70
0
 40
0.065625
 41
1.0000
 50
0.0000
 71
0
 42
0.1000
  3
TXT
  0
STYLE
  2
STYLE_2
 70
0
 40
0.065625
 41
1.0000
 50
0.0000
 71
0
 42
0.1000
  3
TXT
  0
STYLE
  2
STYLE_3
 70
0
 40
0.065625
 41
1.0000
 50
0.0000
 71
0
 42
0.1000
  3
TXT
  0
STYLE
  2
STYLE_4
 70
0
 40
0.0984375
 41
1.0000
 50
0.0000
 71
0
 42
0.1500
  3
TXT
  0
STYLE
  2
STYLE_5
 70
0
 40
0.0984375
 41
1.0000
 50
0.0000
 71
0
 42
0.1500
  3
TXT
  0
STYLE
  2
STYLE_6
 70
0
 40
0.0984375
 41
1.0000
 50
0.0000
 71
0
 42
0.1500
  3
TXT
  0
ENDTAB
  0
ENDSEC
  0
SECTION
  2
BLOCKS
  0
BLOCK
  2
SQUARE_1
  3
SQUARE_1
 70
64
 10
0.0000
 20
0.0000
 30
0.0000
  0
SOLID
  8
0
 10
0.0250
 20
0.0250
 30
0.0000
 11
0.0250
 21
-0.0250
 31
0.0000
 12
-0.0250
 22
0.0250
 32
0.0000
 13
-0.0250
 23
-0.0250
 33
0.0000
  0
ENDBLK
  0
BLOCK
  2
ROUND_8
  3
ROUND_8
 70
64
 10
0.0000
 20
0.0000
 30
0.0000
  0
CIRCLE
  8
0
 10
0.0000
 20
0.0000
 30
0.0000
 40
0.0050
  0
ENDBLK
  0
BLOCK
  2
ROUND_16
  3
ROUND_16
 70
64
 10
0.0000
 20
0.0000
 30
0.0000
  0
CIRCLE
  8
0
 10
0.0000
 20
0.0000
 30
0.0000
 40
0.0040
  0
ENDBLK
  0
BLOCK
  2
ROUND_21
  3
ROUND_21
 70
64
 10
0.0000
 20
0.0000
 30
0.0000
  0
CIRCLE
  8
0
 10
0.0000
 20
0.0000
 30
0.0000
 40
0.0010
  0
ENDBLK
  0
BLOCK
  2
RECTANGLE_36
  3
RECTANGLE_36
 70
64
 10
0.0000
 20
0.0000
 30
0.0000
  0
SOLID
  8
0
 10
0.0500
 20
0.0375
 30
0.0000
 11
0.0500
 21
-0.0375
 31
0.0000
 12
-0.0500
 22
0.0375
 32
0.0000
 13
-0.0500
 23
-0.0375
 33
0.0000
  0
ENDBLK
  0
BLOCK
  2
ROUND_39
  3
ROUND_39
 70
64
 10
0.0000
 20
0.0000
 30
0.0000
  0
CIRCLE
  8
0
 10
0.0000
 20
0.0000
 30
0.0000
 40
0.0020
  0
ENDBLK
  0
ENDSEC
  0
SECTION
  2
ENTITIES
  0
POLYLINE
  8
LPF3500_DRD
 66
1
 10
0.0000
 20
0.0000
 30
0.0000
 40
0.0100
 41
0.0100
  0
VERTEX
  8
LPF3500_DRD
 10
-0.2045
 20
-0.0010
 30
0.0000
  0
VERTEX
  8
LPF3500_DRD
 10
-0.0230
 20
-0.0010
 30
0.0000
  0
SEQEND
  0
POLYLINE
  8
LPF3500_DRD
 66
1
 10
0.0000
 20
0.0000
 30
0.0000
 40
0.0100
 41
0.0100
  0
VERTEX
  8
LPF3500_DRD
 10
3.9999
 20
10.1990
 30
0.0000
  0
VERTEX
  8
LPF3500_DRD
 10
3.9999
 20
-0.0010
 30
0.0000
  0
VERTEX
  8
LPF3500_DRD
 10
0.0000
 20
-0.0010
 30
0.0000
  0
VERTEX
  8
LPF3500_DRD
 10
0.0000
 20
10.2490
 30
0.0000
  0
VERTEX
  8
LPF3500_DRD
 10
3.9999
 20
10.2490
 30
0.0000
  0
VERTEX
  8
LPF3500_DRD
 10
3.9999
 20
10.1990
 30
0.0000
  0
SEQEND
  0
POLYLINE
  8
LPF3500_DRD
 66
1
 10
0.0000
 20
0.0000
 30
0.0000
 40
0.0100
 41
0.0100
  0
VERTEX
  8
LPF3500_DRD
 10
3.7750
 20
0.5500
 30
0.0000
  0
VERTEX
  8
LPF3500_DRD
 10
3.7500
 20
0.5250
 30
0.0000
  0
SEQEND
  0
POLYLINE
  8
LPF3500_DRD
 66
1
 10
0.0000
 20
0.0000
 30
0.0000
 40
0.0100
 41
0.0100
  0
VERTEX
  8
LPF3500_DRD
 10
3.8000
 20
0.5250
 30
0.0000
  0
VERTEX
  8
LPF3500_DRD
 10
3.7750
 20
0.5500
 30
0.0000
  0
SEQEND
  0
POLYLINE
  8
LPF3500_DRD
 66
1
 10
0.0000
 20
0.0000
 30
0.0000
 40
0.0100
 41
0.0100
  0
VERTEX
  8
LPF3500_DRD
 10
3.7750
 20
0.5000
 30
0.0000
  0
VERTEX
  8
LPF3500_DRD
 10
3.8000
 20
0.5250
 30
0.0000
  0
SEQEND
  0
POLYLINE
  8
LPF3500_DRD
 66
1
 10
0.0000
 20
0.0000
 30
0.0000
 40
0.0100
 41
0.0100
  0
VERTEX
  8
LPF3500_DRD
 10
3.7500
 20
0.5250
 30
0.0000
  0
VERTEX
  8
LPF3500_DRD
 10
3.7750
 20
0.5000
 30
0.0000
  0
SEQEND
  0
POLYLINE
  8
LPF3500_DRD
 66
1
 10
0.0000
 20
0.0000
 30
0.0000
 40
0.0100
 41
0.0100
  0
VERTEX
  8
LPF3500_DRD
 10
0.2250
 20
0.5500
 30
0.0000
  0
VERTEX
  8
LPF3500_DRD
 10
0.2000
 20
0.5250
 30
0.0000
  0
SEQEND
  0
POLYLINE
  8
LPF3500_DRD
 66
1
 10
0.0000
 20
0.0000
 30
0.0000
 40
0.0100
 41
0.0100
  0
VERTEX
  8
LPF3500_DRD
 10
0.2500
 20
0.5250
 30
0.0000
  0
VERTEX
  8
LPF3500_DRD
 10
0.2250
 20
0.5500
 30
0.0000
  0
SEQEND
  0
POLYLINE
  8
LPF3500_DRD
 66
1
 10
0.0000
 20
0.0000
 30
0.0000
 40
0.0100
 41
0.0100
  0
VERTEX
  8
LPF3500_DRD
 10
0.2250
 20
0.5000
 30
0.0000
  0
VERTEX
  8
LPF3500_DRD
 10
0.2500
 20
0.5250
 30
0.0000
  0
SEQEND
  0
POLYLINE
  8
LPF3500_DRD
 66
1
 10
0.0000
 20
0.0000
 30
0.0000
 40
0.0100
 41
0.0100
  0
VERTEX
  8
LPF3500_DRD
 10
0.2000
 20
0.5250
 30
0.0000
  0
VERTEX
  8
LPF3500_DRD
 10
0.2250
 20
0.5000
 30
0.0000
  0
SEQEND
  0
POLYLINE
  8
LPF3500_DRD
 66
1
 10
0.0000
 20
0.0000
 30
0.0000
 40
0.0100
 41
0.0100
  0
VERTEX
  8
LPF3500_DRD
 10
1.2500
 20
2.6000
 30
0.0000
  0
VERTEX
  8
LPF3500_DRD
 10
1.2250
 20
2.5750
 30
0.0000
  0
SEQEND
  0
POLYLINE
  8
LPF3500_DRD
 66
1
 10
0.0000
 20
0.0000
 30
0.0000
 40
0.0100
 41
0.0100
  0
VERTEX
  8
LPF3500_DRD
 10
1.2750
 20
2.5750
 30
0.0000
  0
VERTEX
  8
LPF3500_DRD
 10
1.2500
 20
2.6000
 30
0.0000
  0
SEQEND
  0
POLYLINE
  8
LPF3500_DRD
 66
1
 10
0.0000
 20
0.0000
 30
0.0000
 40
0.0100
 41
0.0100
  0
VERTEX
  8
LPF3500_DRD
 10
1.2500
 20
2.5500
 30
0.0000
  0
VERTEX
  8
LPF3500_DRD
 10
1.2750
 20
2.5750
 30
0.0000
  0
SEQEND
  0
POLYLINE
  8
LPF3500_DRD
 66
1
 10
0.0000
 20
0.0000
 30
0.0000
 40
0.0100
 41
0.0100
  0
VERTEX
  8
LPF3500_DRD
 10
1.2250
 20
2.5750
 30
0.0000
  0
VERTEX
  8
LPF3500_DRD
 10
1.2500
 20
2.5500
 30
0.0000
  0
SEQEND
  0
POLYLINE
  8
LPF3500_DRD
 66
1
 10
0.0000
 20
0.0000
 30
0.0000
 40
0.0100
 41
0.0100
  0
VERTEX
  8
LPF3500_DRD
 10
3.8000
 20
3.2750
 30
0.0000
  0
VERTEX
  8
LPF3500_DRD
 10
3.7750
 20
3.2500
 30
0.0000
  0
SEQEND
  0
POLYLINE
  8
LPF3500_DRD
 66
1
 10
0.0000
 20
0.0000
 30
0.0000
 40
0.0100
 41
0.0100
  0
VERTEX
  8
LPF3500_DRD
 10
3.8250
 20
3.2500
 30
0.0000
  0
VERTEX
  8
LPF3500_DRD
 10
3.8000
 20
3.2750
 30
0.0000
  0
SEQEND
  0
POLYLINE
  8
LPF3500_DRD
 66
1
 10
0.0000
 20
0.0000
 30
0.0000
 40
0.0100
 41
0.0100
  0
VERTEX
  8
LPF3500_DRD
 10
3.8000
 20
3.2250
 30
0.0000
  0
VERTEX
  8
LPF3500_DRD
 10
3.8250
 20
3.2500
 30
0.0000
  0
SEQEND
  0
POLYLINE
  8
LPF3500_DRD
 66
1
 10
0.0000
 20
0.0000
 30
0.0000
 40
0.0100
 41
0.0100
  0
VERTEX
  8
LPF3500_DRD
 10
3.7750
 20
3.2500
 30
0.0000
  0
VERTEX
  8
LPF3500_DRD
 10
3.8000
 20
3.2250
 30
0.0000
  0
SEQEND
  0
POLYLINE
  8
LPF3500_DRD
 66
1
 10
0.0000
 20
0.0000
 30
0.0000
 40
0.0100
 41
0.0100
  0
VERTEX
  8
LPF3500_DRD
 10
0.2000
 20
4.7750
 30
0.0000
  0
VERTEX
  8
LPF3500_DRD
 10
0.1750
 20
4.7500
 30
0.0000
  0
SEQEND
  0
POLYLINE
  8
LPF3500_DRD
 66
1
 10
0.0000
 20
0.0000
 30
0.0000
 40
0.0100
 41
0.0100
  0
VERTEX
  8
LPF3500_DRD
 10
0.2250
 20
4.7500
 30
0.0000
  0
VERTEX
  8
LPF3500_DRD
 10
0.2000
 20
4.7750
 30
0.0000
  0
SEQEND
  0
POLYLINE
  8
LPF3500_DRD
 66
1
 10
0.0000
 20
0.0000
 30
0.0000
 40
0.0100
 41
0.0100
  0
VERTEX
  8
LPF3500_DRD
 10
0.2000
 20
4.7250
 30
0.0000
  0
VERTEX
  8
LPF3500_DRD
 10
0.2250
 20
4.7500
 30
0.0000
  0
SEQEND
  0
POLYLINE
  8
LPF3500_DRD
 66
1
 10
0.0000
 20
0.0000
 30
0.0000
 40
0.0100
 41
0.0100
  0
VERTEX
  8
LPF3500_DRD
 10
0.1750
 20
4.7500
 30
0.0000
  0
VERTEX
  8
LPF3500_DRD
 10
0.2000
 20
4.7250
 30
0.0000
  0
SEQEND
  0
POLYLINE
  8
LPF3500_DRD
 66
1
 10
0.0000
 20
0.0000
 30
0.0000
 40
0.0100
 41
0.0100
  0
VERTEX
  8
LPF3500_DRD
 10
0.2000
 20
6.2750
 30
0.0000
  0
VERTEX
  8
LPF3500_DRD
 10
0.1750
 20
6.2500
 30
0.0000
  0
SEQEND
  0
POLYLINE
  8
LPF3500_DRD
 66
1
 10
0.0000
 20
0.0000
 30
0.0000
 40
0.0100
 41
0.0100
  0
VERTEX
  8
LPF3500_DRD
 10
0.2250
 20
6.2500
 30
0.0000
  0
VERTEX
  8
LPF3500_DRD
 10
0.2000
 20
6.2750
 30
0.0000
  0
SEQEND
  0
POLYLINE
  8
LPF3500_DRD
 66
1
 10
0.0000
 20
0.0000
 30
0.0000
 40
0.0100
 41
0.0100
  0
VERTEX
  8
LPF3500_DRD
 10
0.2000
 20
6.2250
 30
0.0000
  0
VERTEX
  8
LPF3500_DRD
 10
0.2250
 20
6.2500
 30
0.0000
  0
SEQEND
  0
POLYLINE
  8
LPF3500_DRD
 66
1
 10
0.0000
 20
0.0000
 30
0.0000
 40
0.0100
 41
0.0100
  0
VERTEX
  8
LPF3500_DRD
 10
0.1750
 20
6.2500
 30
0.0000
  0
VERTEX
  8
LPF3500_DRD
 10
0.2000
 20
6.2250
 30
0.0000
  0
SEQEND
  0
POLYLINE
  8
LPF3500_DRD
 66
1
 10
0.0000
 20
0.0000
 30
0.0000
 40
0.0100
 41
0.0100
  0
VERTEX
  8
LPF3500_DRD
 10
3.8000
 20
4.7750
 30
0.0000
  0
VERTEX
  8
LPF3500_DRD
 10
3.7750
 20
4.7500
 30
0.0000
  0
SEQEND
  0
POLYLINE
  8
LPF3500_DRD
 66
1
 10
0.0000
 20
0.0000
 30
0.0000
 40
0.0100
 41
0.0100
  0
VERTEX
  8
LPF3500_DRD
 10
3.8250
 20
4.7500
 30
0.0000
  0
VERTEX
  8
LPF3500_DRD
 10
3.8000
 20
4.7750
 30
0.0000
  0
SEQEND
  0
POLYLINE
  8
LPF3500_DRD
 66
1
 10
0.0000
 20
0.0000
 30
0.0000
 40
0.0100
 41
0.0100
  0
VERTEX
  8
LPF3500_DRD
 10
3.8000
 20
4.7250
 30
0.0000
  0
VERTEX
  8
LPF3500_DRD
 10
3.8250
 20
4.7500
 30
0.0000
  0
SEQEND
  0
POLYLINE
  8
LPF3500_DRD
 66
1
 10
0.0000
 20
0.0000
 30
0.0000
 40
0.0100
 41
0.0100
  0
VERTEX
  8
LPF3500_DRD
 10
3.7750
 20
4.7500
 30
0.0000
  0
VERTEX
  8
LPF3500_DRD
 10
3.8000
 20
4.7250
 30
0.0000
  0
SEQEND
  0
POLYLINE
  8
LPF3500_DRD
 66
1
 10
0.0000
 20
0.0000
 30
0.0000
 40
0.0100
 41
0.0100
  0
VERTEX
  8
LPF3500_DRD
 10
3.0000
 20
10.0750
 30
0.0000
  0
VERTEX
  8
LPF3500_DRD
 10
2.9750
 20
10.0500
 30
0.0000
  0
SEQEND
  0
POLYLINE
  8
LPF3500_DRD
 66
1
 10
0.0000
 20
0.0000
 30
0.0000
 40
0.0100
 41
0.0100
  0
VERTEX
  8
LPF3500_DRD
 10
3.0250
 20
10.0500
 30
0.0000
  0
VERTEX
  8
LPF3500_DRD
 10
3.0000
 20
10.0750
 30
0.0000
  0
SEQEND
  0
POLYLINE
  8
LPF3500_DRD
 66
1
 10
0.0000
 20
0.0000
 30
0.0000
 40
0.0100
 41
0.0100
  0
VERTEX
  8
LPF3500_DRD
 10
3.0000
 20
10.0250
 30
0.0000
  0
VERTEX
  8
LPF3500_DRD
 10
3.0250
 20
10.0500
 30
0.0000
  0
SEQEND
  0
POLYLINE
  8
LPF3500_DRD
 66
1
 10
0.0000
 20
0.0000
 30
0.0000
 40
0.0100
 41
0.0100
  0
VERTEX
  8
LPF3500_DRD
 10
2.9750
 20
10.0500
 30
0.0000
  0
VERTEX
  8
LPF3500_DRD
 10
3.0000
 20
10.0250
 30
0.0000
  0
SEQEND
  0
POLYLINE
  8
LPF3500_DRD
 66
1
 10
0.0000
 20
0.0000
 30
0.0000
 40
0.0100
 41
0.0100
  0
VERTEX
  8
LPF3500_DRD
 10
3.8000
 20
6.2750
 30
0.0000
  0
VERTEX
  8
LPF3500_DRD
 10
3.7750
 20
6.2500
 30
0.0000
  0
SEQEND
  0
POLYLINE
  8
LPF3500_DRD
 66
1
 10
0.0000
 20
0.0000
 30
0.0000
 40
0.0100
 41
0.0100
  0
VERTEX
  8
LPF3500_DRD
 10
3.8250
 20
6.2500
 30
0.0000
  0
VERTEX
  8
LPF3500_DRD
 10
3.8000
 20
6.2750
 30
0.0000
  0
SEQEND
  0
POLYLINE
  8
LPF3500_DRD
 66
1
 10
0.0000
 20
0.0000
 30
0.0000
 40
0.0100
 41
0.0100
  0
VERTEX
  8
LPF3500_DRD
 10
3.8000
 20
6.2250
 30
0.0000
  0
VERTEX
  8
LPF3500_DRD
 10
3.8250
 20
6.2500
 30
0.0000
  0
SEQEND
  0
POLYLINE
  8
LPF3500_DRD
 66
1
 10
0.0000
 20
0.0000
 30
0.0000
 40
0.0100
 41
0.0100
  0
VERTEX
  8
LPF3500_DRD
 10
3.7750
 20
6.2500
 30
0.0000
  0
VERTEX
  8
LPF3500_DRD
 10
3.8000
 20
6.2250
 30
0.0000
  0
SEQEND
  0
POLYLINE
  8
LPF3500_DRD
 66
1
 10
0.0000
 20
0.0000
 30
0.0000
 40
0.0100
 41
0.0100
  0
VERTEX
  8
LPF3500_DRD
 10
0.2000
 20
7.9930
 30
0.0000
  0
VERTEX
  8
LPF3500_DRD
 10
0.1750
 20
7.9680
 30
0.0000
  0
SEQEND
  0
POLYLINE
  8
LPF3500_DRD
 66
1
 10
0.0000
 20
0.0000
 30
0.0000
 40
0.0100
 41
0.0100
  0
VERTEX
  8
LPF3500_DRD
 10
0.2250
 20
7.9680
 30
0.0000
  0
VERTEX
  8
LPF3500_DRD
 10
0.2000
 20
7.9930
 30
0.0000
  0
SEQEND
  0
POLYLINE
  8
LPF3500_DRD
 66
1
 10
0.0000
 20
0.0000
 30
0.0000
 40
0.0100
 41
0.0100
  0
VERTEX
  8
LPF3500_DRD
 10
0.2000
 20
7.9430
 30
0.0000
  0
VERTEX
  8
LPF3500_DRD
 10
0.2250
 20
7.9680
 30
0.0000
  0
SEQEND
  0
POLYLINE
  8
LPF3500_DRD
 66
1
 10
0.0000
 20
0.0000
 30
0.0000
 40
0.0100
 41
0.0100
  0
VERTEX
  8
LPF3500_DRD
 10
0.1750
 20
7.9680
 30
0.0000
  0
VERTEX
  8
LPF3500_DRD
 10
0.2000
 20
7.9430
 30
0.0000
  0
SEQEND
  0
INSERT
  2
RECTANGLE_36
  8
LPF3500_SMT
 10
2.6560
 20
0.0520
 30
0.0000
 41
1.0000
 42
1.0000
 50
0.0000
  0
INSERT
  2
RECTANGLE_36
  8
LPF3500_SMT
 10
0.7420
 20
0.0520
 30
0.0000
 41
1.0000
 42
1.0000
 50
0.0000
  0
POLYLINE
  8
LPF3500_SMT
 66
1
 10
0.0000
 20
0.0000
 30
0.0000
 40
0.0100
 41
0.0100
  0
VERTEX
  8
LPF3500_SMT
 10
1.7376
 20
0.7110
 30
0.0000
  0
VERTEX
  8
LPF3500_SMT
 10
1.7376
 20
0.7610
 30
0.0000
  0
SEQEND
  0
POLYLINE
  8
LPF3500_SMT
 66
1
 10
0.0000
 20
0.0000
 30
0.0000
 40
0.0100
 41
0.0100
  0
VERTEX
  8
LPF3500_SMT
 10
1.7334
 20
0.7110
 30
0.0000
  0
VERTEX
  8
LPF3500_SMT
 10
1.7584
 20
0.7110
 30
0.0000
  0
VERTEX
  8
LPF3500_SMT
 10
1.7667
 20
0.7193
 30
0.0000
  0
VERTEX
  8
LPF3500_SMT
 10
1.7667
 20
0.7277
 30
0.0000
  0
VERTEX
  8
LPF3500_SMT
 10
1.7626
 20
0.7360
 30
0.0000
  0
SEQEND
  0
POLYLINE
  8
LPF3500_SMT
 66
1
 10
0.0000
 20
0.0000
 30
0.0000
 40
0.0100
 41
0.0100
  0
VERTEX
  8
LPF3500_SMT
 10
1.7376
 20
0.7360
 30
0.0000
  0
VERTEX
  8
LPF3500_SMT
 10
1.7626
 20
0.7360
 30
0.0000
  0
VERTEX
  8
LPF3500_SMT
 10
1.7667
 20
0.7443
 30
0.0000
  0
VERTEX
  8
LPF3500_SMT
 10
1.7667
 20
0.7527
 30
0.0000
  0
VERTEX
  8
LPF3500_SMT
 10
1.7584
 20
0.7610
 30
0.0000
  0
VERTEX
  8
LPF3500_SMT
 10
1.7334
 20
0.7610
 30
0.0000
  0
SEQEND
  0
POLYLINE
  8
LPF3500_SMT
 66
1
 10
0.0000
 20
0.0000
 30
0.0000
 40
0.0100
 41
0.0100
  0
VERTEX
  8
LPF3500_SMT
 10
1.7092
 20
0.7193
 30
0.0000
  0
VERTEX
  8
LPF3500_SMT
 10
1.7051
 20
0.7110
 30
0.0000
  0
VERTEX
  8
LPF3500_SMT
 10
1.6801
 20
0.7110
 30
0.0000
  0
VERTEX
  8
LPF3500_SMT
 10
1.6759
 20
0.7193
 30
0.0000
  0
VERTEX
  8
LPF3500_SMT
 10
1.6759
 20
0.7527
 30
0.0000
  0
VERTEX
  8
LPF3500_SMT
 10
1.6801
 20
0.7610
 30
0.0000
  0
VERTEX
  8
LPF3500_SMT
 10
1.7051
 20
0.7610
 30
0.0000
  0
VERTEX
  8
LPF3500_SMT
 10
1.7092
 20
0.7527
 30
0.0000
  0
SEQEND
  0
POLYLINE
  8
LPF3500_SMT
 66
1
 10
0.0000
 20
0.0000
 30
0.0000
 40
0.0100
 41
0.0100
  0
VERTEX
  8
LPF3500_SMT
 10
1.6184
 20
0.7360
 30
0.0000
  0
VERTEX
  8
LPF3500_SMT
 10
1.6434
 20
0.7360
 30
0.0000
  0
VERTEX
  8
LPF3500_SMT
 10
1.6517
 20
0.7443
 30
0.0000
  0
VERTEX
  8
LPF3500_SMT
 10
1.6517
 20
0.7527
 30
0.0000
  0
VERTEX
  8
LPF3500_SMT
 10
1.6434
 20
0.7610
 30
0.0000
  0
VERTEX
  8
LPF3500_SMT
 10
1.6184
 20
0.7610
 30
0.0000
  0
VERTEX
  8
LPF3500_SMT
 10
1.6184
 20
0.7110
 30
0.0000
  0
SEQEND
  0
POLYLINE
  8
LPF3500_SMT
 66
1
 10
0.0000
 20
0.0000
 30
0.0000
 40
0.0100
 41
0.0100
  0
VERTEX
  8
LPF3500_SMT
 10
1.9893
 20
0.6040
 30
0.0000
  0
VERTEX
  8
LPF3500_SMT
 10
1.9893
 20
0.6540
 30
0.0000
  0
SEQEND
  0
POLYLINE
  8
LPF3500_SMT
 66
1
 10
0.0000
 20
0.0000
 30
0.0000
 40
0.0100
 41
0.0100
  0
VERTEX
  8
LPF3500_SMT
 10
1.9851
 20
0.6040
 30
0.0000
  0
VERTEX
  8
LPF3500_SMT
 10
2.0101
 20
0.6040
 30
0.0000
  0
VERTEX
  8
LPF3500_SMT
 10
2.0185
 20
0.6123
 30
0.0000
  0
VERTEX
  8
LPF3500_SMT
 10
2.0185
 20
0.6207
 30
0.0000
  0
VERTEX
  8
LPF3500_SMT
 10
2.0143
 20
0.6290
 30
0.0000
  0
SEQEND
  0
POLYLINE
  8
LPF3500_SMT
 66
1
 10
0.0000
 20
0.0000
 30
0.0000
 40
0.0100
 41
0.0100
  0
VERTEX
  8
LPF3500_SMT
 10
1.9893
 20
0.6290
 30
0.0000
  0
VERTEX
  8
LPF3500_SMT
 10
2.0143
 20
0.6290
 30
0.0000
  0
VERTEX
  8
LPF3500_SMT
 10
2.0185
 20
0.6373
 30
0.0000
  0
VERTEX
  8
LPF3500_SMT
 10
2.0185
 20
0.6457
 30
0.0000
  0
VERTEX
  8
LPF3500_SMT
 10
2.0101
 20
0.6540
 30
0.0000
  0
VERTEX
  8
LPF3500_SMT
 10
1.9852
 20
0.6540
 30
0.0000
  0
SEQEND
  0
POLYLINE
  8
LPF3500_SMT
 66
1
 10
0.0000
 20
0.0000
 30
0.0000
 40
0.0100
 41
0.0100
  0
VERTEX
  8
LPF3500_SMT
 10
1.8847
 20
0.6373
 30
0.0000
  0
VERTEX
  8
LPF3500_SMT
 10
1.8681
 20
0.6040
 30
0.0000
  0
VERTEX
  8
LPF3500_SMT
 10
1.8514
 20
0.6373
 30
0.0000
  0
SEQEND
  0
POLYLINE
  8
LPF3500_SMT
 66
1
 10
0.0000
 20
0.0000
 30
0.0000
 40
0.0100
 41
0.0100
  0
VERTEX
  8
LPF3500_SMT
 10
1.8231
 20
0.6040
 30
0.0000
  0
VERTEX
  8
LPF3500_SMT
 10
1.7981
 20
0.6040
 30
0.0000
  0
VERTEX
  8
LPF3500_SMT
 10
1.7939
 20
0.6123
 30
0.0000
  0
VERTEX
  8
LPF3500_SMT
 10
1.7939
 20
0.6290
 30
0.0000
  0
VERTEX
  8
LPF3500_SMT
 10
1.7981
 20
0.6373
 30
0.0000
  0
VERTEX
  8
LPF3500_SMT
 10
1.8231
 20
0.6373
 30
0.0000
  0
VERTEX
  8
LPF3500_SMT
 10
1.8272
 20
0.6290
 30
0.0000
  0
VERTEX
  8
LPF3500_SMT
 10
1.8272
 20
0.6207
 30
0.0000
  0
VERTEX
  8
LPF3500_SMT
 10
1.7939
 20
0.6207
 30
0.0000
  0
SEQEND
  0
POLYLINE
  8
LPF3500_SMT
 66
1
 10
0.0000
 20
0.0000
 30
0.0000
 40
0.0100
 41
0.0100
  0
VERTEX
  8
LPF3500_SMT
 10
1.7572
 20
0.6290
 30
0.0000
  0
VERTEX
  8
LPF3500_SMT
 10
1.7697
 20
0.6040
 30
0.0000
  0
SEQEND
  0
POLYLINE
  8
LPF3500_SMT
 66
1
 10
0.0000
 20
0.0000
 30
0.0000
 40
0.0100
 41
0.0100
  0
VERTEX
  8
LPF3500_SMT
 10
1.7364
 20
0.6290
 30
0.0000
  0
VERTEX
  8
LPF3500_SMT
 10
1.7614
 20
0.6290
 30
0.0000
  0
VERTEX
  8
LPF3500_SMT
 10
1.7697
 20
0.6373
 30
0.0000
  0
VERTEX
  8
LPF3500_SMT
 10
1.7697
 20
0.6457
 30
0.0000
  0
VERTEX
  8
LPF3500_SMT
 10
1.7614
 20
0.6540
 30
0.0000
  0
VERTEX
  8
LPF3500_SMT
 10
1.7364
 20
0.6540
 30
0.0000
  0
VERTEX
  8
LPF3500_SMT
 10
1.7364
 20
0.6040
 30
0.0000
  0
SEQEND
  0
POLYLINE
  8
LPF3500_SMT
 66
1
 10
0.0000
 20
0.0000
 30
0.0000
 40
0.0100
 41
0.0100
  0
VERTEX
  8
LPF3500_SMT
 10
1.6627
 20
0.6020
 30
0.0000
  0
VERTEX
  8
LPF3500_SMT
 10
1.6544
 20
0.6103
 30
0.0000
  0
VERTEX
  8
LPF3500_SMT
 10
1.6502
 20
0.6187
 30
0.0000
  0
VERTEX
  8
LPF3500_SMT
 10
1.6502
 20
0.6353
 30
0.0000
  0
VERTEX
  8
LPF3500_SMT
 10
1.6544
 20
0.6437
 30
0.0000
  0
VERTEX
  8
LPF3500_SMT
 10
1.6627
 20
0.6520
 30
0.0000
  0
VERTEX
  8
LPF3500_SMT
 10
1.6711
 20
0.6520
 30
0.0000
  0
VERTEX
  8
LPF3500_SMT
 10
1.6794
 20
0.6437
 30
0.0000
  0
VERTEX
  8
LPF3500_SMT
 10
1.6836
 20
0.6353
 30
0.0000
  0
VERTEX
  8
LPF3500_SMT
 10
1.6836
 20
0.6187
 30
0.0000
  0
VERTEX
  8
LPF3500_SMT
 10
1.6794
 20
0.6103
 30
0.0000
  0
VERTEX
  8
LPF3500_SMT
 10
1.6711
 20
0.6020
 30
0.0000
  0
VERTEX
  8
LPF3500_SMT
 10
1.6627
 20
0.6020
 30
0.0000
  0
SEQEND
  0
POLYLINE
  8
LPF3500_SMT
 66
1
 10
0.0000
 20
0.0000
 30
0.0000
 40
0.0100
 41
0.0100
  0
VERTEX
  8
LPF3500_SMT
 10
1.6052
 20
0.6020
 30
0.0000
  0
VERTEX
  8
LPF3500_SMT
 10
1.5969
 20
0.6103
 30
0.0000
  0
VERTEX
  8
LPF3500_SMT
 10
1.5927
 20
0.6187
 30
0.0000
  0
VERTEX
  8
LPF3500_SMT
 10
1.5927
 20
0.6353
 30
0.0000
  0
VERTEX
  8
LPF3500_SMT
 10
1.5969
 20
0.6437
 30
0.0000
  0
VERTEX
  8
LPF3500_SMT
 10
1.6052
 20
0.6520
 30
0.0000
  0
VERTEX
  8
LPF3500_SMT
 10
1.6136
 20
0.6520
 30
0.0000
  0
VERTEX
  8
LPF3500_SMT
 10
1.6219
 20
0.6437
 30
0.0000
  0
VERTEX
  8
LPF3500_SMT
 10
1.6261
 20
0.6353
 30
0.0000
  0
VERTEX
  8
LPF3500_SMT
 10
1.6261
 20
0.6187
 30
0.0000
  0
VERTEX
  8
LPF3500_SMT
 10
1.6219
 20
0.6103
 30
0.0000
  0
VERTEX
  8
LPF3500_SMT
 10
1.6136
 20
0.6020
 30
0.0000
  0
VERTEX
  8
LPF3500_SMT
 10
1.6052
 20
0.6020
 30
0.0000
  0
SEQEND
  0
POLYLINE
  8
LPF3500_SMT
 66
1
 10
0.0000
 20
0.0000
 30
0.0000
 40
0.0100
 41
0.0100
  0
VERTEX
  8
LPF3500_SMT
 10
1.5352
 20
0.6103
 30
0.0000
  0
VERTEX
  8
LPF3500_SMT
 10
1.5394
 20
0.6020
 30
0.0000
  0
VERTEX
  8
LPF3500_SMT
 10
1.5644
 20
0.6020
 30
0.0000
  0
VERTEX
  8
LPF3500_SMT
 10
1.5686
 20
0.6103
 30
0.0000
  0
VERTEX
  8
LPF3500_SMT
 10
1.5686
 20
0.6270
 30
0.0000
  0
VERTEX
  8
LPF3500_SMT
 10
1.5602
 20
0.6353
 30
0.0000
  0
VERTEX
  8
LPF3500_SMT
 10
1.5352
 20
0.6353
 30
0.0000
  0
VERTEX
  8
LPF3500_SMT
 10
1.5352
 20
0.6520
 30
0.0000
  0
VERTEX
  8
LPF3500_SMT
 10
1.5686
 20
0.6520
 30
0.0000
  0
SEQEND
  0
POLYLINE
  8
LPF3500_SMT
 66
1
 10
0.0000
 20
0.0000
 30
0.0000
 40
0.0100
 41
0.0100
  0
VERTEX
  8
LPF3500_SMT
 10
1.4777
 20
0.6103
 30
0.0000
  0
VERTEX
  8
LPF3500_SMT
 10
1.4861
 20
0.6020
 30
0.0000
  0
VERTEX
  8
LPF3500_SMT
 10
1.5027
 20
0.6020
 30
0.0000
  0
VERTEX
  8
LPF3500_SMT
 10
1.5111
 20
0.6103
 30
0.0000
  0
VERTEX
  8
LPF3500_SMT
 10
1.5111
 20
0.6187
 30
0.0000
  0
VERTEX
  8
LPF3500_SMT
 10
1.4944
 20
0.6353
 30
0.0000
  0
VERTEX
  8
LPF3500_SMT
 10
1.5111
 20
0.6520
 30
0.0000
  0
VERTEX
  8
LPF3500_SMT
 10
1.4777
 20
0.6520
 30
0.0000
  0
SEQEND
  0
POLYLINE
  8
LPF3500_SMT
 66
1
 10
0.0000
 20
0.0000
 30
0.0000
 40
0.0100
 41
0.0100
  0
VERTEX
  8
LPF3500_SMT
 10
1.4452
 20
0.6270
 30
0.0000
  0
VERTEX
  8
LPF3500_SMT
 10
1.4202
 20
0.6270
 30
0.0000
  0
SEQEND
  0
POLYLINE
  8
LPF3500_SMT
 66
1
 10
0.0000
 20
0.0000
 30
0.0000
 40
0.0100
 41
0.0100
  0
VERTEX
  8
LPF3500_SMT
 10
1.4202
 20
0.6020
 30
0.0000
  0
VERTEX
  8
LPF3500_SMT
 10
1.4202
 20
0.6520
 30
0.0000
  0
VERTEX
  8
LPF3500_SMT
 10
1.4536
 20
0.6520
 30
0.0000
  0
SEQEND
  0
POLYLINE
  8
LPF3500_SMT
 66
1
 10
0.0000
 20
0.0000
 30
0.0000
 40
0.0100
 41
0.0100
  0
VERTEX
  8
LPF3500_SMT
 10
1.3627
 20
0.6270
 30
0.0000
  0
VERTEX
  8
LPF3500_SMT
 10
1.3877
 20
0.6270
 30
0.0000
  0
VERTEX
  8
LPF3500_SMT
 10
1.3961
 20
0.6353
 30
0.0000
  0
VERTEX
  8
LPF3500_SMT
 10
1.3961
 20
0.6437
 30
0.0000
  0
VERTEX
  8
LPF3500_SMT
 10
1.3877
 20
0.6520
 30
0.0000
  0
VERTEX
  8
LPF3500_SMT
 10
1.3627
 20
0.6520
 30
0.0000
  0
VERTEX
  8
LPF3500_SMT
 10
1.3627
 20
0.6020
 30
0.0000
  0
SEQEND
  0
POLYLINE
  8
LPF3500_SMT
 66
1
 10
0.0000
 20
0.0000
 30
0.0000
 40
0.0100
 41
0.0100
  0
VERTEX
  8
LPF3500_SMT
 10
1.3386
 20
0.6020
 30
0.0000
  0
VERTEX
  8
LPF3500_SMT
 10
1.3094
 20
0.6020
 30
0.0000
  0
VERTEX
  8
LPF3500_SMT
 10
1.3094
 20
0.6520
 30
0.0000
  0
SEQEND
  0
POLYLINE
  8
LPF3500_SMT
 66
1
 10
0.0000
 20
0.0000
 30
0.0000
 40
0.0100
 41
0.0100
  0
VERTEX
  8
LPF3500_SMT
 10
0.8720
 20
0.1060
 30
0.0000
  0
VERTEX
  8
LPF3500_SMT
 10
0.8720
 20
0.0200
 30
0.0000
  0
SEQEND
  0
POLYLINE
  8
LPF3500_SMT
 66
1
 10
0.0000
 20
0.0000
 30
0.0000
 40
0.0100
 41
0.0100
  0
VERTEX
  8
LPF3500_SMT
 10
0.8630
 20
0.1060
 30
0.0000
  0
VERTEX
  8
LPF3500_SMT
 10
0.8630
 20
0.0200
 30
0.0000
  0
SEQEND
  0
POLYLINE
  8
LPF3500_SMT
 66
1
 10
0.0000
 20
0.0000
 30
0.0000
 40
0.0100
 41
0.0100
  0
VERTEX
  8
LPF3500_SMT
 10
0.9460
 20
0.1050
 30
0.0000
  0
VERTEX
  8
LPF3500_SMT
 10
0.8590
 20
0.1050
 30
0.0000
  0
SEQEND
  0
POLYLINE
  8
LPF3500_SMT
 66
1
 10
0.0000
 20
0.0000
 30
0.0000
 40
0.0100
 41
0.0100
  0
VERTEX
  8
LPF3500_SMT
 10
0.9460
 20
0.0960
 30
0.0000
  0
VERTEX
  8
LPF3500_SMT
 10
0.8590
 20
0.0960
 30
0.0000
  0
SEQEND
  0
POLYLINE
  8
LPF3500_SMT
 66
1
 10
0.0000
 20
0.0000
 30
0.0000
 40
0.0100
 41
0.0100
  0
VERTEX
  8
LPF3500_SMT
 10
0.9460
 20
0.0870
 30
0.0000
  0
VERTEX
  8
LPF3500_SMT
 10
0.8590
 20
0.0870
 30
0.0000
  0
SEQEND
  0
POLYLINE
  8
LPF3500_SMT
 66
1
 10
0.0000
 20
0.0000
 30
0.0000
 40
0.0100
 41
0.0100
  0
VERTEX
  8
LPF3500_SMT
 10
0.9460
 20
0.0780
 30
0.0000
  0
VERTEX
  8
LPF3500_SMT
 10
0.8590
 20
0.0780
 30
0.0000
  0
SEQEND
  0
POLYLINE
  8
LPF3500_SMT
 66
1
 10
0.0000
 20
0.0000
 30
0.0000
 40
0.0100
 41
0.0100
  0
VERTEX
  8
LPF3500_SMT
 10
0.9460
 20
0.0690
 30
0.0000
  0
VERTEX
  8
LPF3500_SMT
 10
0.8590
 20
0.0690
 30
0.0000
  0
SEQEND
  0
POLYLINE
  8
LPF3500_SMT
 66
1
 10
0.0000
 20
0.0000
 30
0.0000
 40
0.0100
 41
0.0100
  0
VERTEX
  8
LPF3500_SMT
 10
0.9460
 20
0.0600
 30
0.0000
  0
VERTEX
  8
LPF3500_SMT
 10
0.8590
 20
0.0600
 30
0.0000
  0
SEQEND
  0
POLYLINE
  8
LPF3500_SMT
 66
1
 10
0.0000
 20
0.0000
 30
0.0000
 40
0.0100
 41
0.0100
  0
VERTEX
  8
LPF3500_SMT
 10
0.9460
 20
0.0510
 30
0.0000
  0
VERTEX
  8
LPF3500_SMT
 10
0.8590
 20
0.0510
 30
0.0000
  0
SEQEND
  0
POLYLINE
  8
LPF3500_SMT
 66
1
 10
0.0000
 20
0.0000
 30
0.0000
 40
0.0100
 41
0.0100
  0
VERTEX
  8
LPF3500_SMT
 10
0.9460
 20
0.0420
 30
0.0000
  0
VERTEX
  8
LPF3500_SMT
 10
0.8590
 20
0.0420
 30
0.0000
  0
SEQEND
  0
POLYLINE
  8
LPF3500_SMT
 66
1
 10
0.0000
 20
0.0000
 30
0.0000
 40
0.0100
 41
0.0100
  0
VERTEX
  8
LPF3500_SMT
 10
0.9460
 20
0.0330
 30
0.0000
  0
VERTEX
  8
LPF3500_SMT
 10
0.8590
 20
0.0330
 30
0.0000
  0
SEQEND
  0
POLYLINE
  8
LPF3500_SMT
 66
1
 10
0.0000
 20
0.0000
 30
0.0000
 40
0.0100
 41
0.0100
  0
VERTEX
  8
LPF3500_SMT
 10
0.9460
 20
0.0200
 30
0.0000
  0
VERTEX
  8
LPF3500_SMT
 10
0.8590
 20
0.0200
 30
0.0000
  0
SEQEND
  0
POLYLINE
  8
LPF3500_SMT
 66
1
 10
0.0000
 20
0.0000
 30
0.0000
 40
0.0100
 41
0.0100
  0
VERTEX
  8
LPF3500_SMT
 10
0.9460
 20
0.1060
 30
0.0000
  0
VERTEX
  8
LPF3500_SMT
 10
0.9460
 20
0.0200
 30
0.0000
  0
SEQEND
  0
POLYLINE
  8
LPF3500_SMT
 66
1
 10
0.0000
 20
0.0000
 30
0.0000
 40
0.0100
 41
0.0100
  0
VERTEX
  8
LPF3500_SMT
 10
0.9440
 20
0.1060
 30
0.0000
  0
VERTEX
  8
LPF3500_SMT
 10
0.9440
 20
0.0200
 30
0.0000
  0
SEQEND
  0
POLYLINE
  8
LPF3500_SMT
 66
1
 10
0.0000
 20
0.0000
 30
0.0000
 40
0.0100
 41
0.0100
  0
VERTEX
  8
LPF3500_SMT
 10
0.9350
 20
0.1060
 30
0.0000
  0
VERTEX
  8
LPF3500_SMT
 10
0.9350
 20
0.0200
 30
0.0000
  0
SEQEND
  0
POLYLINE
  8
LPF3500_SMT
 66
1
 10
0.0000
 20
0.0000
 30
0.0000
 40
0.0100
 41
0.0100
  0
VERTEX
  8
LPF3500_SMT
 10
0.9260
 20
0.1060
 30
0.0000
  0
VERTEX
  8
LPF3500_SMT
 10
0.9260
 20
0.0200
 30
0.0000
  0
SEQEND
  0
POLYLINE
  8
LPF3500_SMT
 66
1
 10
0.0000
 20
0.0000
 30
0.0000
 40
0.0100
 41
0.0100
  0
VERTEX
  8
LPF3500_SMT
 10
0.9170
 20
0.1060
 30
0.0000
  0
VERTEX
  8
LPF3500_SMT
 10
0.9170
 20
0.0200
 30
0.0000
  0
SEQEND
  0
POLYLINE
  8
LPF3500_SMT
 66
1
 10
0.0000
 20
0.0000
 30
0.0000
 40
0.0100
 41
0.0100
  0
VERTEX
  8
LPF3500_SMT
 10
0.9080
 20
0.1060
 30
0.0000
  0
VERTEX
  8
LPF3500_SMT
 10
0.9080
 20
0.0200
 30
0.0000
  0
SEQEND
  0
POLYLINE
  8
LPF3500_SMT
 66
1
 10
0.0000
 20
0.0000
 30
0.0000
 40
0.0100
 41
0.0100
  0
VERTEX
  8
LPF3500_SMT
 10
0.8990
 20
0.1060
 30
0.0000
  0
VERTEX
  8
LPF3500_SMT
 10
0.8990
 20
0.0200
 30
0.0000
  0
SEQEND
  0
POLYLINE
  8
LPF3500_SMT
 66
1
 10
0.0000
 20
0.0000
 30
0.0000
 40
0.0100
 41
0.0100
  0
VERTEX
  8
LPF3500_SMT
 10
0.8900
 20
0.1060
 30
0.0000
  0
VERTEX
  8
LPF3500_SMT
 10
0.8900
 20
0.0200
 30
0.0000
  0
SEQEND
  0
POLYLINE
  8
LPF3500_SMT
 66
1
 10
0.0000
 20
0.0000
 30
0.0000
 40
0.0100
 41
0.0100
  0
VERTEX
  8
LPF3500_SMT
 10
0.8810
 20
0.1060
 30
0.0000
  0
VERTEX
  8
LPF3500_SMT
 10
0.8810
 20
0.0200
 30
0.0000
  0
SEQEND
  0
POLYLINE
  8
LPF3500_SMT
 66
1
 10
0.0000
 20
0.0000
 30
0.0000
 40
0.0100
 41
0.0100
  0
VERTEX
  8
LPF3500_SMT
 10
0.9460
 20
0.0240
 30
0.0000
  0
VERTEX
  8
LPF3500_SMT
 10
0.8590
 20
0.0240
 30
0.0000
  0
SEQEND
  0
POLYLINE
  8
LPF3500_SMT
 66
1
 10
0.0000
 20
0.0000
 30
0.0000
 40
0.0100
 41
0.0100
  0
VERTEX
  8
LPF3500_SMT
 10
0.9460
 20
0.1060
 30
0.0000
  0
VERTEX
  8
LPF3500_SMT
 10
0.8590
 20
0.1060
 30
0.0000
  0
VERTEX
  8
LPF3500_SMT
 10
0.8590
 20
0.0200
 30
0.0000
  0
SEQEND
  0
POLYLINE
  8
LPF3500_SMT
 66
1
 10
0.0000
 20
0.0000
 30
0.0000
 40
0.0100
 41
0.0100
  0
VERTEX
  8
LPF3500_SMT
 10
2.4650
 20
0.1060
 30
0.0000
  0
VERTEX
  8
LPF3500_SMT
 10
2.4650
 20
0.0200
 30
0.0000
  0
SEQEND
  0
POLYLINE
  8
LPF3500_SMT
 66
1
 10
0.0000
 20
0.0000
 30
0.0000
 40
0.0100
 41
0.0100
  0
VERTEX
  8
LPF3500_SMT
 10
2.4560
 20
0.1060
 30
0.0000
  0
VERTEX
  8
LPF3500_SMT
 10
2.4560
 20
0.0200
 30
0.0000
  0
SEQEND
  0
POLYLINE
  8
LPF3500_SMT
 66
1
 10
0.0000
 20
0.0000
 30
0.0000
 40
0.0100
 41
0.0100
  0
VERTEX
  8
LPF3500_SMT
 10
2.5390
 20
0.1050
 30
0.0000
  0
VERTEX
  8
LPF3500_SMT
 10
2.4520
 20
0.1050
 30
0.0000
  0
SEQEND
  0
POLYLINE
  8
LPF3500_SMT
 66
1
 10
0.0000
 20
0.0000
 30
0.0000
 40
0.0100
 41
0.0100
  0
VERTEX
  8
LPF3500_SMT
 10
2.5390
 20
0.0960
 30
0.0000
  0
VERTEX
  8
LPF3500_SMT
 10
2.4520
 20
0.0960
 30
0.0000
  0
SEQEND
  0
POLYLINE
  8
LPF3500_SMT
 66
1
 10
0.0000
 20
0.0000
 30
0.0000
 40
0.0100
 41
0.0100
  0
VERTEX
  8
LPF3500_SMT
 10
2.5390
 20
0.0870
 30
0.0000
  0
VERTEX
  8
LPF3500_SMT
 10
2.4520
 20
0.0870
 30
0.0000
  0
SEQEND
  0
POLYLINE
  8
LPF3500_SMT
 66
1
 10
0.0000
 20
0.0000
 30
0.0000
 40
0.0100
 41
0.0100
  0
VERTEX
  8
LPF3500_SMT
 10
2.5390
 20
0.0780
 30
0.0000
  0
VERTEX
  8
LPF3500_SMT
 10
2.4520
 20
0.0780
 30
0.0000
  0
SEQEND
  0
POLYLINE
  8
LPF3500_SMT
 66
1
 10
0.0000
 20
0.0000
 30
0.0000
 40
0.0100
 41
0.0100
  0
VERTEX
  8
LPF3500_SMT
 10
2.5390
 20
0.0690
 30
0.0000
  0
VERTEX
  8
LPF3500_SMT
 10
2.4520
 20
0.0690
 30
0.0000
  0
SEQEND
  0
POLYLINE
  8
LPF3500_SMT
 66
1
 10
0.0000
 20
0.0000
 30
0.0000
 40
0.0100
 41
0.0100
  0
VERTEX
  8
LPF3500_SMT
 10
2.5390
 20
0.0600
 30
0.0000
  0
VERTEX
  8
LPF3500_SMT
 10
2.4520
 20
0.0600
 30
0.0000
  0
SEQEND
  0
POLYLINE
  8
LPF3500_SMT
 66
1
 10
0.0000
 20
0.0000
 30
0.0000
 40
0.0100
 41
0.0100
  0
VERTEX
  8
LPF3500_SMT
 10
2.5390
 20
0.0510
 30
0.0000
  0
VERTEX
  8
LPF3500_SMT
 10
2.4520
 20
0.0510
 30
0.0000
  0
SEQEND
  0
POLYLINE
  8
LPF3500_SMT
 66
1
 10
0.0000
 20
0.0000
 30
0.0000
 40
0.0100
 41
0.0100
  0
VERTEX
  8
LPF3500_SMT
 10
2.5390
 20
0.0420
 30
0.0000
  0
VERTEX
  8
LPF3500_SMT
 10
2.4520
 20
0.0420
 30
0.0000
  0
SEQEND
  0
POLYLINE
  8
LPF3500_SMT
 66
1
 10
0.0000
 20
0.0000
 30
0.0000
 40
0.0100
 41
0.0100
  0
VERTEX
  8
LPF3500_SMT
 10
2.5390
 20
0.0330
 30
0.0000
  0
VERTEX
  8
LPF3500_SMT
 10
2.4520
 20
0.0330
 30
0.0000
  0
SEQEND
  0
POLYLINE
  8
LPF3500_SMT
 66
1
 10
0.0000
 20
0.0000
 30
0.0000
 40
0.0100
 41
0.0100
  0
VERTEX
  8
LPF3500_SMT
 10
2.5390
 20
0.0200
 30
0.0000
  0
VERTEX
  8
LPF3500_SMT
 10
2.4520
 20
0.0200
 30
0.0000
  0
SEQEND
  0
POLYLINE
  8
LPF3500_SMT
 66
1
 10
0.0000
 20
0.0000
 30
0.0000
 40
0.0100
 41
0.0100
  0
VERTEX
  8
LPF3500_SMT
 10
2.5390
 20
0.1060
 30
0.0000
  0
VERTEX
  8
LPF3500_SMT
 10
2.5390
 20
0.0200
 30
0.0000
  0
SEQEND
  0
POLYLINE
  8
LPF3500_SMT
 66
1
 10
0.0000
 20
0.0000
 30
0.0000
 40
0.0100
 41
0.0100
  0
VERTEX
  8
LPF3500_SMT
 10
2.5370
 20
0.1060
 30
0.0000
  0
VERTEX
  8
LPF3500_SMT
 10
2.5370
 20
0.0200
 30
0.0000
  0
SEQEND
  0
POLYLINE
  8
LPF3500_SMT
 66
1
 10
0.0000
 20
0.0000
 30
0.0000
 40
0.0100
 41
0.0100
  0
VERTEX
  8
LPF3500_SMT
 10
2.5280
 20
0.1060
 30
0.0000
  0
VERTEX
  8
LPF3500_SMT
 10
2.5280
 20
0.0200
 30
0.0000
  0
SEQEND
  0
POLYLINE
  8
LPF3500_SMT
 66
1
 10
0.0000
 20
0.0000
 30
0.0000
 40
0.0100
 41
0.0100
  0
VERTEX
  8
LPF3500_SMT
 10
2.5190
 20
0.1060
 30
0.0000
  0
VERTEX
  8
LPF3500_SMT
 10
2.5190
 20
0.0200
 30
0.0000
  0
SEQEND
  0
POLYLINE
  8
LPF3500_SMT
 66
1
 10
0.0000
 20
0.0000
 30
0.0000
 40
0.0100
 41
0.0100
  0
VERTEX
  8
LPF3500_SMT
 10
2.5100
 20
0.1060
 30
0.0000
  0
VERTEX
  8
LPF3500_SMT
 10
2.5100
 20
0.0200
 30
0.0000
  0
SEQEND
  0
POLYLINE
  8
LPF3500_SMT
 66
1
 10
0.0000
 20
0.0000
 30
0.0000
 40
0.0100
 41
0.0100
  0
VERTEX
  8
LPF3500_SMT
 10
2.5010
 20
0.1060
 30
0.0000
  0
VERTEX
  8
LPF3500_SMT
 10
2.5010
 20
0.0200
 30
0.0000
  0
SEQEND
  0
POLYLINE
  8
LPF3500_SMT
 66
1
 10
0.0000
 20
0.0000
 30
0.0000
 40
0.0100
 41
0.0100
  0
VERTEX
  8
LPF3500_SMT
 10
2.4920
 20
0.1060
 30
0.0000
  0
VERTEX
  8
LPF3500_SMT
 10
2.4920
 20
0.0200
 30
0.0000
  0
SEQEND
  0
POLYLINE
  8
LPF3500_SMT
 66
1
 10
0.0000
 20
0.0000
 30
0.0000
 40
0.0100
 41
0.0100
  0
VERTEX
  8
LPF3500_SMT
 10
2.4830
 20
0.1060
 30
0.0000
  0
VERTEX
  8
LPF3500_SMT
 10
2.4830
 20
0.0200
 30
0.0000
  0
SEQEND
  0
POLYLINE
  8
LPF3500_SMT
 66
1
 10
0.0000
 20
0.0000
 30
0.0000
 40
0.0100
 41
0.0100
  0
VERTEX
  8
LPF3500_SMT
 10
2.4740
 20
0.1060
 30
0.0000
  0
VERTEX
  8
LPF3500_SMT
 10
2.4740
 20
0.0200
 30
0.0000
  0
SEQEND
  0
POLYLINE
  8
LPF3500_SMT
 66
1
 10
0.0000
 20
0.0000
 30
0.0000
 40
0.0100
 41
0.0100
  0
VERTEX
  8
LPF3500_SMT
 10
2.5390
 20
0.0240
 30
0.0000
  0
VERTEX
  8
LPF3500_SMT
 10
2.4520
 20
0.0240
 30
0.0000
  0
SEQEND
  0
POLYLINE
  8
LPF3500_SMT
 66
1
 10
0.0000
 20
0.0000
 30
0.0000
 40
0.0100
 41
0.0100
  0
VERTEX
  8
LPF3500_SMT
 10
2.5390
 20
0.1060
 30
0.0000
  0
VERTEX
  8
LPF3500_SMT
 10
2.4520
 20
0.1060
 30
0.0000
  0
VERTEX
  8
LPF3500_SMT
 10
2.4520
 20
0.0200
 30
0.0000
  0
SEQEND
  0
POLYLINE
  8
LPF3500_SMT
 66
1
 10
0.0000
 20
0.0000
 30
0.0000
 40
0.0100
 41
0.0100
  0
VERTEX
  8
LPF3500_SMT
 10
0.7490
 20
1.1770
 30
0.0000
  0
VERTEX
  8
LPF3500_SMT
 10
0.7490
 20
1.1030
 30
0.0000
  0
SEQEND
  0
POLYLINE
  8
LPF3500_SMT
 66
1
 10
0.0000
 20
0.0000
 30
0.0000
 40
0.0100
 41
0.0100
  0
VERTEX
  8
LPF3500_SMT
 10
0.7400
 20
1.1770
 30
0.0000
  0
VERTEX
  8
LPF3500_SMT
 10
0.7400
 20
1.1030
 30
0.0000
  0
SEQEND
  0
POLYLINE
  8
LPF3500_SMT
 66
1
 10
0.0000
 20
0.0000
 30
0.0000
 40
0.0100
 41
0.0100
  0
VERTEX
  8
LPF3500_SMT
 10
0.7310
 20
1.1770
 30
0.0000
  0
VERTEX
  8
LPF3500_SMT
 10
0.7310
 20
1.1030
 30
0.0000
  0
SEQEND
  0
POLYLINE
  8
LPF3500_SMT
 66
1
 10
0.0000
 20
0.0000
 30
0.0000
 40
0.0100
 41
0.0100
  0
VERTEX
  8
LPF3500_SMT
 10
0.8140
 20
1.1700
 30
0.0000
  0
VERTEX
  8
LPF3500_SMT
 10
0.7270
 20
1.1700
 30
0.0000
  0
SEQEND
  0
POLYLINE
  8
LPF3500_SMT
 66
1
 10
0.0000
 20
0.0000
 30
0.0000
 40
0.0100
 41
0.0100
  0
VERTEX
  8
LPF3500_SMT
 10
0.8140
 20
1.1610
 30
0.0000
  0
VERTEX
  8
LPF3500_SMT
 10
0.7270
 20
1.1610
 30
0.0000
  0
SEQEND
  0
POLYLINE
  8
LPF3500_SMT
 66
1
 10
0.0000
 20
0.0000
 30
0.0000
 40
0.0100
 41
0.0100
  0
VERTEX
  8
LPF3500_SMT
 10
0.8140
 20
1.1520
 30
0.0000
  0
VERTEX
  8
LPF3500_SMT
 10
0.7270
 20
1.1520
 30
0.0000
  0
SEQEND
  0
POLYLINE
  8
LPF3500_SMT
 66
1
 10
0.0000
 20
0.0000
 30
0.0000
 40
0.0100
 41
0.0100
  0
VERTEX
  8
LPF3500_SMT
 10
0.8140
 20
1.1430
 30
0.0000
  0
VERTEX
  8
LPF3500_SMT
 10
0.7270
 20
1.1430
 30
0.0000
  0
SEQEND
  0
POLYLINE
  8
LPF3500_SMT
 66
1
 10
0.0000
 20
0.0000
 30
0.0000
 40
0.0100
 41
0.0100
  0
VERTEX
  8
LPF3500_SMT
 10
0.8140
 20
1.1340
 30
0.0000
  0
VERTEX
  8
LPF3500_SMT
 10
0.7270
 20
1.1340
 30
0.0000
  0
SEQEND
  0
POLYLINE
  8
LPF3500_SMT
 66
1
 10
0.0000
 20
0.0000
 30
0.0000
 40
0.0100
 41
0.0100
  0
VERTEX
  8
LPF3500_SMT
 10
0.8140
 20
1.1250
 30
0.0000
  0
VERTEX
  8
LPF3500_SMT
 10
0.7270
 20
1.1250
 30
0.0000
  0
SEQEND
  0
POLYLINE
  8
LPF3500_SMT
 66
1
 10
0.0000
 20
0.0000
 30
0.0000
 40
0.0100
 41
0.0100
  0
VERTEX
  8
LPF3500_SMT
 10
0.8140
 20
1.1160
 30
0.0000
  0
VERTEX
  8
LPF3500_SMT
 10
0.7270
 20
1.1160
 30
0.0000
  0
SEQEND
  0
POLYLINE
  8
LPF3500_SMT
 66
1
 10
0.0000
 20
0.0000
 30
0.0000
 40
0.0100
 41
0.0100
  0
VERTEX
  8
LPF3500_SMT
 10
0.7270
 20
1.1770
 30
0.0000
  0
VERTEX
  8
LPF3500_SMT
 10
0.7270
 20
1.1030
 30
0.0000
  0
SEQEND
  0
POLYLINE
  8
LPF3500_SMT
 66
1
 10
0.0000
 20
0.0000
 30
0.0000
 40
0.0100
 41
0.0100
  0
VERTEX
  8
LPF3500_SMT
 10
0.8140
 20
1.1030
 30
0.0000
  0
VERTEX
  8
LPF3500_SMT
 10
0.7270
 20
1.1030
 30
0.0000
  0
SEQEND
  0
POLYLINE
  8
LPF3500_SMT
 66
1
 10
0.0000
 20
0.0000
 30
0.0000
 40
0.0100
 41
0.0100
  0
VERTEX
  8
LPF3500_SMT
 10
0.8140
 20
1.1770
 30
0.0000
  0
VERTEX
  8
LPF3500_SMT
 10
0.8140
 20
1.1030
 30
0.0000
  0
SEQEND
  0
POLYLINE
  8
LPF3500_SMT
 66
1
 10
0.0000
 20
0.0000
 30
0.0000
 40
0.0100
 41
0.0100
  0
VERTEX
  8
LPF3500_SMT
 10
0.8120
 20
1.1770
 30
0.0000
  0
VERTEX
  8
LPF3500_SMT
 10
0.8120
 20
1.1030
 30
0.0000
  0
SEQEND
  0
POLYLINE
  8
LPF3500_SMT
 66
1
 10
0.0000
 20
0.0000
 30
0.0000
 40
0.0100
 41
0.0100
  0
VERTEX
  8
LPF3500_SMT
 10
0.8030
 20
1.1770
 30
0.0000
  0
VERTEX
  8
LPF3500_SMT
 10
0.8030
 20
1.1030
 30
0.0000
  0
SEQEND
  0
POLYLINE
  8
LPF3500_SMT
 66
1
 10
0.0000
 20
0.0000
 30
0.0000
 40
0.0100
 41
0.0100
  0
VERTEX
  8
LPF3500_SMT
 10
0.7940
 20
1.1770
 30
0.0000
  0
VERTEX
  8
LPF3500_SMT
 10
0.7940
 20
1.1030
 30
0.0000
  0
SEQEND
  0
POLYLINE
  8
LPF3500_SMT
 66
1
 10
0.0000
 20
0.0000
 30
0.0000
 40
0.0100
 41
0.0100
  0
VERTEX
  8
LPF3500_SMT
 10
0.7850
 20
1.1770
 30
0.0000
  0
VERTEX
  8
LPF3500_SMT
 10
0.7850
 20
1.1030
 30
0.0000
  0
SEQEND
  0
POLYLINE
  8
LPF3500_SMT
 66
1
 10
0.0000
 20
0.0000
 30
0.0000
 40
0.0100
 41
0.0100
  0
VERTEX
  8
LPF3500_SMT
 10
0.7760
 20
1.1770
 30
0.0000
  0
VERTEX
  8
LPF3500_SMT
 10
0.7760
 20
1.1030
 30
0.0000
  0
SEQEND
  0
POLYLINE
  8
LPF3500_SMT
 66
1
 10
0.0000
 20
0.0000
 30
0.0000
 40
0.0100
 41
0.0100
  0
VERTEX
  8
LPF3500_SMT
 10
0.7670
 20
1.1770
 30
0.0000
  0
VERTEX
  8
LPF3500_SMT
 10
0.7670
 20
1.1030
 30
0.0000
  0
SEQEND
  0
POLYLINE
  8
LPF3500_SMT
 66
1
 10
0.0000
 20
0.0000
 30
0.0000
 40
0.0100
 41
0.0100
  0
VERTEX
  8
LPF3500_SMT
 10
0.7580
 20
1.1770
 30
0.0000
  0
VERTEX
  8
LPF3500_SMT
 10
0.7580
 20
1.1030
 30
0.0000
  0
SEQEND
  0
POLYLINE
  8
LPF3500_SMT
 66
1
 10
0.0000
 20
0.0000
 30
0.0000
 40
0.0100
 41
0.0100
  0
VERTEX
  8
LPF3500_SMT
 10
0.8140
 20
1.1070
 30
0.0000
  0
VERTEX
  8
LPF3500_SMT
 10
0.7270
 20
1.1070
 30
0.0000
  0
SEQEND
  0
POLYLINE
  8
LPF3500_SMT
 66
1
 10
0.0000
 20
0.0000
 30
0.0000
 40
0.0100
 41
0.0100
  0
VERTEX
  8
LPF3500_SMT
 10
0.8140
 20
1.1770
 30
0.0000
  0
VERTEX
  8
LPF3500_SMT
 10
0.7270
 20
1.1770
 30
0.0000
  0
SEQEND
  0
POLYLINE
  8
LPF3500_SMT
 66
1
 10
0.0000
 20
0.0000
 30
0.0000
 40
0.0100
 41
0.0100
  0
VERTEX
  8
LPF3500_SMT
 10
2.6060
 20
1.1770
 30
0.0000
  0
VERTEX
  8
LPF3500_SMT
 10
2.6060
 20
1.1030
 30
0.0000
  0
SEQEND
  0
POLYLINE
  8
LPF3500_SMT
 66
1
 10
0.0000
 20
0.0000
 30
0.0000
 40
0.0100
 41
0.0100
  0
VERTEX
  8
LPF3500_SMT
 10
2.5970
 20
1.1770
 30
0.0000
  0
VERTEX
  8
LPF3500_SMT
 10
2.5970
 20
1.1030
 30
0.0000
  0
SEQEND
  0
POLYLINE
  8
LPF3500_SMT
 66
1
 10
0.0000
 20
0.0000
 30
0.0000
 40
0.0100
 41
0.0100
  0
VERTEX
  8
LPF3500_SMT
 10
2.5880
 20
1.1770
 30
0.0000
  0
VERTEX
  8
LPF3500_SMT
 10
2.5880
 20
1.1030
 30
0.0000
  0
SEQEND
  0
POLYLINE
  8
LPF3500_SMT
 66
1
 10
0.0000
 20
0.0000
 30
0.0000
 40
0.0100
 41
0.0100
  0
VERTEX
  8
LPF3500_SMT
 10
2.6710
 20
1.1700
 30
0.0000
  0
VERTEX
  8
LPF3500_SMT
 10
2.5840
 20
1.1700
 30
0.0000
  0
SEQEND
  0
POLYLINE
  8
LPF3500_SMT
 66
1
 10
0.0000
 20
0.0000
 30
0.0000
 40
0.0100
 41
0.0100
  0
VERTEX
  8
LPF3500_SMT
 10
2.6710
 20
1.1610
 30
0.0000
  0
VERTEX
  8
LPF3500_SMT
 10
2.5840
 20
1.1610
 30
0.0000
  0
SEQEND
  0
POLYLINE
  8
LPF3500_SMT
 66
1
 10
0.0000
 20
0.0000
 30
0.0000
 40
0.0100
 41
0.0100
  0
VERTEX
  8
LPF3500_SMT
 10
2.6710
 20
1.1520
 30
0.0000
  0
VERTEX
  8
LPF3500_SMT
 10
2.5840
 20
1.1520
 30
0.0000
  0
SEQEND
  0
POLYLINE
  8
LPF3500_SMT
 66
1
 10
0.0000
 20
0.0000
 30
0.0000
 40
0.0100
 41
0.0100
  0
VERTEX
  8
LPF3500_SMT
 10
2.6710
 20
1.1430
 30
0.0000
  0
VERTEX
  8
LPF3500_SMT
 10
2.5840
 20
1.1430
 30
0.0000
  0
SEQEND
  0
POLYLINE
  8
LPF3500_SMT
 66
1
 10
0.0000
 20
0.0000
 30
0.0000
 40
0.0100
 41
0.0100
  0
VERTEX
  8
LPF3500_SMT
 10
2.6710
 20
1.1340
 30
0.0000
  0
VERTEX
  8
LPF3500_SMT
 10
2.5840
 20
1.1340
 30
0.0000
  0
SEQEND
  0
POLYLINE
  8
LPF3500_SMT
 66
1
 10
0.0000
 20
0.0000
 30
0.0000
 40
0.0100
 41
0.0100
  0
VERTEX
  8
LPF3500_SMT
 10
2.6710
 20
1.1250
 30
0.0000
  0
VERTEX
  8
LPF3500_SMT
 10
2.5840
 20
1.1250
 30
0.0000
  0
SEQEND
  0
POLYLINE
  8
LPF3500_SMT
 66
1
 10
0.0000
 20
0.0000
 30
0.0000
 40
0.0100
 41
0.0100
  0
VERTEX
  8
LPF3500_SMT
 10
2.6710
 20
1.1160
 30
0.0000
  0
VERTEX
  8
LPF3500_SMT
 10
2.5840
 20
1.1160
 30
0.0000
  0
SEQEND
  0
POLYLINE
  8
LPF3500_SMT
 66
1
 10
0.0000
 20
0.0000
 30
0.0000
 40
0.0100
 41
0.0100
  0
VERTEX
  8
LPF3500_SMT
 10
2.5840
 20
1.1770
 30
0.0000
  0
VERTEX
  8
LPF3500_SMT
 10
2.5840
 20
1.1030
 30
0.0000
  0
SEQEND
  0
POLYLINE
  8
LPF3500_SMT
 66
1
 10
0.0000
 20
0.0000
 30
0.0000
 40
0.0100
 41
0.0100
  0
VERTEX
  8
LPF3500_SMT
 10
2.6710
 20
1.1030
 30
0.0000
  0
VERTEX
  8
LPF3500_SMT
 10
2.5840
 20
1.1030
 30
0.0000
  0
SEQEND
  0
POLYLINE
  8
LPF3500_SMT
 66
1
 10
0.0000
 20
0.0000
 30
0.0000
 40
0.0100
 41
0.0100
  0
VERTEX
  8
LPF3500_SMT
 10
2.6710
 20
1.1770
 30
0.0000
  0
VERTEX
  8
LPF3500_SMT
 10
2.6710
 20
1.1030
 30
0.0000
  0
SEQEND
  0
POLYLINE
  8
LPF3500_SMT
 66
1
 10
0.0000
 20
0.0000
 30
0.0000
 40
0.0100
 41
0.0100
  0
VERTEX
  8
LPF3500_SMT
 10
2.6690
 20
1.1770
 30
0.0000
  0
VERTEX
  8
LPF3500_SMT
 10
2.6690
 20
1.1030
 30
0.0000
  0
SEQEND
  0
POLYLINE
  8
LPF3500_SMT
 66
1
 10
0.0000
 20
0.0000
 30
0.0000
 40
0.0100
 41
0.0100
  0
VERTEX
  8
LPF3500_SMT
 10
2.6600
 20
1.1770
 30
0.0000
  0
VERTEX
  8
LPF3500_SMT
 10
2.6600
 20
1.1030
 30
0.0000
  0
SEQEND
  0
POLYLINE
  8
LPF3500_SMT
 66
1
 10
0.0000
 20
0.0000
 30
0.0000
 40
0.0100
 41
0.0100
  0
VERTEX
  8
LPF3500_SMT
 10
2.6510
 20
1.1770
 30
0.0000
  0
VERTEX
  8
LPF3500_SMT
 10
2.6510
 20
1.1030
 30
0.0000
  0
SEQEND
  0
POLYLINE
  8
LPF3500_SMT
 66
1
 10
0.0000
 20
0.0000
 30
0.0000
 40
0.0100
 41
0.0100
  0
VERTEX
  8
LPF3500_SMT
 10
2.6420
 20
1.1770
 30
0.0000
  0
VERTEX
  8
LPF3500_SMT
 10
2.6420
 20
1.1030
 30
0.0000
  0
SEQEND
  0
POLYLINE
  8
LPF3500_SMT
 66
1
 10
0.0000
 20
0.0000
 30
0.0000
 40
0.0100
 41
0.0100
  0
VERTEX
  8
LPF3500_SMT
 10
2.6330
 20
1.1770
 30
0.0000
  0
VERTEX
  8
LPF3500_SMT
 10
2.6330
 20
1.1030
 30
0.0000
  0
SEQEND
  0
POLYLINE
  8
LPF3500_SMT
 66
1
 10
0.0000
 20
0.0000
 30
0.0000
 40
0.0100
 41
0.0100
  0
VERTEX
  8
LPF3500_SMT
 10
2.6240
 20
1.1770
 30
0.0000
  0
VERTEX
  8
LPF3500_SMT
 10
2.6240
 20
1.1030
 30
0.0000
  0
SEQEND
  0
POLYLINE
  8
LPF3500_SMT
 66
1
 10
0.0000
 20
0.0000
 30
0.0000
 40
0.0100
 41
0.0100
  0
VERTEX
  8
LPF3500_SMT
 10
2.6150
 20
1.1770
 30
0.0000
  0
VERTEX
  8
LPF3500_SMT
 10
2.6150
 20
1.1030
 30
0.0000
  0
SEQEND
  0
POLYLINE
  8
LPF3500_SMT
 66
1
 10
0.0000
 20
0.0000
 30
0.0000
 40
0.0100
 41
0.0100
  0
VERTEX
  8
LPF3500_SMT
 10
2.6710
 20
1.1070
 30
0.0000
  0
VERTEX
  8
LPF3500_SMT
 10
2.5840
 20
1.1070
 30
0.0000
  0
SEQEND
  0
POLYLINE
  8
LPF3500_SMT
 66
1
 10
0.0000
 20
0.0000
 30
0.0000
 40
0.0100
 41
0.0100
  0
VERTEX
  8
LPF3500_SMT
 10
2.6710
 20
1.1770
 30
0.0000
  0
VERTEX
  8
LPF3500_SMT
 10
2.5840
 20
1.1770
 30
0.0000
  0
SEQEND
  0
POLYLINE
  8
LPF3500_SMT
 66
1
 10
0.0000
 20
0.0000
 30
0.0000
 40
0.0100
 41
0.0100
  0
VERTEX
  8
LPF3500_SMT
 10
2.5170
 20
1.1820
 30
0.0000
  0
VERTEX
  8
LPF3500_SMT
 10
2.4300
 20
1.1820
 30
0.0000
  0
SEQEND
  0
POLYLINE
  8
LPF3500_SMT
 66
1
 10
0.0000
 20
0.0000
 30
0.0000
 40
0.0100
 41
0.0100
  0
VERTEX
  8
LPF3500_SMT
 10
2.5170
 20
1.1730
 30
0.0000
  0
VERTEX
  8
LPF3500_SMT
 10
2.4300
 20
1.1730
 30
0.0000
  0
SEQEND
  0
POLYLINE
  8
LPF3500_SMT
 66
1
 10
0.0000
 20
0.0000
 30
0.0000
 40
0.0100
 41
0.0100
  0
VERTEX
  8
LPF3500_SMT
 10
2.5170
 20
1.1640
 30
0.0000
  0
VERTEX
  8
LPF3500_SMT
 10
2.4300
 20
1.1640
 30
0.0000
  0
SEQEND
  0
POLYLINE
  8
LPF3500_SMT
 66
1
 10
0.0000
 20
0.0000
 30
0.0000
 40
0.0100
 41
0.0100
  0
VERTEX
  8
LPF3500_SMT
 10
2.5170
 20
1.1550
 30
0.0000
  0
VERTEX
  8
LPF3500_SMT
 10
2.4300
 20
1.1550
 30
0.0000
  0
SEQEND
  0
POLYLINE
  8
LPF3500_SMT
 66
1
 10
0.0000
 20
0.0000
 30
0.0000
 40
0.0100
 41
0.0100
  0
VERTEX
  8
LPF3500_SMT
 10
2.5170
 20
1.1460
 30
0.0000
  0
VERTEX
  8
LPF3500_SMT
 10
2.4300
 20
1.1460
 30
0.0000
  0
SEQEND
  0
POLYLINE
  8
LPF3500_SMT
 66
1
 10
0.0000
 20
0.0000
 30
0.0000
 40
0.0100
 41
0.0100
  0
VERTEX
  8
LPF3500_SMT
 10
2.5170
 20
1.1370
 30
0.0000
  0
VERTEX
  8
LPF3500_SMT
 10
2.4300
 20
1.1370
 30
0.0000
  0
SEQEND
  0
POLYLINE
  8
LPF3500_SMT
 66
1
 10
0.0000
 20
0.0000
 30
0.0000
 40
0.0100
 41
0.0100
  0
VERTEX
  8
LPF3500_SMT
 10
2.5170
 20
1.1280
 30
0.0000
  0
VERTEX
  8
LPF3500_SMT
 10
2.4300
 20
1.1280
 30
0.0000
  0
SEQEND
  0
POLYLINE
  8
LPF3500_SMT
 66
1
 10
0.0000
 20
0.0000
 30
0.0000
 40
0.0100
 41
0.0100
  0
VERTEX
  8
LPF3500_SMT
 10
2.5170
 20
1.1190
 30
0.0000
  0
VERTEX
  8
LPF3500_SMT
 10
2.4300
 20
1.1190
 30
0.0000
  0
SEQEND
  0
POLYLINE
  8
LPF3500_SMT
 66
1
 10
0.0000
 20
0.0000
 30
0.0000
 40
0.0100
 41
0.0100
  0
VERTEX
  8
LPF3500_SMT
 10
2.5170
 20
1.1100
 30
0.0000
  0
VERTEX
  8
LPF3500_SMT
 10
2.4300
 20
1.1100
 30
0.0000
  0
SEQEND
  0
POLYLINE
  8
LPF3500_SMT
 66
1
 10
0.0000
 20
0.0000
 30
0.0000
 40
0.0100
 41
0.0100
  0
VERTEX
  8
LPF3500_SMT
 10
2.5170
 20
1.1010
 30
0.0000
  0
VERTEX
  8
LPF3500_SMT
 10
2.4300
 20
1.1010
 30
0.0000
  0
SEQEND
  0
POLYLINE
  8
LPF3500_SMT
 66
1
 10
0.0000
 20
0.0000
 30
0.0000
 40
0.0100
 41
0.0100
  0
VERTEX
  8
LPF3500_SMT
 10
2.5170
 20
1.0920
 30
0.0000
  0
VERTEX
  8
LPF3500_SMT
 10
2.4300
 20
1.0920
 30
0.0000
  0
SEQEND
  0
POLYLINE
  8
LPF3500_SMT
 66
1
 10
0.0000
 20
0.0000
 30
0.0000
 40
0.0100
 41
0.0100
  0
VERTEX
  8
LPF3500_SMT
 10
2.4970
 20
1.2100
 30
0.0000
  0
VERTEX
  8
LPF3500_SMT
 10
2.4970
 20
1.0790
 30
0.0000
  0
SEQEND
  0
POLYLINE
  8
LPF3500_SMT
 66
1
 10
0.0000
 20
0.0000
 30
0.0000
 40
0.0100
 41
0.0100
  0
VERTEX
  8
LPF3500_SMT
 10
2.4880
 20
1.2100
 30
0.0000
  0
VERTEX
  8
LPF3500_SMT
 10
2.4880
 20
1.0790
 30
0.0000
  0
SEQEND
  0
POLYLINE
  8
LPF3500_SMT
 66
1
 10
0.0000
 20
0.0000
 30
0.0000
 40
0.0100
 41
0.0100
  0
VERTEX
  8
LPF3500_SMT
 10
2.4790
 20
1.2100
 30
0.0000
  0
VERTEX
  8
LPF3500_SMT
 10
2.4790
 20
1.0790
 30
0.0000
  0
SEQEND
  0
POLYLINE
  8
LPF3500_SMT
 66
1
 10
0.0000
 20
0.0000
 30
0.0000
 40
0.0100
 41
0.0100
  0
VERTEX
  8
LPF3500_SMT
 10
2.4700
 20
1.2100
 30
0.0000
  0
VERTEX
  8
LPF3500_SMT
 10
2.4700
 20
1.0790
 30
0.0000
  0
SEQEND
  0
POLYLINE
  8
LPF3500_SMT
 66
1
 10
0.0000
 20
0.0000
 30
0.0000
 40
0.0100
 41
0.0100
  0
VERTEX
  8
LPF3500_SMT
 10
2.4610
 20
1.2100
 30
0.0000
  0
VERTEX
  8
LPF3500_SMT
 10
2.4610
 20
1.0790
 30
0.0000
  0
SEQEND
  0
POLYLINE
  8
LPF3500_SMT
 66
1
 10
0.0000
 20
0.0000
 30
0.0000
 40
0.0100
 41
0.0100
  0
VERTEX
  8
LPF3500_SMT
 10
2.4520
 20
1.2100
 30
0.0000
  0
VERTEX
  8
LPF3500_SMT
 10
2.4520
 20
1.0790
 30
0.0000
  0
SEQEND
  0
POLYLINE
  8
LPF3500_SMT
 66
1
 10
0.0000
 20
0.0000
 30
0.0000
 40
0.0100
 41
0.0100
  0
VERTEX
  8
LPF3500_SMT
 10
2.4430
 20
1.2100
 30
0.0000
  0
VERTEX
  8
LPF3500_SMT
 10
2.4430
 20
1.0790
 30
0.0000
  0
SEQEND
  0
POLYLINE
  8
LPF3500_SMT
 66
1
 10
0.0000
 20
0.0000
 30
0.0000
 40
0.0100
 41
0.0100
  0
VERTEX
  8
LPF3500_SMT
 10
2.4340
 20
1.2100
 30
0.0000
  0
VERTEX
  8
LPF3500_SMT
 10
2.4340
 20
1.0790
 30
0.0000
  0
SEQEND
  0
POLYLINE
  8
LPF3500_SMT
 66
1
 10
0.0000
 20
0.0000
 30
0.0000
 40
0.0100
 41
0.0100
  0
VERTEX
  8
LPF3500_SMT
 10
2.5170
 20
1.2090
 30
0.0000
  0
VERTEX
  8
LPF3500_SMT
 10
2.4300
 20
1.2090
 30
0.0000
  0
SEQEND
  0
POLYLINE
  8
LPF3500_SMT
 66
1
 10
0.0000
 20
0.0000
 30
0.0000
 40
0.0100
 41
0.0100
  0
VERTEX
  8
LPF3500_SMT
 10
2.5170
 20
1.2000
 30
0.0000
  0
VERTEX
  8
LPF3500_SMT
 10
2.4300
 20
1.2000
 30
0.0000
  0
SEQEND
  0
POLYLINE
  8
LPF3500_SMT
 66
1
 10
0.0000
 20
0.0000
 30
0.0000
 40
0.0100
 41
0.0100
  0
VERTEX
  8
LPF3500_SMT
 10
2.5170
 20
1.1910
 30
0.0000
  0
VERTEX
  8
LPF3500_SMT
 10
2.4300
 20
1.1910
 30
0.0000
  0
SEQEND
  0
POLYLINE
  8
LPF3500_SMT
 66
1
 10
0.0000
 20
0.0000
 30
0.0000
 40
0.0100
 41
0.0100
  0
VERTEX
  8
LPF3500_SMT
 10
2.5170
 20
1.0830
 30
0.0000
  0
VERTEX
  8
LPF3500_SMT
 10
2.4300
 20
1.0830
 30
0.0000
  0
SEQEND
  0
POLYLINE
  8
LPF3500_SMT
 66
1
 10
0.0000
 20
0.0000
 30
0.0000
 40
0.0100
 41
0.0100
  0
VERTEX
  8
LPF3500_SMT
 10
2.5170
 20
1.2100
 30
0.0000
  0
VERTEX
  8
LPF3500_SMT
 10
2.4300
 20
1.2100
 30
0.0000
  0
VERTEX
  8
LPF3500_SMT
 10
2.4300
 20
1.0790
 30
0.0000
  0
SEQEND
  0
POLYLINE
  8
LPF3500_SMT
 66
1
 10
0.0000
 20
0.0000
 30
0.0000
 40
0.0100
 41
0.0100
  0
VERTEX
  8
LPF3500_SMT
 10
2.5170
 20
1.0790
 30
0.0000
  0
VERTEX
  8
LPF3500_SMT
 10
2.4300
 20
1.0790
 30
0.0000
  0
SEQEND
  0
POLYLINE
  8
LPF3500_SMT
 66
1
 10
0.0000
 20
0.0000
 30
0.0000
 40
0.0100
 41
0.0100
  0
VERTEX
  8
LPF3500_SMT
 10
2.5170
 20
1.2100
 30
0.0000
  0
VERTEX
  8
LPF3500_SMT
 10
2.5170
 20
1.0790
 30
0.0000
  0
SEQEND
  0
POLYLINE
  8
LPF3500_SMT
 66
1
 10
0.0000
 20
0.0000
 30
0.0000
 40
0.0100
 41
0.0100
  0
VERTEX
  8
LPF3500_SMT
 10
2.5150
 20
1.2100
 30
0.0000
  0
VERTEX
  8
LPF3500_SMT
 10
2.5150
 20
1.0790
 30
0.0000
  0
SEQEND
  0
POLYLINE
  8
LPF3500_SMT
 66
1
 10
0.0000
 20
0.0000
 30
0.0000
 40
0.0100
 41
0.0100
  0
VERTEX
  8
LPF3500_SMT
 10
2.5060
 20
1.2100
 30
0.0000
  0
VERTEX
  8
LPF3500_SMT
 10
2.5060
 20
1.0790
 30
0.0000
  0
SEQEND
  0
POLYLINE
  8
LPF3500_SMT
 66
1
 10
0.0000
 20
0.0000
 30
0.0000
 40
0.0100
 41
0.0100
  0
VERTEX
  8
LPF3500_SMT
 10
0.9680
 20
1.1826
 30
0.0000
  0
VERTEX
  8
LPF3500_SMT
 10
0.8810
 20
1.1826
 30
0.0000
  0
SEQEND
  0
POLYLINE
  8
LPF3500_SMT
 66
1
 10
0.0000
 20
0.0000
 30
0.0000
 40
0.0100
 41
0.0100
  0
VERTEX
  8
LPF3500_SMT
 10
0.9680
 20
1.1736
 30
0.0000
  0
VERTEX
  8
LPF3500_SMT
 10
0.8810
 20
1.1736
 30
0.0000
  0
SEQEND
  0
POLYLINE
  8
LPF3500_SMT
 66
1
 10
0.0000
 20
0.0000
 30
0.0000
 40
0.0100
 41
0.0100
  0
VERTEX
  8
LPF3500_SMT
 10
0.9680
 20
1.1646
 30
0.0000
  0
VERTEX
  8
LPF3500_SMT
 10
0.8810
 20
1.1646
 30
0.0000
  0
SEQEND
  0
POLYLINE
  8
LPF3500_SMT
 66
1
 10
0.0000
 20
0.0000
 30
0.0000
 40
0.0100
 41
0.0100
  0
VERTEX
  8
LPF3500_SMT
 10
0.9680
 20
1.1556
 30
0.0000
  0
VERTEX
  8
LPF3500_SMT
 10
0.8810
 20
1.1556
 30
0.0000
  0
SEQEND
  0
POLYLINE
  8
LPF3500_SMT
 66
1
 10
0.0000
 20
0.0000
 30
0.0000
 40
0.0100
 41
0.0100
  0
VERTEX
  8
LPF3500_SMT
 10
0.9680
 20
1.1466
 30
0.0000
  0
VERTEX
  8
LPF3500_SMT
 10
0.8810
 20
1.1466
 30
0.0000
  0
SEQEND
  0
POLYLINE
  8
LPF3500_SMT
 66
1
 10
0.0000
 20
0.0000
 30
0.0000
 40
0.0100
 41
0.0100
  0
VERTEX
  8
LPF3500_SMT
 10
0.9680
 20
1.1376
 30
0.0000
  0
VERTEX
  8
LPF3500_SMT
 10
0.8810
 20
1.1376
 30
0.0000
  0
SEQEND
  0
POLYLINE
  8
LPF3500_SMT
 66
1
 10
0.0000
 20
0.0000
 30
0.0000
 40
0.0100
 41
0.0100
  0
VERTEX
  8
LPF3500_SMT
 10
0.9680
 20
1.1286
 30
0.0000
  0
VERTEX
  8
LPF3500_SMT
 10
0.8810
 20
1.1286
 30
0.0000
  0
SEQEND
  0
POLYLINE
  8
LPF3500_SMT
 66
1
 10
0.0000
 20
0.0000
 30
0.0000
 40
0.0100
 41
0.0100
  0
VERTEX
  8
LPF3500_SMT
 10
0.9680
 20
1.1196
 30
0.0000
  0
VERTEX
  8
LPF3500_SMT
 10
0.8810
 20
1.1196
 30
0.0000
  0
SEQEND
  0
POLYLINE
  8
LPF3500_SMT
 66
1
 10
0.0000
 20
0.0000
 30
0.0000
 40
0.0100
 41
0.0100
  0
VERTEX
  8
LPF3500_SMT
 10
0.9680
 20
1.1106
 30
0.0000
  0
VERTEX
  8
LPF3500_SMT
 10
0.8810
 20
1.1106
 30
0.0000
  0
SEQEND
  0
POLYLINE
  8
LPF3500_SMT
 66
1
 10
0.0000
 20
0.0000
 30
0.0000
 40
0.0100
 41
0.0100
  0
VERTEX
  8
LPF3500_SMT
 10
0.9680
 20
1.1016
 30
0.0000
  0
VERTEX
  8
LPF3500_SMT
 10
0.8810
 20
1.1016
 30
0.0000
  0
SEQEND
  0
POLYLINE
  8
LPF3500_SMT
 66
1
 10
0.0000
 20
0.0000
 30
0.0000
 40
0.0100
 41
0.0100
  0
VERTEX
  8
LPF3500_SMT
 10
0.9680
 20
1.0926
 30
0.0000
  0
VERTEX
  8
LPF3500_SMT
 10
0.8810
 20
1.0926
 30
0.0000
  0
SEQEND
  0
POLYLINE
  8
LPF3500_SMT
 66
1
 10
0.0000
 20
0.0000
 30
0.0000
 40
0.0100
 41
0.0100
  0
VERTEX
  8
LPF3500_SMT
 10
0.9480
 20
1.2100
 30
0.0000
  0
VERTEX
  8
LPF3500_SMT
 10
0.9480
 20
1.0796
 30
0.0000
  0
SEQEND
  0
POLYLINE
  8
LPF3500_SMT
 66
1
 10
0.0000
 20
0.0000
 30
0.0000
 40
0.0100
 41
0.0100
  0
VERTEX
  8
LPF3500_SMT
 10
0.9390
 20
1.2100
 30
0.0000
  0
VERTEX
  8
LPF3500_SMT
 10
0.9390
 20
1.0796
 30
0.0000
  0
SEQEND
  0
POLYLINE
  8
LPF3500_SMT
 66
1
 10
0.0000
 20
0.0000
 30
0.0000
 40
0.0100
 41
0.0100
  0
VERTEX
  8
LPF3500_SMT
 10
0.9300
 20
1.2100
 30
0.0000
  0
VERTEX
  8
LPF3500_SMT
 10
0.9300
 20
1.0796
 30
0.0000
  0
SEQEND
  0
POLYLINE
  8
LPF3500_SMT
 66
1
 10
0.0000
 20
0.0000
 30
0.0000
 40
0.0100
 41
0.0100
  0
VERTEX
  8
LPF3500_SMT
 10
0.9210
 20
1.2100
 30
0.0000
  0
VERTEX
  8
LPF3500_SMT
 10
0.9210
 20
1.0796
 30
0.0000
  0
SEQEND
  0
POLYLINE
  8
LPF3500_SMT
 66
1
 10
0.0000
 20
0.0000
 30
0.0000
 40
0.0100
 41
0.0100
  0
VERTEX
  8
LPF3500_SMT
 10
0.9120
 20
1.2100
 30
0.0000
  0
VERTEX
  8
LPF3500_SMT
 10
0.9120
 20
1.0796
 30
0.0000
  0
SEQEND
  0
POLYLINE
  8
LPF3500_SMT
 66
1
 10
0.0000
 20
0.0000
 30
0.0000
 40
0.0100
 41
0.0100
  0
VERTEX
  8
LPF3500_SMT
 10
0.9030
 20
1.2100
 30
0.0000
  0
VERTEX
  8
LPF3500_SMT
 10
0.9030
 20
1.0796
 30
0.0000
  0
SEQEND
  0
POLYLINE
  8
LPF3500_SMT
 66
1
 10
0.0000
 20
0.0000
 30
0.0000
 40
0.0100
 41
0.0100
  0
VERTEX
  8
LPF3500_SMT
 10
0.8940
 20
1.2100
 30
0.0000
  0
VERTEX
  8
LPF3500_SMT
 10
0.8940
 20
1.0796
 30
0.0000
  0
SEQEND
  0
POLYLINE
  8
LPF3500_SMT
 66
1
 10
0.0000
 20
0.0000
 30
0.0000
 40
0.0100
 41
0.0100
  0
VERTEX
  8
LPF3500_SMT
 10
0.8850
 20
1.2100
 30
0.0000
  0
VERTEX
  8
LPF3500_SMT
 10
0.8850
 20
1.0796
 30
0.0000
  0
SEQEND
  0
POLYLINE
  8
LPF3500_SMT
 66
1
 10
0.0000
 20
0.0000
 30
0.0000
 40
0.0100
 41
0.0100
  0
VERTEX
  8
LPF3500_SMT
 10
0.9680
 20
1.2096
 30
0.0000
  0
VERTEX
  8
LPF3500_SMT
 10
0.8810
 20
1.2096
 30
0.0000
  0
SEQEND
  0
POLYLINE
  8
LPF3500_SMT
 66
1
 10
0.0000
 20
0.0000
 30
0.0000
 40
0.0100
 41
0.0100
  0
VERTEX
  8
LPF3500_SMT
 10
0.9680
 20
1.2006
 30
0.0000
  0
VERTEX
  8
LPF3500_SMT
 10
0.8810
 20
1.2006
 30
0.0000
  0
SEQEND
  0
POLYLINE
  8
LPF3500_SMT
 66
1
 10
0.0000
 20
0.0000
 30
0.0000
 40
0.0100
 41
0.0100
  0
VERTEX
  8
LPF3500_SMT
 10
0.9680
 20
1.1916
 30
0.0000
  0
VERTEX
  8
LPF3500_SMT
 10
0.8810
 20
1.1916
 30
0.0000
  0
SEQEND
  0
POLYLINE
  8
LPF3500_SMT
 66
1
 10
0.0000
 20
0.0000
 30
0.0000
 40
0.0100
 41
0.0100
  0
VERTEX
  8
LPF3500_SMT
 10
0.9680
 20
1.0836
 30
0.0000
  0
VERTEX
  8
LPF3500_SMT
 10
0.8810
 20
1.0836
 30
0.0000
  0
SEQEND
  0
POLYLINE
  8
LPF3500_SMT
 66
1
 10
0.0000
 20
0.0000
 30
0.0000
 40
0.0100
 41
0.0100
  0
VERTEX
  8
LPF3500_SMT
 10
0.8810
 20
1.2100
 30
0.0000
  0
VERTEX
  8
LPF3500_SMT
 10
0.8810
 20
1.0796
 30
0.0000
  0
SEQEND
  0
POLYLINE
  8
LPF3500_SMT
 66
1
 10
0.0000
 20
0.0000
 30
0.0000
 40
0.0100
 41
0.0100
  0
VERTEX
  8
LPF3500_SMT
 10
0.9680
 20
1.0796
 30
0.0000
  0
VERTEX
  8
LPF3500_SMT
 10
0.8810
 20
1.0796
 30
0.0000
  0
SEQEND
  0
POLYLINE
  8
LPF3500_SMT
 66
1
 10
0.0000
 20
0.0000
 30
0.0000
 40
0.0100
 41
0.0100
  0
VERTEX
  8
LPF3500_SMT
 10
0.9680
 20
1.2100
 30
0.0000
  0
VERTEX
  8
LPF3500_SMT
 10
0.9680
 20
1.0796
 30
0.0000
  0
SEQEND
  0
POLYLINE
  8
LPF3500_SMT
 66
1
 10
0.0000
 20
0.0000
 30
0.0000
 40
0.0100
 41
0.0100
  0
VERTEX
  8
LPF3500_SMT
 10
0.9680
 20
1.2100
 30
0.0000
  0
VERTEX
  8
LPF3500_SMT
 10
0.8810
 20
1.2100
 30
0.0000
  0
SEQEND
  0
POLYLINE
  8
LPF3500_SMT
 66
1
 10
0.0000
 20
0.0000
 30
0.0000
 40
0.0100
 41
0.0100
  0
VERTEX
  8
LPF3500_SMT
 10
0.9660
 20
1.2100
 30
0.0000
  0
VERTEX
  8
LPF3500_SMT
 10
0.9660
 20
1.0796
 30
0.0000
  0
SEQEND
  0
POLYLINE
  8
LPF3500_SMT
 66
1
 10
0.0000
 20
0.0000
 30
0.0000
 40
0.0100
 41
0.0100
  0
VERTEX
  8
LPF3500_SMT
 10
0.9570
 20
1.2100
 30
0.0000
  0
VERTEX
  8
LPF3500_SMT
 10
0.9570
 20
1.0796
 30
0.0000
  0
SEQEND
  0
POLYLINE
  8
LPF3500_SMT
 66
1
 10
0.0000
 20
0.0000
 30
0.0000
 40
0.0020
 41
0.0020
  0
VERTEX
  8
LPF3500_SMT
 10
3.9850
 20
2.0820
 30
0.0000
  0
VERTEX
  8
LPF3500_SMT
 10
3.6390
 20
2.0820
 30
0.0000
  0
SEQEND
  0
POLYLINE
  8
LPF3500_SMT
 66
1
 10
0.0000
 20
0.0000
 30
0.0000
 40
0.0020
 41
0.0020
  0
VERTEX
  8
LPF3500_SMT
 10
3.9850
 20
2.0820
 30
0.0000
  0
VERTEX
  8
LPF3500_SMT
 10
3.9850
 20
1.9160
 30
0.0000
  0
VERTEX
  8
LPF3500_SMT
 10
3.6390
 20
1.9160
 30
0.0000
  0
SEQEND
  0
POLYLINE
  8
LPF3500_SMT
 66
1
 10
0.0000
 20
0.0000
 30
0.0000
 40
0.0020
 41
0.0020
  0
VERTEX
  8
LPF3500_SMT
 10
3.6390
 20
2.0820
 30
0.0000
  0
VERTEX
  8
LPF3500_SMT
 10
3.6390
 20
1.9160
 30
0.0000
  0
SEQEND
  0
POLYLINE
  8
LPF3500_SMT
 66
1
 10
0.0000
 20
0.0000
 30
0.0000
 40
0.0020
 41
0.0020
  0
VERTEX
  8
LPF3500_SMT
 10
3.9832
 20
2.0820
 30
0.0000
  0
VERTEX
  8
LPF3500_SMT
 10
3.9832
 20
1.9160
 30
0.0000
  0
SEQEND
  0
POLYLINE
  8
LPF3500_SMT
 66
1
 10
0.0000
 20
0.0000
 30
0.0000
 40
0.0020
 41
0.0020
  0
VERTEX
  8
LPF3500_SMT
 10
3.9814
 20
2.0820
 30
0.0000
  0
VERTEX
  8
LPF3500_SMT
 10
3.9814
 20
1.9160
 30
0.0000
  0
SEQEND
  0
POLYLINE
  8
LPF3500_SMT
 66
1
 10
0.0000
 20
0.0000
 30
0.0000
 40
0.0020
 41
0.0020
  0
VERTEX
  8
LPF3500_SMT
 10
3.9796
 20
2.0820
 30
0.0000
  0
VERTEX
  8
LPF3500_SMT
 10
3.9796
 20
1.9160
 30
0.0000
  0
SEQEND
  0
POLYLINE
  8
LPF3500_SMT
 66
1
 10
0.0000
 20
0.0000
 30
0.0000
 40
0.0020
 41
0.0020
  0
VERTEX
  8
LPF3500_SMT
 10
3.9778
 20
2.0820
 30
0.0000
  0
VERTEX
  8
LPF3500_SMT
 10
3.9778
 20
1.9160
 30
0.0000
  0
SEQEND
  0
POLYLINE
  8
LPF3500_SMT
 66
1
 10
0.0000
 20
0.0000
 30
0.0000
 40
0.0020
 41
0.0020
  0
VERTEX
  8
LPF3500_SMT
 10
3.9760
 20
2.0820
 30
0.0000
  0
VERTEX
  8
LPF3500_SMT
 10
3.9760
 20
1.9160
 30
0.0000
  0
SEQEND
  0
POLYLINE
  8
LPF3500_SMT
 66
1
 10
0.0000
 20
0.0000
 30
0.0000
 40
0.0020
 41
0.0020
  0
VERTEX
  8
LPF3500_SMT
 10
3.9742
 20
2.0820
 30
0.0000
  0
VERTEX
  8
LPF3500_SMT
 10
3.9742
 20
1.9160
 30
0.0000
  0
SEQEND
  0
POLYLINE
  8
LPF3500_SMT
 66
1
 10
0.0000
 20
0.0000
 30
0.0000
 40
0.0020
 41
0.0020
  0
VERTEX
  8
LPF3500_SMT
 10
3.9724
 20
2.0820
 30
0.0000
  0
VERTEX
  8
LPF3500_SMT
 10
3.9724
 20
1.9160
 30
0.0000
  0
SEQEND
  0
POLYLINE
  8
LPF3500_SMT
 66
1
 10
0.0000
 20
0.0000
 30
0.0000
 40
0.0020
 41
0.0020
  0
VERTEX
  8
LPF3500_SMT
 10
3.9706
 20
2.0820
 30
0.0000
  0
VERTEX
  8
LPF3500_SMT
 10
3.9706
 20
1.9160
 30
0.0000
  0
SEQEND
  0
POLYLINE
  8
LPF3500_SMT
 66
1
 10
0.0000
 20
0.0000
 30
0.0000
 40
0.0020
 41
0.0020
  0
VERTEX
  8
LPF3500_SMT
 10
3.9688
 20
2.0820
 30
0.0000
  0
VERTEX
  8
LPF3500_SMT
 10
3.9688
 20
1.9160
 30
0.0000
  0
SEQEND
  0
POLYLINE
  8
LPF3500_SMT
 66
1
 10
0.0000
 20
0.0000
 30
0.0000
 40
0.0020
 41
0.0020
  0
VERTEX
  8
LPF3500_SMT
 10
3.9670
 20
2.0820
 30
0.0000
  0
VERTEX
  8
LPF3500_SMT
 10
3.9670
 20
1.9160
 30
0.0000
  0
SEQEND
  0
POLYLINE
  8
LPF3500_SMT
 66
1
 10
0.0000
 20
0.0000
 30
0.0000
 40
0.0020
 41
0.0020
  0
VERTEX
  8
LPF3500_SMT
 10
3.9652
 20
2.0820
 30
0.0000
  0
VERTEX
  8
LPF3500_SMT
 10
3.9652
 20
1.9160
 30
0.0000
  0
SEQEND
  0
POLYLINE
  8
LPF3500_SMT
 66
1
 10
0.0000
 20
0.0000
 30
0.0000
 40
0.0020
 41
0.0020
  0
VERTEX
  8
LPF3500_SMT
 10
3.9634
 20
2.0820
 30
0.0000
  0
VERTEX
  8
LPF3500_SMT
 10
3.9634
 20
1.9160
 30
0.0000
  0
SEQEND
  0
POLYLINE
  8
LPF3500_SMT
 66
1
 10
0.0000
 20
0.0000
 30
0.0000
 40
0.0020
 41
0.0020
  0
VERTEX
  8
LPF3500_SMT
 10
3.9616
 20
2.0820
 30
0.0000
  0
VERTEX
  8
LPF3500_SMT
 10
3.9616
 20
1.9160
 30
0.0000
  0
SEQEND
  0
POLYLINE
  8
LPF3500_SMT
 66
1
 10
0.0000
 20
0.0000
 30
0.0000
 40
0.0020
 41
0.0020
  0
VERTEX
  8
LPF3500_SMT
 10
3.9598
 20
2.0820
 30
0.0000
  0
VERTEX
  8
LPF3500_SMT
 10
3.9598
 20
1.9160
 30
0.0000
  0
SEQEND
  0
POLYLINE
  8
LPF3500_SMT
 66
1
 10
0.0000
 20
0.0000
 30
0.0000
 40
0.0020
 41
0.0020
  0
VERTEX
  8
LPF3500_SMT
 10
3.9580
 20
2.0820
 30
0.0000
  0
VERTEX
  8
LPF3500_SMT
 10
3.9580
 20
1.9160
 30
0.0000
  0
SEQEND
  0
POLYLINE
  8
LPF3500_SMT
 66
1
 10
0.0000
 20
0.0000
 30
0.0000
 40
0.0020
 41
0.0020
  0
VERTEX
  8
LPF3500_SMT
 10
3.9562
 20
2.0820
 30
0.0000
  0
VERTEX
  8
LPF3500_SMT
 10
3.9562
 20
1.9160
 30
0.0000
  0
SEQEND
  0
POLYLINE
  8
LPF3500_SMT
 66
1
 10
0.0000
 20
0.0000
 30
0.0000
 40
0.0020
 41
0.0020
  0
VERTEX
  8
LPF3500_SMT
 10
3.9544
 20
2.0820
 30
0.0000
  0
VERTEX
  8
LPF3500_SMT
 10
3.9544
 20
1.9160
 30
0.0000
  0
SEQEND
  0
POLYLINE
  8
LPF3500_SMT
 66
1
 10
0.0000
 20
0.0000
 30
0.0000
 40
0.0020
 41
0.0020
  0
VERTEX
  8
LPF3500_SMT
 10
3.9526
 20
2.0820
 30
0.0000
  0
VERTEX
  8
LPF3500_SMT
 10
3.9526
 20
1.9160
 30
0.0000
  0
SEQEND
  0
POLYLINE
  8
LPF3500_SMT
 66
1
 10
0.0000
 20
0.0000
 30
0.0000
 40
0.0020
 41
0.0020
  0
VERTEX
  8
LPF3500_SMT
 10
3.9508
 20
2.0820
 30
0.0000
  0
VERTEX
  8
LPF3500_SMT
 10
3.9508
 20
1.9160
 30
0.0000
  0
SEQEND
  0
POLYLINE
  8
LPF3500_SMT
 66
1
 10
0.0000
 20
0.0000
 30
0.0000
 40
0.0020
 41
0.0020
  0
VERTEX
  8
LPF3500_SMT
 10
3.9490
 20
2.0820
 30
0.0000
  0
VERTEX
  8
LPF3500_SMT
 10
3.9490
 20
1.9160
 30
0.0000
  0
SEQEND
  0
POLYLINE
  8
LPF3500_SMT
 66
1
 10
0.0000
 20
0.0000
 30
0.0000
 40
0.0020
 41
0.0020
  0
VERTEX
  8
LPF3500_SMT
 10
3.9472
 20
2.0820
 30
0.0000
  0
VERTEX
  8
LPF3500_SMT
 10
3.9472
 20
1.9160
 30
0.0000
  0
SEQEND
  0
POLYLINE
  8
LPF3500_SMT
 66
1
 10
0.0000
 20
0.0000
 30
0.0000
 40
0.0020
 41
0.0020
  0
VERTEX
  8
LPF3500_SMT
 10
3.9454
 20
2.0820
 30
0.0000
  0
VERTEX
  8
LPF3500_SMT
 10
3.9454
 20
1.9160
 30
0.0000
  0
SEQEND
  0
POLYLINE
  8
LPF3500_SMT
 66
1
 10
0.0000
 20
0.0000
 30
0.0000
 40
0.0020
 41
0.0020
  0
VERTEX
  8
LPF3500_SMT
 10
3.9436
 20
2.0820
 30
0.0000
  0
VERTEX
  8
LPF3500_SMT
 10
3.9436
 20
1.9160
 30
0.0000
  0
SEQEND
  0
POLYLINE
  8
LPF3500_SMT
 66
1
 10
0.0000
 20
0.0000
 30
0.0000
 40
0.0020
 41
0.0020
  0
VERTEX
  8
LPF3500_SMT
 10
3.9418
 20
2.0820
 30
0.0000
  0
VERTEX
  8
LPF3500_SMT
 10
3.9418
 20
1.9160
 30
0.0000
  0
SEQEND
  0
POLYLINE
  8
LPF3500_SMT
 66
1
 10
0.0000
 20
0.0000
 30
0.0000
 40
0.0020
 41
0.0020
  0
VERTEX
  8
LPF3500_SMT
 10
3.9400
 20
2.0820
 30
0.0000
  0
VERTEX
  8
LPF3500_SMT
 10
3.9400
 20
1.9160
 30
0.0000
  0
SEQEND
  0
POLYLINE
  8
LPF3500_SMT
 66
1
 10
0.0000
 20
0.0000
 30
0.0000
 40
0.0020
 41
0.0020
  0
VERTEX
  8
LPF3500_SMT
 10
3.9382
 20
2.0820
 30
0.0000
  0
VERTEX
  8
LPF3500_SMT
 10
3.9382
 20
1.9160
 30
0.0000
  0
SEQEND
  0
POLYLINE
  8
LPF3500_SMT
 66
1
 10
0.0000
 20
0.0000
 30
0.0000
 40
0.0020
 41
0.0020
  0
VERTEX
  8
LPF3500_SMT
 10
3.9364
 20
2.0820
 30
0.0000
  0
VERTEX
  8
LPF3500_SMT
 10
3.9364
 20
1.9160
 30
0.0000
  0
SEQEND
  0
POLYLINE
  8
LPF3500_SMT
 66
1
 10
0.0000
 20
0.0000
 30
0.0000
 40
0.0020
 41
0.0020
  0
VERTEX
  8
LPF3500_SMT
 10
3.9346
 20
2.0820
 30
0.0000
  0
VERTEX
  8
LPF3500_SMT
 10
3.9346
 20
1.9160
 30
0.0000
  0
SEQEND
  0
POLYLINE
  8
LPF3500_SMT
 66
1
 10
0.0000
 20
0.0000
 30
0.0000
 40
0.0020
 41
0.0020
  0
VERTEX
  8
LPF3500_SMT
 10
3.9328
 20
2.0820
 30
0.0000
  0
VERTEX
  8
LPF3500_SMT
 10
3.9328
 20
1.9160
 30
0.0000
  0
SEQEND
  0
POLYLINE
  8
LPF3500_SMT
 66
1
 10
0.0000
 20
0.0000
 30
0.0000
 40
0.0020
 41
0.0020
  0
VERTEX
  8
LPF3500_SMT
 10
3.9310
 20
2.0820
 30
0.0000
  0
VERTEX
  8
LPF3500_SMT
 10
3.9310
 20
1.9160
 30
0.0000
  0
SEQEND
  0
POLYLINE
  8
LPF3500_SMT
 66
1
 10
0.0000
 20
0.0000
 30
0.0000
 40
0.0020
 41
0.0020
  0
VERTEX
  8
LPF3500_SMT
 10
3.9292
 20
2.0820
 30
0.0000
  0
VERTEX
  8
LPF3500_SMT
 10
3.9292
 20
1.9160
 30
0.0000
  0
SEQEND
  0
POLYLINE
  8
LPF3500_SMT
 66
1
 10
0.0000
 20
0.0000
 30
0.0000
 40
0.0020
 41
0.0020
  0
VERTEX
  8
LPF3500_SMT
 10
3.9274
 20
2.0820
 30
0.0000
  0
VERTEX
  8
LPF3500_SMT
 10
3.9274
 20
1.9160
 30
0.0000
  0
SEQEND
  0
POLYLINE
  8
LPF3500_SMT
 66
1
 10
0.0000
 20
0.0000
 30
0.0000
 40
0.0020
 41
0.0020
  0
VERTEX
  8
LPF3500_SMT
 10
3.9256
 20
2.0820
 30
0.0000
  0
VERTEX
  8
LPF3500_SMT
 10
3.9256
 20
1.9160
 30
0.0000
  0
SEQEND
  0
POLYLINE
  8
LPF3500_SMT
 66
1
 10
0.0000
 20
0.0000
 30
0.0000
 40
0.0020
 41
0.0020
  0
VERTEX
  8
LPF3500_SMT
 10
3.9238
 20
2.0820
 30
0.0000
  0
VERTEX
  8
LPF3500_SMT
 10
3.9238
 20
1.9160
 30
0.0000
  0
SEQEND
  0
POLYLINE
  8
LPF3500_SMT
 66
1
 10
0.0000
 20
0.0000
 30
0.0000
 40
0.0020
 41
0.0020
  0
VERTEX
  8
LPF3500_SMT
 10
3.9220
 20
2.0820
 30
0.0000
  0
VERTEX
  8
LPF3500_SMT
 10
3.9220
 20
1.9160
 30
0.0000
  0
SEQEND
  0
POLYLINE
  8
LPF3500_SMT
 66
1
 10
0.0000
 20
0.0000
 30
0.0000
 40
0.0020
 41
0.0020
  0
VERTEX
  8
LPF3500_SMT
 10
3.9202
 20
2.0820
 30
0.0000
  0
VERTEX
  8
LPF3500_SMT
 10
3.9202
 20
1.9160
 30
0.0000
  0
SEQEND
  0
POLYLINE
  8
LPF3500_SMT
 66
1
 10
0.0000
 20
0.0000
 30
0.0000
 40
0.0020
 41
0.0020
  0
VERTEX
  8
LPF3500_SMT
 10
3.9184
 20
2.0820
 30
0.0000
  0
VERTEX
  8
LPF3500_SMT
 10
3.9184
 20
1.9160
 30
0.0000
  0
SEQEND
  0
POLYLINE
  8
LPF3500_SMT
 66
1
 10
0.0000
 20
0.0000
 30
0.0000
 40
0.0020
 41
0.0020
  0
VERTEX
  8
LPF3500_SMT
 10
3.9166
 20
2.0820
 30
0.0000
  0
VERTEX
  8
LPF3500_SMT
 10
3.9166
 20
1.9160
 30
0.0000
  0
SEQEND
  0
POLYLINE
  8
LPF3500_SMT
 66
1
 10
0.0000
 20
0.0000
 30
0.0000
 40
0.0020
 41
0.0020
  0
VERTEX
  8
LPF3500_SMT
 10
3.9148
 20
2.0820
 30
0.0000
  0
VERTEX
  8
LPF3500_SMT
 10
3.9148
 20
1.9160
 30
0.0000
  0
SEQEND
  0
POLYLINE
  8
LPF3500_SMT
 66
1
 10
0.0000
 20
0.0000
 30
0.0000
 40
0.0020
 41
0.0020
  0
VERTEX
  8
LPF3500_SMT
 10
3.9130
 20
2.0820
 30
0.0000
  0
VERTEX
  8
LPF3500_SMT
 10
3.9130
 20
1.9160
 30
0.0000
  0
SEQEND
  0
POLYLINE
  8
LPF3500_SMT
 66
1
 10
0.0000
 20
0.0000
 30
0.0000
 40
0.0020
 41
0.0020
  0
VERTEX
  8
LPF3500_SMT
 10
3.9112
 20
2.0820
 30
0.0000
  0
VERTEX
  8
LPF3500_SMT
 10
3.9112
 20
1.9160
 30
0.0000
  0
SEQEND
  0
POLYLINE
  8
LPF3500_SMT
 66
1
 10
0.0000
 20
0.0000
 30
0.0000
 40
0.0020
 41
0.0020
  0
VERTEX
  8
LPF3500_SMT
 10
3.9094
 20
2.0820
 30
0.0000
  0
VERTEX
  8
LPF3500_SMT
 10
3.9094
 20
1.9160
 30
0.0000
  0
SEQEND
  0
POLYLINE
  8
LPF3500_SMT
 66
1
 10
0.0000
 20
0.0000
 30
0.0000
 40
0.0020
 41
0.0020
  0
VERTEX
  8
LPF3500_SMT
 10
3.9076
 20
2.0820
 30
0.0000
  0
VERTEX
  8
LPF3500_SMT
 10
3.9076
 20
1.9160
 30
0.0000
  0
SEQEND
  0
POLYLINE
  8
LPF3500_SMT
 66
1
 10
0.0000
 20
0.0000
 30
0.0000
 40
0.0020
 41
0.0020
  0
VERTEX
  8
LPF3500_SMT
 10
3.9058
 20
2.0820
 30
0.0000
  0
VERTEX
  8
LPF3500_SMT
 10
3.9058
 20
1.9160
 30
0.0000
  0
SEQEND
  0
POLYLINE
  8
LPF3500_SMT
 66
1
 10
0.0000
 20
0.0000
 30
0.0000
 40
0.0020
 41
0.0020
  0
VERTEX
  8
LPF3500_SMT
 10
3.9040
 20
2.0820
 30
0.0000
  0
VERTEX
  8
LPF3500_SMT
 10
3.9040
 20
1.9160
 30
0.0000
  0
SEQEND
  0
POLYLINE
  8
LPF3500_SMT
 66
1
 10
0.0000
 20
0.0000
 30
0.0000
 40
0.0020
 41
0.0020
  0
VERTEX
  8
LPF3500_SMT
 10
3.9022
 20
2.0820
 30
0.0000
  0
VERTEX
  8
LPF3500_SMT
 10
3.9022
 20
1.9160
 30
0.0000
  0
SEQEND
  0
POLYLINE
  8
LPF3500_SMT
 66
1
 10
0.0000
 20
0.0000
 30
0.0000
 40
0.0020
 41
0.0020
  0
VERTEX
  8
LPF3500_SMT
 10
3.9004
 20
2.0820
 30
0.0000
  0
VERTEX
  8
LPF3500_SMT
 10
3.9004
 20
1.9160
 30
0.0000
  0
SEQEND
  0
POLYLINE
  8
LPF3500_SMT
 66
1
 10
0.0000
 20
0.0000
 30
0.0000
 40
0.0020
 41
0.0020
  0
VERTEX
  8
LPF3500_SMT
 10
3.8986
 20
2.0820
 30
0.0000
  0
VERTEX
  8
LPF3500_SMT
 10
3.8986
 20
1.9160
 30
0.0000
  0
SEQEND
  0
POLYLINE
  8
LPF3500_SMT
 66
1
 10
0.0000
 20
0.0000
 30
0.0000
 40
0.0020
 41
0.0020
  0
VERTEX
  8
LPF3500_SMT
 10
3.8968
 20
2.0820
 30
0.0000
  0
VERTEX
  8
LPF3500_SMT
 10
3.8968
 20
1.9160
 30
0.0000
  0
SEQEND
  0
POLYLINE
  8
LPF3500_SMT
 66
1
 10
0.0000
 20
0.0000
 30
0.0000
 40
0.0020
 41
0.0020
  0
VERTEX
  8
LPF3500_SMT
 10
3.8950
 20
2.0820
 30
0.0000
  0
VERTEX
  8
LPF3500_SMT
 10
3.8950
 20
1.9160
 30
0.0000
  0
SEQEND
  0
POLYLINE
  8
LPF3500_SMT
 66
1
 10
0.0000
 20
0.0000
 30
0.0000
 40
0.0020
 41
0.0020
  0
VERTEX
  8
LPF3500_SMT
 10
3.8932
 20
2.0820
 30
0.0000
  0
VERTEX
  8
LPF3500_SMT
 10
3.8932
 20
1.9160
 30
0.0000
  0
SEQEND
  0
POLYLINE
  8
LPF3500_SMT
 66
1
 10
0.0000
 20
0.0000
 30
0.0000
 40
0.0020
 41
0.0020
  0
VERTEX
  8
LPF3500_SMT
 10
3.8914
 20
2.0820
 30
0.0000
  0
VERTEX
  8
LPF3500_SMT
 10
3.8914
 20
1.9160
 30
0.0000
  0
SEQEND
  0
POLYLINE
  8
LPF3500_SMT
 66
1
 10
0.0000
 20
0.0000
 30
0.0000
 40
0.0020
 41
0.0020
  0
VERTEX
  8
LPF3500_SMT
 10
3.8896
 20
2.0820
 30
0.0000
  0
VERTEX
  8
LPF3500_SMT
 10
3.8896
 20
1.9160
 30
0.0000
  0
SEQEND
  0
POLYLINE
  8
LPF3500_SMT
 66
1
 10
0.0000
 20
0.0000
 30
0.0000
 40
0.0020
 41
0.0020
  0
VERTEX
  8
LPF3500_SMT
 10
3.8878
 20
2.0820
 30
0.0000
  0
VERTEX
  8
LPF3500_SMT
 10
3.8878
 20
1.9160
 30
0.0000
  0
SEQEND
  0
POLYLINE
  8
LPF3500_SMT
 66
1
 10
0.0000
 20
0.0000
 30
0.0000
 40
0.0020
 41
0.0020
  0
VERTEX
  8
LPF3500_SMT
 10
3.8860
 20
2.0820
 30
0.0000
  0
VERTEX
  8
LPF3500_SMT
 10
3.8860
 20
1.9160
 30
0.0000
  0
SEQEND
  0
POLYLINE
  8
LPF3500_SMT
 66
1
 10
0.0000
 20
0.0000
 30
0.0000
 40
0.0020
 41
0.0020
  0
VERTEX
  8
LPF3500_SMT
 10
3.8842
 20
2.0820
 30
0.0000
  0
VERTEX
  8
LPF3500_SMT
 10
3.8842
 20
1.9160
 30
0.0000
  0
SEQEND
  0
POLYLINE
  8
LPF3500_SMT
 66
1
 10
0.0000
 20
0.0000
 30
0.0000
 40
0.0020
 41
0.0020
  0
VERTEX
  8
LPF3500_SMT
 10
3.8824
 20
2.0820
 30
0.0000
  0
VERTEX
  8
LPF3500_SMT
 10
3.8824
 20
1.9160
 30
0.0000
  0
SEQEND
  0
POLYLINE
  8
LPF3500_SMT
 66
1
 10
0.0000
 20
0.0000
 30
0.0000
 40
0.0020
 41
0.0020
  0
VERTEX
  8
LPF3500_SMT
 10
3.8806
 20
2.0820
 30
0.0000
  0
VERTEX
  8
LPF3500_SMT
 10
3.8806
 20
1.9160
 30
0.0000
  0
SEQEND
  0
POLYLINE
  8
LPF3500_SMT
 66
1
 10
0.0000
 20
0.0000
 30
0.0000
 40
0.0020
 41
0.0020
  0
VERTEX
  8
LPF3500_SMT
 10
3.8788
 20
2.0820
 30
0.0000
  0
VERTEX
  8
LPF3500_SMT
 10
3.8788
 20
1.9160
 30
0.0000
  0
SEQEND
  0
POLYLINE
  8
LPF3500_SMT
 66
1
 10
0.0000
 20
0.0000
 30
0.0000
 40
0.0020
 41
0.0020
  0
VERTEX
  8
LPF3500_SMT
 10
3.8770
 20
2.0820
 30
0.0000
  0
VERTEX
  8
LPF3500_SMT
 10
3.8770
 20
1.9160
 30
0.0000
  0
SEQEND
  0
POLYLINE
  8
LPF3500_SMT
 66
1
 10
0.0000
 20
0.0000
 30
0.0000
 40
0.0020
 41
0.0020
  0
VERTEX
  8
LPF3500_SMT
 10
3.8752
 20
2.0820
 30
0.0000
  0
VERTEX
  8
LPF3500_SMT
 10
3.8752
 20
1.9160
 30
0.0000
  0
SEQEND
  0
POLYLINE
  8
LPF3500_SMT
 66
1
 10
0.0000
 20
0.0000
 30
0.0000
 40
0.0020
 41
0.0020
  0
VERTEX
  8
LPF3500_SMT
 10
3.8734
 20
2.0820
 30
0.0000
  0
VERTEX
  8
LPF3500_SMT
 10
3.8734
 20
1.9160
 30
0.0000
  0
SEQEND
  0
POLYLINE
  8
LPF3500_SMT
 66
1
 10
0.0000
 20
0.0000
 30
0.0000
 40
0.0020
 41
0.0020
  0
VERTEX
  8
LPF3500_SMT
 10
3.8716
 20
2.0820
 30
0.0000
  0
VERTEX
  8
LPF3500_SMT
 10
3.8716
 20
1.9160
 30
0.0000
  0
SEQEND
  0
POLYLINE
  8
LPF3500_SMT
 66
1
 10
0.0000
 20
0.0000
 30
0.0000
 40
0.0020
 41
0.0020
  0
VERTEX
  8
LPF3500_SMT
 10
3.8698
 20
2.0820
 30
0.0000
  0
VERTEX
  8
LPF3500_SMT
 10
3.8698
 20
1.9160
 30
0.0000
  0
SEQEND
  0
POLYLINE
  8
LPF3500_SMT
 66
1
 10
0.0000
 20
0.0000
 30
0.0000
 40
0.0020
 41
0.0020
  0
VERTEX
  8
LPF3500_SMT
 10
3.8680
 20
2.0820
 30
0.0000
  0
VERTEX
  8
LPF3500_SMT
 10
3.8680
 20
1.9160
 30
0.0000
  0
SEQEND
  0
POLYLINE
  8
LPF3500_SMT
 66
1
 10
0.0000
 20
0.0000
 30
0.0000
 40
0.0020
 41
0.0020
  0
VERTEX
  8
LPF3500_SMT
 10
3.8662
 20
2.0820
 30
0.0000
  0
VERTEX
  8
LPF3500_SMT
 10
3.8662
 20
1.9160
 30
0.0000
  0
SEQEND
  0
POLYLINE
  8
LPF3500_SMT
 66
1
 10
0.0000
 20
0.0000
 30
0.0000
 40
0.0020
 41
0.0020
  0
VERTEX
  8
LPF3500_SMT
 10
3.8644
 20
2.0820
 30
0.0000
  0
VERTEX
  8
LPF3500_SMT
 10
3.8644
 20
1.9160
 30
0.0000
  0
SEQEND
  0
POLYLINE
  8
LPF3500_SMT
 66
1
 10
0.0000
 20
0.0000
 30
0.0000
 40
0.0020
 41
0.0020
  0
VERTEX
  8
LPF3500_SMT
 10
3.8626
 20
2.0820
 30
0.0000
  0
VERTEX
  8
LPF3500_SMT
 10
3.8626
 20
1.9160
 30
0.0000
  0
SEQEND
  0
POLYLINE
  8
LPF3500_SMT
 66
1
 10
0.0000
 20
0.0000
 30
0.0000
 40
0.0020
 41
0.0020
  0
VERTEX
  8
LPF3500_SMT
 10
3.8608
 20
2.0820
 30
0.0000
  0
VERTEX
  8
LPF3500_SMT
 10
3.8608
 20
1.9160
 30
0.0000
  0
SEQEND
  0
POLYLINE
  8
LPF3500_SMT
 66
1
 10
0.0000
 20
0.0000
 30
0.0000
 40
0.0020
 41
0.0020
  0
VERTEX
  8
LPF3500_SMT
 10
3.8590
 20
2.0820
 30
0.0000
  0
VERTEX
  8
LPF3500_SMT
 10
3.8590
 20
1.9160
 30
0.0000
  0
SEQEND
  0
POLYLINE
  8
LPF3500_SMT
 66
1
 10
0.0000
 20
0.0000
 30
0.0000
 40
0.0020
 41
0.0020
  0
VERTEX
  8
LPF3500_SMT
 10
3.8572
 20
2.0820
 30
0.0000
  0
VERTEX
  8
LPF3500_SMT
 10
3.8572
 20
1.9160
 30
0.0000
  0
SEQEND
  0
POLYLINE
  8
LPF3500_SMT
 66
1
 10
0.0000
 20
0.0000
 30
0.0000
 40
0.0020
 41
0.0020
  0
VERTEX
  8
LPF3500_SMT
 10
3.8554
 20
2.0820
 30
0.0000
  0
VERTEX
  8
LPF3500_SMT
 10
3.8554
 20
1.9160
 30
0.0000
  0
SEQEND
  0
POLYLINE
  8
LPF3500_SMT
 66
1
 10
0.0000
 20
0.0000
 30
0.0000
 40
0.0020
 41
0.0020
  0
VERTEX
  8
LPF3500_SMT
 10
3.8536
 20
2.0820
 30
0.0000
  0
VERTEX
  8
LPF3500_SMT
 10
3.8536
 20
1.9160
 30
0.0000
  0
SEQEND
  0
POLYLINE
  8
LPF3500_SMT
 66
1
 10
0.0000
 20
0.0000
 30
0.0000
 40
0.0020
 41
0.0020
  0
VERTEX
  8
LPF3500_SMT
 10
3.8518
 20
2.0820
 30
0.0000
  0
VERTEX
  8
LPF3500_SMT
 10
3.8518
 20
1.9160
 30
0.0000
  0
SEQEND
  0
POLYLINE
  8
LPF3500_SMT
 66
1
 10
0.0000
 20
0.0000
 30
0.0000
 40
0.0020
 41
0.0020
  0
VERTEX
  8
LPF3500_SMT
 10
3.8500
 20
2.0820
 30
0.0000
  0
VERTEX
  8
LPF3500_SMT
 10
3.8500
 20
1.9160
 30
0.0000
  0
SEQEND
  0
POLYLINE
  8
LPF3500_SMT
 66
1
 10
0.0000
 20
0.0000
 30
0.0000
 40
0.0020
 41
0.0020
  0
VERTEX
  8
LPF3500_SMT
 10
3.8482
 20
2.0820
 30
0.0000
  0
VERTEX
  8
LPF3500_SMT
 10
3.8482
 20
1.9160
 30
0.0000
  0
SEQEND
  0
POLYLINE
  8
LPF3500_SMT
 66
1
 10
0.0000
 20
0.0000
 30
0.0000
 40
0.0020
 41
0.0020
  0
VERTEX
  8
LPF3500_SMT
 10
3.8464
 20
2.0820
 30
0.0000
  0
VERTEX
  8
LPF3500_SMT
 10
3.8464
 20
1.9160
 30
0.0000
  0
SEQEND
  0
POLYLINE
  8
LPF3500_SMT
 66
1
 10
0.0000
 20
0.0000
 30
0.0000
 40
0.0020
 41
0.0020
  0
VERTEX
  8
LPF3500_SMT
 10
3.8446
 20
2.0820
 30
0.0000
  0
VERTEX
  8
LPF3500_SMT
 10
3.8446
 20
1.9160
 30
0.0000
  0
SEQEND
  0
POLYLINE
  8
LPF3500_SMT
 66
1
 10
0.0000
 20
0.0000
 30
0.0000
 40
0.0020
 41
0.0020
  0
VERTEX
  8
LPF3500_SMT
 10
3.8428
 20
2.0820
 30
0.0000
  0
VERTEX
  8
LPF3500_SMT
 10
3.8428
 20
1.9160
 30
0.0000
  0
SEQEND
  0
POLYLINE
  8
LPF3500_SMT
 66
1
 10
0.0000
 20
0.0000
 30
0.0000
 40
0.0020
 41
0.0020
  0
VERTEX
  8
LPF3500_SMT
 10
3.8410
 20
2.0820
 30
0.0000
  0
VERTEX
  8
LPF3500_SMT
 10
3.8410
 20
1.9160
 30
0.0000
  0
SEQEND
  0
POLYLINE
  8
LPF3500_SMT
 66
1
 10
0.0000
 20
0.0000
 30
0.0000
 40
0.0020
 41
0.0020
  0
VERTEX
  8
LPF3500_SMT
 10
3.8392
 20
2.0820
 30
0.0000
  0
VERTEX
  8
LPF3500_SMT
 10
3.8392
 20
1.9160
 30
0.0000
  0
SEQEND
  0
POLYLINE
  8
LPF3500_SMT
 66
1
 10
0.0000
 20
0.0000
 30
0.0000
 40
0.0020
 41
0.0020
  0
VERTEX
  8
LPF3500_SMT
 10
3.8374
 20
2.0820
 30
0.0000
  0
VERTEX
  8
LPF3500_SMT
 10
3.8374
 20
1.9160
 30
0.0000
  0
SEQEND
  0
POLYLINE
  8
LPF3500_SMT
 66
1
 10
0.0000
 20
0.0000
 30
0.0000
 40
0.0020
 41
0.0020
  0
VERTEX
  8
LPF3500_SMT
 10
3.8356
 20
2.0820
 30
0.0000
  0
VERTEX
  8
LPF3500_SMT
 10
3.8356
 20
1.9160
 30
0.0000
  0
SEQEND
  0
POLYLINE
  8
LPF3500_SMT
 66
1
 10
0.0000
 20
0.0000
 30
0.0000
 40
0.0020
 41
0.0020
  0
VERTEX
  8
LPF3500_SMT
 10
3.8338
 20
2.0820
 30
0.0000
  0
VERTEX
  8
LPF3500_SMT
 10
3.8338
 20
1.9160
 30
0.0000
  0
SEQEND
  0
POLYLINE
  8
LPF3500_SMT
 66
1
 10
0.0000
 20
0.0000
 30
0.0000
 40
0.0020
 41
0.0020
  0
VERTEX
  8
LPF3500_SMT
 10
3.8320
 20
2.0820
 30
0.0000
  0
VERTEX
  8
LPF3500_SMT
 10
3.8320
 20
1.9160
 30
0.0000
  0
SEQEND
  0
POLYLINE
  8
LPF3500_SMT
 66
1
 10
0.0000
 20
0.0000
 30
0.0000
 40
0.0020
 41
0.0020
  0
VERTEX
  8
LPF3500_SMT
 10
3.8302
 20
2.0820
 30
0.0000
  0
VERTEX
  8
LPF3500_SMT
 10
3.8302
 20
1.9160
 30
0.0000
  0
SEQEND
  0
POLYLINE
  8
LPF3500_SMT
 66
1
 10
0.0000
 20
0.0000
 30
0.0000
 40
0.0020
 41
0.0020
  0
VERTEX
  8
LPF3500_SMT
 10
3.8284
 20
2.0820
 30
0.0000
  0
VERTEX
  8
LPF3500_SMT
 10
3.8284
 20
1.9160
 30
0.0000
  0
SEQEND
  0
POLYLINE
  8
LPF3500_SMT
 66
1
 10
0.0000
 20
0.0000
 30
0.0000
 40
0.0020
 41
0.0020
  0
VERTEX
  8
LPF3500_SMT
 10
3.8266
 20
2.0820
 30
0.0000
  0
VERTEX
  8
LPF3500_SMT
 10
3.8266
 20
1.9160
 30
0.0000
  0
SEQEND
  0
POLYLINE
  8
LPF3500_SMT
 66
1
 10
0.0000
 20
0.0000
 30
0.0000
 40
0.0020
 41
0.0020
  0
VERTEX
  8
LPF3500_SMT
 10
3.8248
 20
2.0820
 30
0.0000
  0
VERTEX
  8
LPF3500_SMT
 10
3.8248
 20
1.9160
 30
0.0000
  0
SEQEND
  0
POLYLINE
  8
LPF3500_SMT
 66
1
 10
0.0000
 20
0.0000
 30
0.0000
 40
0.0020
 41
0.0020
  0
VERTEX
  8
LPF3500_SMT
 10
3.8230
 20
2.0820
 30
0.0000
  0
VERTEX
  8
LPF3500_SMT
 10
3.8230
 20
1.9160
 30
0.0000
  0
SEQEND
  0
POLYLINE
  8
LPF3500_SMT
 66
1
 10
0.0000
 20
0.0000
 30
0.0000
 40
0.0020
 41
0.0020
  0
VERTEX
  8
LPF3500_SMT
 10
3.8212
 20
2.0820
 30
0.0000
  0
VERTEX
  8
LPF3500_SMT
 10
3.8212
 20
1.9160
 30
0.0000
  0
SEQEND
  0
POLYLINE
  8
LPF3500_SMT
 66
1
 10
0.0000
 20
0.0000
 30
0.0000
 40
0.0020
 41
0.0020
  0
VERTEX
  8
LPF3500_SMT
 10
3.8194
 20
2.0820
 30
0.0000
  0
VERTEX
  8
LPF3500_SMT
 10
3.8194
 20
1.9160
 30
0.0000
  0
SEQEND
  0
POLYLINE
  8
LPF3500_SMT
 66
1
 10
0.0000
 20
0.0000
 30
0.0000
 40
0.0020
 41
0.0020
  0
VERTEX
  8
LPF3500_SMT
 10
3.8176
 20
2.0820
 30
0.0000
  0
VERTEX
  8
LPF3500_SMT
 10
3.8176
 20
1.9160
 30
0.0000
  0
SEQEND
  0
POLYLINE
  8
LPF3500_SMT
 66
1
 10
0.0000
 20
0.0000
 30
0.0000
 40
0.0020
 41
0.0020
  0
VERTEX
  8
LPF3500_SMT
 10
3.8158
 20
2.0820
 30
0.0000
  0
VERTEX
  8
LPF3500_SMT
 10
3.8158
 20
1.9160
 30
0.0000
  0
SEQEND
  0
POLYLINE
  8
LPF3500_SMT
 66
1
 10
0.0000
 20
0.0000
 30
0.0000
 40
0.0020
 41
0.0020
  0
VERTEX
  8
LPF3500_SMT
 10
3.8140
 20
2.0820
 30
0.0000
  0
VERTEX
  8
LPF3500_SMT
 10
3.8140
 20
1.9160
 30
0.0000
  0
SEQEND
  0
POLYLINE
  8
LPF3500_SMT
 66
1
 10
0.0000
 20
0.0000
 30
0.0000
 40
0.0020
 41
0.0020
  0
VERTEX
  8
LPF3500_SMT
 10
3.8122
 20
2.0820
 30
0.0000
  0
VERTEX
  8
LPF3500_SMT
 10
3.8122
 20
1.9160
 30
0.0000
  0
SEQEND
  0
POLYLINE
  8
LPF3500_SMT
 66
1
 10
0.0000
 20
0.0000
 30
0.0000
 40
0.0020
 41
0.0020
  0
VERTEX
  8
LPF3500_SMT
 10
3.8104
 20
2.0820
 30
0.0000
  0
VERTEX
  8
LPF3500_SMT
 10
3.8104
 20
1.9160
 30
0.0000
  0
SEQEND
  0
POLYLINE
  8
LPF3500_SMT
 66
1
 10
0.0000
 20
0.0000
 30
0.0000
 40
0.0020
 41
0.0020
  0
VERTEX
  8
LPF3500_SMT
 10
3.8086
 20
2.0820
 30
0.0000
  0
VERTEX
  8
LPF3500_SMT
 10
3.8086
 20
1.9160
 30
0.0000
  0
SEQEND
  0
POLYLINE
  8
LPF3500_SMT
 66
1
 10
0.0000
 20
0.0000
 30
0.0000
 40
0.0020
 41
0.0020
  0
VERTEX
  8
LPF3500_SMT
 10
3.8068
 20
2.0820
 30
0.0000
  0
VERTEX
  8
LPF3500_SMT
 10
3.8068
 20
1.9160
 30
0.0000
  0
SEQEND
  0
POLYLINE
  8
LPF3500_SMT
 66
1
 10
0.0000
 20
0.0000
 30
0.0000
 40
0.0020
 41
0.0020
  0
VERTEX
  8
LPF3500_SMT
 10
3.8050
 20
2.0820
 30
0.0000
  0
VERTEX
  8
LPF3500_SMT
 10
3.8050
 20
1.9160
 30
0.0000
  0
SEQEND
  0
POLYLINE
  8
LPF3500_SMT
 66
1
 10
0.0000
 20
0.0000
 30
0.0000
 40
0.0020
 41
0.0020
  0
VERTEX
  8
LPF3500_SMT
 10
3.8032
 20
2.0820
 30
0.0000
  0
VERTEX
  8
LPF3500_SMT
 10
3.8032
 20
1.9160
 30
0.0000
  0
SEQEND
  0
POLYLINE
  8
LPF3500_SMT
 66
1
 10
0.0000
 20
0.0000
 30
0.0000
 40
0.0020
 41
0.0020
  0
VERTEX
  8
LPF3500_SMT
 10
3.8014
 20
2.0820
 30
0.0000
  0
VERTEX
  8
LPF3500_SMT
 10
3.8014
 20
1.9160
 30
0.0000
  0
SEQEND
  0
POLYLINE
  8
LPF3500_SMT
 66
1
 10
0.0000
 20
0.0000
 30
0.0000
 40
0.0020
 41
0.0020
  0
VERTEX
  8
LPF3500_SMT
 10
3.7996
 20
2.0820
 30
0.0000
  0
VERTEX
  8
LPF3500_SMT
 10
3.7996
 20
1.9160
 30
0.0000
  0
SEQEND
  0
POLYLINE
  8
LPF3500_SMT
 66
1
 10
0.0000
 20
0.0000
 30
0.0000
 40
0.0020
 41
0.0020
  0
VERTEX
  8
LPF3500_SMT
 10
3.7978
 20
2.0820
 30
0.0000
  0
VERTEX
  8
LPF3500_SMT
 10
3.7978
 20
1.9160
 30
0.0000
  0
SEQEND
  0
POLYLINE
  8
LPF3500_SMT
 66
1
 10
0.0000
 20
0.0000
 30
0.0000
 40
0.0020
 41
0.0020
  0
VERTEX
  8
LPF3500_SMT
 10
3.7960
 20
2.0820
 30
0.0000
  0
VERTEX
  8
LPF3500_SMT
 10
3.7960
 20
1.9160
 30
0.0000
  0
SEQEND
  0
POLYLINE
  8
LPF3500_SMT
 66
1
 10
0.0000
 20
0.0000
 30
0.0000
 40
0.0020
 41
0.0020
  0
VERTEX
  8
LPF3500_SMT
 10
3.7942
 20
2.0820
 30
0.0000
  0
VERTEX
  8
LPF3500_SMT
 10
3.7942
 20
1.9160
 30
0.0000
  0
SEQEND
  0
POLYLINE
  8
LPF3500_SMT
 66
1
 10
0.0000
 20
0.0000
 30
0.0000
 40
0.0020
 41
0.0020
  0
VERTEX
  8
LPF3500_SMT
 10
3.7924
 20
2.0820
 30
0.0000
  0
VERTEX
  8
LPF3500_SMT
 10
3.7924
 20
1.9160
 30
0.0000
  0
SEQEND
  0
POLYLINE
  8
LPF3500_SMT
 66
1
 10
0.0000
 20
0.0000
 30
0.0000
 40
0.0020
 41
0.0020
  0
VERTEX
  8
LPF3500_SMT
 10
3.7906
 20
2.0820
 30
0.0000
  0
VERTEX
  8
LPF3500_SMT
 10
3.7906
 20
1.9160
 30
0.0000
  0
SEQEND
  0
POLYLINE
  8
LPF3500_SMT
 66
1
 10
0.0000
 20
0.0000
 30
0.0000
 40
0.0020
 41
0.0020
  0
VERTEX
  8
LPF3500_SMT
 10
3.7888
 20
2.0820
 30
0.0000
  0
VERTEX
  8
LPF3500_SMT
 10
3.7888
 20
1.9160
 30
0.0000
  0
SEQEND
  0
POLYLINE
  8
LPF3500_SMT
 66
1
 10
0.0000
 20
0.0000
 30
0.0000
 40
0.0020
 41
0.0020
  0
VERTEX
  8
LPF3500_SMT
 10
3.7870
 20
2.0820
 30
0.0000
  0
VERTEX
  8
LPF3500_SMT
 10
3.7870
 20
1.9160
 30
0.0000
  0
SEQEND
  0
POLYLINE
  8
LPF3500_SMT
 66
1
 10
0.0000
 20
0.0000
 30
0.0000
 40
0.0020
 41
0.0020
  0
VERTEX
  8
LPF3500_SMT
 10
3.7852
 20
2.0820
 30
0.0000
  0
VERTEX
  8
LPF3500_SMT
 10
3.7852
 20
1.9160
 30
0.0000
  0
SEQEND
  0
POLYLINE
  8
LPF3500_SMT
 66
1
 10
0.0000
 20
0.0000
 30
0.0000
 40
0.0020
 41
0.0020
  0
VERTEX
  8
LPF3500_SMT
 10
3.7834
 20
2.0820
 30
0.0000
  0
VERTEX
  8
LPF3500_SMT
 10
3.7834
 20
1.9160
 30
0.0000
  0
SEQEND
  0
POLYLINE
  8
LPF3500_SMT
 66
1
 10
0.0000
 20
0.0000
 30
0.0000
 40
0.0020
 41
0.0020
  0
VERTEX
  8
LPF3500_SMT
 10
3.7816
 20
2.0820
 30
0.0000
  0
VERTEX
  8
LPF3500_SMT
 10
3.7816
 20
1.9160
 30
0.0000
  0
SEQEND
  0
POLYLINE
  8
LPF3500_SMT
 66
1
 10
0.0000
 20
0.0000
 30
0.0000
 40
0.0020
 41
0.0020
  0
VERTEX
  8
LPF3500_SMT
 10
3.7798
 20
2.0820
 30
0.0000
  0
VERTEX
  8
LPF3500_SMT
 10
3.7798
 20
1.9160
 30
0.0000
  0
SEQEND
  0
POLYLINE
  8
LPF3500_SMT
 66
1
 10
0.0000
 20
0.0000
 30
0.0000
 40
0.0020
 41
0.0020
  0
VERTEX
  8
LPF3500_SMT
 10
3.7780
 20
2.0820
 30
0.0000
  0
VERTEX
  8
LPF3500_SMT
 10
3.7780
 20
1.9160
 30
0.0000
  0
SEQEND
  0
POLYLINE
  8
LPF3500_SMT
 66
1
 10
0.0000
 20
0.0000
 30
0.0000
 40
0.0020
 41
0.0020
  0
VERTEX
  8
LPF3500_SMT
 10
3.7762
 20
2.0820
 30
0.0000
  0
VERTEX
  8
LPF3500_SMT
 10
3.7762
 20
1.9160
 30
0.0000
  0
SEQEND
  0
POLYLINE
  8
LPF3500_SMT
 66
1
 10
0.0000
 20
0.0000
 30
0.0000
 40
0.0020
 41
0.0020
  0
VERTEX
  8
LPF3500_SMT
 10
3.7744
 20
2.0820
 30
0.0000
  0
VERTEX
  8
LPF3500_SMT
 10
3.7744
 20
1.9160
 30
0.0000
  0
SEQEND
  0
POLYLINE
  8
LPF3500_SMT
 66
1
 10
0.0000
 20
0.0000
 30
0.0000
 40
0.0020
 41
0.0020
  0
VERTEX
  8
LPF3500_SMT
 10
3.7726
 20
2.0820
 30
0.0000
  0
VERTEX
  8
LPF3500_SMT
 10
3.7726
 20
1.9160
 30
0.0000
  0
SEQEND
  0
POLYLINE
  8
LPF3500_SMT
 66
1
 10
0.0000
 20
0.0000
 30
0.0000
 40
0.0020
 41
0.0020
  0
VERTEX
  8
LPF3500_SMT
 10
3.7708
 20
2.0820
 30
0.0000
  0
VERTEX
  8
LPF3500_SMT
 10
3.7708
 20
1.9160
 30
0.0000
  0
SEQEND
  0
POLYLINE
  8
LPF3500_SMT
 66
1
 10
0.0000
 20
0.0000
 30
0.0000
 40
0.0020
 41
0.0020
  0
VERTEX
  8
LPF3500_SMT
 10
3.7690
 20
2.0820
 30
0.0000
  0
VERTEX
  8
LPF3500_SMT
 10
3.7690
 20
1.9160
 30
0.0000
  0
SEQEND
  0
POLYLINE
  8
LPF3500_SMT
 66
1
 10
0.0000
 20
0.0000
 30
0.0000
 40
0.0020
 41
0.0020
  0
VERTEX
  8
LPF3500_SMT
 10
3.7672
 20
2.0820
 30
0.0000
  0
VERTEX
  8
LPF3500_SMT
 10
3.7672
 20
1.9160
 30
0.0000
  0
SEQEND
  0
POLYLINE
  8
LPF3500_SMT
 66
1
 10
0.0000
 20
0.0000
 30
0.0000
 40
0.0020
 41
0.0020
  0
VERTEX
  8
LPF3500_SMT
 10
3.7654
 20
2.0820
 30
0.0000
  0
VERTEX
  8
LPF3500_SMT
 10
3.7654
 20
1.9160
 30
0.0000
  0
SEQEND
  0
POLYLINE
  8
LPF3500_SMT
 66
1
 10
0.0000
 20
0.0000
 30
0.0000
 40
0.0020
 41
0.0020
  0
VERTEX
  8
LPF3500_SMT
 10
3.7636
 20
2.0820
 30
0.0000
  0
VERTEX
  8
LPF3500_SMT
 10
3.7636
 20
1.9160
 30
0.0000
  0
SEQEND
  0
POLYLINE
  8
LPF3500_SMT
 66
1
 10
0.0000
 20
0.0000
 30
0.0000
 40
0.0020
 41
0.0020
  0
VERTEX
  8
LPF3500_SMT
 10
3.7618
 20
2.0820
 30
0.0000
  0
VERTEX
  8
LPF3500_SMT
 10
3.7618
 20
1.9160
 30
0.0000
  0
SEQEND
  0
POLYLINE
  8
LPF3500_SMT
 66
1
 10
0.0000
 20
0.0000
 30
0.0000
 40
0.0020
 41
0.0020
  0
VERTEX
  8
LPF3500_SMT
 10
3.7600
 20
2.0820
 30
0.0000
  0
VERTEX
  8
LPF3500_SMT
 10
3.7600
 20
1.9160
 30
0.0000
  0
SEQEND
  0
POLYLINE
  8
LPF3500_SMT
 66
1
 10
0.0000
 20
0.0000
 30
0.0000
 40
0.0020
 41
0.0020
  0
VERTEX
  8
LPF3500_SMT
 10
3.7582
 20
2.0820
 30
0.0000
  0
VERTEX
  8
LPF3500_SMT
 10
3.7582
 20
1.9160
 30
0.0000
  0
SEQEND
  0
POLYLINE
  8
LPF3500_SMT
 66
1
 10
0.0000
 20
0.0000
 30
0.0000
 40
0.0020
 41
0.0020
  0
VERTEX
  8
LPF3500_SMT
 10
3.7564
 20
2.0820
 30
0.0000
  0
VERTEX
  8
LPF3500_SMT
 10
3.7564
 20
1.9160
 30
0.0000
  0
SEQEND
  0
POLYLINE
  8
LPF3500_SMT
 66
1
 10
0.0000
 20
0.0000
 30
0.0000
 40
0.0020
 41
0.0020
  0
VERTEX
  8
LPF3500_SMT
 10
3.7546
 20
2.0820
 30
0.0000
  0
VERTEX
  8
LPF3500_SMT
 10
3.7546
 20
1.9160
 30
0.0000
  0
SEQEND
  0
POLYLINE
  8
LPF3500_SMT
 66
1
 10
0.0000
 20
0.0000
 30
0.0000
 40
0.0020
 41
0.0020
  0
VERTEX
  8
LPF3500_SMT
 10
3.7528
 20
2.0820
 30
0.0000
  0
VERTEX
  8
LPF3500_SMT
 10
3.7528
 20
1.9160
 30
0.0000
  0
SEQEND
  0
POLYLINE
  8
LPF3500_SMT
 66
1
 10
0.0000
 20
0.0000
 30
0.0000
 40
0.0020
 41
0.0020
  0
VERTEX
  8
LPF3500_SMT
 10
3.7510
 20
2.0820
 30
0.0000
  0
VERTEX
  8
LPF3500_SMT
 10
3.7510
 20
1.9160
 30
0.0000
  0
SEQEND
  0
POLYLINE
  8
LPF3500_SMT
 66
1
 10
0.0000
 20
0.0000
 30
0.0000
 40
0.0020
 41
0.0020
  0
VERTEX
  8
LPF3500_SMT
 10
3.7492
 20
2.0820
 30
0.0000
  0
VERTEX
  8
LPF3500_SMT
 10
3.7492
 20
1.9160
 30
0.0000
  0
SEQEND
  0
POLYLINE
  8
LPF3500_SMT
 66
1
 10
0.0000
 20
0.0000
 30
0.0000
 40
0.0020
 41
0.0020
  0
VERTEX
  8
LPF3500_SMT
 10
3.7474
 20
2.0820
 30
0.0000
  0
VERTEX
  8
LPF3500_SMT
 10
3.7474
 20
1.9160
 30
0.0000
  0
SEQEND
  0
POLYLINE
  8
LPF3500_SMT
 66
1
 10
0.0000
 20
0.0000
 30
0.0000
 40
0.0020
 41
0.0020
  0
VERTEX
  8
LPF3500_SMT
 10
3.7456
 20
2.0820
 30
0.0000
  0
VERTEX
  8
LPF3500_SMT
 10
3.7456
 20
1.9160
 30
0.0000
  0
SEQEND
  0
POLYLINE
  8
LPF3500_SMT
 66
1
 10
0.0000
 20
0.0000
 30
0.0000
 40
0.0020
 41
0.0020
  0
VERTEX
  8
LPF3500_SMT
 10
3.7438
 20
2.0820
 30
0.0000
  0
VERTEX
  8
LPF3500_SMT
 10
3.7438
 20
1.9160
 30
0.0000
  0
SEQEND
  0
POLYLINE
  8
LPF3500_SMT
 66
1
 10
0.0000
 20
0.0000
 30
0.0000
 40
0.0020
 41
0.0020
  0
VERTEX
  8
LPF3500_SMT
 10
3.7420
 20
2.0820
 30
0.0000
  0
VERTEX
  8
LPF3500_SMT
 10
3.7420
 20
1.9160
 30
0.0000
  0
SEQEND
  0
POLYLINE
  8
LPF3500_SMT
 66
1
 10
0.0000
 20
0.0000
 30
0.0000
 40
0.0020
 41
0.0020
  0
VERTEX
  8
LPF3500_SMT
 10
3.7402
 20
2.0820
 30
0.0000
  0
VERTEX
  8
LPF3500_SMT
 10
3.7402
 20
1.9160
 30
0.0000
  0
SEQEND
  0
POLYLINE
  8
LPF3500_SMT
 66
1
 10
0.0000
 20
0.0000
 30
0.0000
 40
0.0020
 41
0.0020
  0
VERTEX
  8
LPF3500_SMT
 10
3.7384
 20
2.0820
 30
0.0000
  0
VERTEX
  8
LPF3500_SMT
 10
3.7384
 20
1.9160
 30
0.0000
  0
SEQEND
  0
POLYLINE
  8
LPF3500_SMT
 66
1
 10
0.0000
 20
0.0000
 30
0.0000
 40
0.0020
 41
0.0020
  0
VERTEX
  8
LPF3500_SMT
 10
3.7366
 20
2.0820
 30
0.0000
  0
VERTEX
  8
LPF3500_SMT
 10
3.7366
 20
1.9160
 30
0.0000
  0
SEQEND
  0
POLYLINE
  8
LPF3500_SMT
 66
1
 10
0.0000
 20
0.0000
 30
0.0000
 40
0.0020
 41
0.0020
  0
VERTEX
  8
LPF3500_SMT
 10
3.7348
 20
2.0820
 30
0.0000
  0
VERTEX
  8
LPF3500_SMT
 10
3.7348
 20
1.9160
 30
0.0000
  0
SEQEND
  0
POLYLINE
  8
LPF3500_SMT
 66
1
 10
0.0000
 20
0.0000
 30
0.0000
 40
0.0020
 41
0.0020
  0
VERTEX
  8
LPF3500_SMT
 10
3.7330
 20
2.0820
 30
0.0000
  0
VERTEX
  8
LPF3500_SMT
 10
3.7330
 20
1.9160
 30
0.0000
  0
SEQEND
  0
POLYLINE
  8
LPF3500_SMT
 66
1
 10
0.0000
 20
0.0000
 30
0.0000
 40
0.0020
 41
0.0020
  0
VERTEX
  8
LPF3500_SMT
 10
3.7312
 20
2.0820
 30
0.0000
  0
VERTEX
  8
LPF3500_SMT
 10
3.7312
 20
1.9160
 30
0.0000
  0
SEQEND
  0
POLYLINE
  8
LPF3500_SMT
 66
1
 10
0.0000
 20
0.0000
 30
0.0000
 40
0.0020
 41
0.0020
  0
VERTEX
  8
LPF3500_SMT
 10
3.7294
 20
2.0820
 30
0.0000
  0
VERTEX
  8
LPF3500_SMT
 10
3.7294
 20
1.9160
 30
0.0000
  0
SEQEND
  0
POLYLINE
  8
LPF3500_SMT
 66
1
 10
0.0000
 20
0.0000
 30
0.0000
 40
0.0020
 41
0.0020
  0
VERTEX
  8
LPF3500_SMT
 10
3.7276
 20
2.0820
 30
0.0000
  0
VERTEX
  8
LPF3500_SMT
 10
3.7276
 20
1.9160
 30
0.0000
  0
SEQEND
  0
POLYLINE
  8
LPF3500_SMT
 66
1
 10
0.0000
 20
0.0000
 30
0.0000
 40
0.0020
 41
0.0020
  0
VERTEX
  8
LPF3500_SMT
 10
3.7258
 20
2.0820
 30
0.0000
  0
VERTEX
  8
LPF3500_SMT
 10
3.7258
 20
1.9160
 30
0.0000
  0
SEQEND
  0
POLYLINE
  8
LPF3500_SMT
 66
1
 10
0.0000
 20
0.0000
 30
0.0000
 40
0.0020
 41
0.0020
  0
VERTEX
  8
LPF3500_SMT
 10
3.7240
 20
2.0820
 30
0.0000
  0
VERTEX
  8
LPF3500_SMT
 10
3.7240
 20
1.9160
 30
0.0000
  0
SEQEND
  0
POLYLINE
  8
LPF3500_SMT
 66
1
 10
0.0000
 20
0.0000
 30
0.0000
 40
0.0020
 41
0.0020
  0
VERTEX
  8
LPF3500_SMT
 10
3.7222
 20
2.0820
 30
0.0000
  0
VERTEX
  8
LPF3500_SMT
 10
3.7222
 20
1.9160
 30
0.0000
  0
SEQEND
  0
POLYLINE
  8
LPF3500_SMT
 66
1
 10
0.0000
 20
0.0000
 30
0.0000
 40
0.0020
 41
0.0020
  0
VERTEX
  8
LPF3500_SMT
 10
3.7204
 20
2.0820
 30
0.0000
  0
VERTEX
  8
LPF3500_SMT
 10
3.7204
 20
1.9160
 30
0.0000
  0
SEQEND
  0
POLYLINE
  8
LPF3500_SMT
 66
1
 10
0.0000
 20
0.0000
 30
0.0000
 40
0.0020
 41
0.0020
  0
VERTEX
  8
LPF3500_SMT
 10
3.7186
 20
2.0820
 30
0.0000
  0
VERTEX
  8
LPF3500_SMT
 10
3.7186
 20
1.9160
 30
0.0000
  0
SEQEND
  0
POLYLINE
  8
LPF3500_SMT
 66
1
 10
0.0000
 20
0.0000
 30
0.0000
 40
0.0020
 41
0.0020
  0
VERTEX
  8
LPF3500_SMT
 10
3.7168
 20
2.0820
 30
0.0000
  0
VERTEX
  8
LPF3500_SMT
 10
3.7168
 20
1.9160
 30
0.0000
  0
SEQEND
  0
POLYLINE
  8
LPF3500_SMT
 66
1
 10
0.0000
 20
0.0000
 30
0.0000
 40
0.0020
 41
0.0020
  0
VERTEX
  8
LPF3500_SMT
 10
3.7150
 20
2.0820
 30
0.0000
  0
VERTEX
  8
LPF3500_SMT
 10
3.7150
 20
1.9160
 30
0.0000
  0
SEQEND
  0
POLYLINE
  8
LPF3500_SMT
 66
1
 10
0.0000
 20
0.0000
 30
0.0000
 40
0.0020
 41
0.0020
  0
VERTEX
  8
LPF3500_SMT
 10
3.7132
 20
2.0820
 30
0.0000
  0
VERTEX
  8
LPF3500_SMT
 10
3.7132
 20
1.9160
 30
0.0000
  0
SEQEND
  0
POLYLINE
  8
LPF3500_SMT
 66
1
 10
0.0000
 20
0.0000
 30
0.0000
 40
0.0020
 41
0.0020
  0
VERTEX
  8
LPF3500_SMT
 10
3.7114
 20
2.0820
 30
0.0000
  0
VERTEX
  8
LPF3500_SMT
 10
3.7114
 20
1.9160
 30
0.0000
  0
SEQEND
  0
POLYLINE
  8
LPF3500_SMT
 66
1
 10
0.0000
 20
0.0000
 30
0.0000
 40
0.0020
 41
0.0020
  0
VERTEX
  8
LPF3500_SMT
 10
3.7096
 20
2.0820
 30
0.0000
  0
VERTEX
  8
LPF3500_SMT
 10
3.7096
 20
1.9160
 30
0.0000
  0
SEQEND
  0
POLYLINE
  8
LPF3500_SMT
 66
1
 10
0.0000
 20
0.0000
 30
0.0000
 40
0.0020
 41
0.0020
  0
VERTEX
  8
LPF3500_SMT
 10
3.7078
 20
2.0820
 30
0.0000
  0
VERTEX
  8
LPF3500_SMT
 10
3.7078
 20
1.9160
 30
0.0000
  0
SEQEND
  0
POLYLINE
  8
LPF3500_SMT
 66
1
 10
0.0000
 20
0.0000
 30
0.0000
 40
0.0020
 41
0.0020
  0
VERTEX
  8
LPF3500_SMT
 10
3.7060
 20
2.0820
 30
0.0000
  0
VERTEX
  8
LPF3500_SMT
 10
3.7060
 20
1.9160
 30
0.0000
  0
SEQEND
  0
POLYLINE
  8
LPF3500_SMT
 66
1
 10
0.0000
 20
0.0000
 30
0.0000
 40
0.0020
 41
0.0020
  0
VERTEX
  8
LPF3500_SMT
 10
3.7042
 20
2.0820
 30
0.0000
  0
VERTEX
  8
LPF3500_SMT
 10
3.7042
 20
1.9160
 30
0.0000
  0
SEQEND
  0
POLYLINE
  8
LPF3500_SMT
 66
1
 10
0.0000
 20
0.0000
 30
0.0000
 40
0.0020
 41
0.0020
  0
VERTEX
  8
LPF3500_SMT
 10
3.7024
 20
2.0820
 30
0.0000
  0
VERTEX
  8
LPF3500_SMT
 10
3.7024
 20
1.9160
 30
0.0000
  0
SEQEND
  0
POLYLINE
  8
LPF3500_SMT
 66
1
 10
0.0000
 20
0.0000
 30
0.0000
 40
0.0020
 41
0.0020
  0
VERTEX
  8
LPF3500_SMT
 10
3.7006
 20
2.0820
 30
0.0000
  0
VERTEX
  8
LPF3500_SMT
 10
3.7006
 20
1.9160
 30
0.0000
  0
SEQEND
  0
POLYLINE
  8
LPF3500_SMT
 66
1
 10
0.0000
 20
0.0000
 30
0.0000
 40
0.0020
 41
0.0020
  0
VERTEX
  8
LPF3500_SMT
 10
3.6988
 20
2.0820
 30
0.0000
  0
VERTEX
  8
LPF3500_SMT
 10
3.6988
 20
1.9160
 30
0.0000
  0
SEQEND
  0
POLYLINE
  8
LPF3500_SMT
 66
1
 10
0.0000
 20
0.0000
 30
0.0000
 40
0.0020
 41
0.0020
  0
VERTEX
  8
LPF3500_SMT
 10
3.6970
 20
2.0820
 30
0.0000
  0
VERTEX
  8
LPF3500_SMT
 10
3.6970
 20
1.9160
 30
0.0000
  0
SEQEND
  0
POLYLINE
  8
LPF3500_SMT
 66
1
 10
0.0000
 20
0.0000
 30
0.0000
 40
0.0020
 41
0.0020
  0
VERTEX
  8
LPF3500_SMT
 10
3.6952
 20
2.0820
 30
0.0000
  0
VERTEX
  8
LPF3500_SMT
 10
3.6952
 20
1.9160
 30
0.0000
  0
SEQEND
  0
POLYLINE
  8
LPF3500_SMT
 66
1
 10
0.0000
 20
0.0000
 30
0.0000
 40
0.0020
 41
0.0020
  0
VERTEX
  8
LPF3500_SMT
 10
3.6934
 20
2.0820
 30
0.0000
  0
VERTEX
  8
LPF3500_SMT
 10
3.6934
 20
1.9160
 30
0.0000
  0
SEQEND
  0
POLYLINE
  8
LPF3500_SMT
 66
1
 10
0.0000
 20
0.0000
 30
0.0000
 40
0.0020
 41
0.0020
  0
VERTEX
  8
LPF3500_SMT
 10
3.6916
 20
2.0820
 30
0.0000
  0
VERTEX
  8
LPF3500_SMT
 10
3.6916
 20
1.9160
 30
0.0000
  0
SEQEND
  0
POLYLINE
  8
LPF3500_SMT
 66
1
 10
0.0000
 20
0.0000
 30
0.0000
 40
0.0020
 41
0.0020
  0
VERTEX
  8
LPF3500_SMT
 10
3.6898
 20
2.0820
 30
0.0000
  0
VERTEX
  8
LPF3500_SMT
 10
3.6898
 20
1.9160
 30
0.0000
  0
SEQEND
  0
POLYLINE
  8
LPF3500_SMT
 66
1
 10
0.0000
 20
0.0000
 30
0.0000
 40
0.0020
 41
0.0020
  0
VERTEX
  8
LPF3500_SMT
 10
3.6880
 20
2.0820
 30
0.0000
  0
VERTEX
  8
LPF3500_SMT
 10
3.6880
 20
1.9160
 30
0.0000
  0
SEQEND
  0
POLYLINE
  8
LPF3500_SMT
 66
1
 10
0.0000
 20
0.0000
 30
0.0000
 40
0.0020
 41
0.0020
  0
VERTEX
  8
LPF3500_SMT
 10
3.6862
 20
2.0820
 30
0.0000
  0
VERTEX
  8
LPF3500_SMT
 10
3.6862
 20
1.9160
 30
0.0000
  0
SEQEND
  0
POLYLINE
  8
LPF3500_SMT
 66
1
 10
0.0000
 20
0.0000
 30
0.0000
 40
0.0020
 41
0.0020
  0
VERTEX
  8
LPF3500_SMT
 10
3.6844
 20
2.0820
 30
0.0000
  0
VERTEX
  8
LPF3500_SMT
 10
3.6844
 20
1.9160
 30
0.0000
  0
SEQEND
  0
POLYLINE
  8
LPF3500_SMT
 66
1
 10
0.0000
 20
0.0000
 30
0.0000
 40
0.0020
 41
0.0020
  0
VERTEX
  8
LPF3500_SMT
 10
3.6826
 20
2.0820
 30
0.0000
  0
VERTEX
  8
LPF3500_SMT
 10
3.6826
 20
1.9160
 30
0.0000
  0
SEQEND
  0
POLYLINE
  8
LPF3500_SMT
 66
1
 10
0.0000
 20
0.0000
 30
0.0000
 40
0.0020
 41
0.0020
  0
VERTEX
  8
LPF3500_SMT
 10
3.6808
 20
2.0820
 30
0.0000
  0
VERTEX
  8
LPF3500_SMT
 10
3.6808
 20
1.9160
 30
0.0000
  0
SEQEND
  0
POLYLINE
  8
LPF3500_SMT
 66
1
 10
0.0000
 20
0.0000
 30
0.0000
 40
0.0020
 41
0.0020
  0
VERTEX
  8
LPF3500_SMT
 10
3.6790
 20
2.0820
 30
0.0000
  0
VERTEX
  8
LPF3500_SMT
 10
3.6790
 20
1.9160
 30
0.0000
  0
SEQEND
  0
POLYLINE
  8
LPF3500_SMT
 66
1
 10
0.0000
 20
0.0000
 30
0.0000
 40
0.0020
 41
0.0020
  0
VERTEX
  8
LPF3500_SMT
 10
3.6772
 20
2.0820
 30
0.0000
  0
VERTEX
  8
LPF3500_SMT
 10
3.6772
 20
1.9160
 30
0.0000
  0
SEQEND
  0
POLYLINE
  8
LPF3500_SMT
 66
1
 10
0.0000
 20
0.0000
 30
0.0000
 40
0.0020
 41
0.0020
  0
VERTEX
  8
LPF3500_SMT
 10
3.6754
 20
2.0820
 30
0.0000
  0
VERTEX
  8
LPF3500_SMT
 10
3.6754
 20
1.9160
 30
0.0000
  0
SEQEND
  0
POLYLINE
  8
LPF3500_SMT
 66
1
 10
0.0000
 20
0.0000
 30
0.0000
 40
0.0020
 41
0.0020
  0
VERTEX
  8
LPF3500_SMT
 10
3.6736
 20
2.0820
 30
0.0000
  0
VERTEX
  8
LPF3500_SMT
 10
3.6736
 20
1.9160
 30
0.0000
  0
SEQEND
  0
POLYLINE
  8
LPF3500_SMT
 66
1
 10
0.0000
 20
0.0000
 30
0.0000
 40
0.0020
 41
0.0020
  0
VERTEX
  8
LPF3500_SMT
 10
3.6718
 20
2.0820
 30
0.0000
  0
VERTEX
  8
LPF3500_SMT
 10
3.6718
 20
1.9160
 30
0.0000
  0
SEQEND
  0
POLYLINE
  8
LPF3500_SMT
 66
1
 10
0.0000
 20
0.0000
 30
0.0000
 40
0.0020
 41
0.0020
  0
VERTEX
  8
LPF3500_SMT
 10
3.6700
 20
2.0820
 30
0.0000
  0
VERTEX
  8
LPF3500_SMT
 10
3.6700
 20
1.9160
 30
0.0000
  0
SEQEND
  0
POLYLINE
  8
LPF3500_SMT
 66
1
 10
0.0000
 20
0.0000
 30
0.0000
 40
0.0020
 41
0.0020
  0
VERTEX
  8
LPF3500_SMT
 10
3.6682
 20
2.0820
 30
0.0000
  0
VERTEX
  8
LPF3500_SMT
 10
3.6682
 20
1.9160
 30
0.0000
  0
SEQEND
  0
POLYLINE
  8
LPF3500_SMT
 66
1
 10
0.0000
 20
0.0000
 30
0.0000
 40
0.0020
 41
0.0020
  0
VERTEX
  8
LPF3500_SMT
 10
3.6664
 20
2.0820
 30
0.0000
  0
VERTEX
  8
LPF3500_SMT
 10
3.6664
 20
1.9160
 30
0.0000
  0
SEQEND
  0
POLYLINE
  8
LPF3500_SMT
 66
1
 10
0.0000
 20
0.0000
 30
0.0000
 40
0.0020
 41
0.0020
  0
VERTEX
  8
LPF3500_SMT
 10
3.6646
 20
2.0820
 30
0.0000
  0
VERTEX
  8
LPF3500_SMT
 10
3.6646
 20
1.9160
 30
0.0000
  0
SEQEND
  0
POLYLINE
  8
LPF3500_SMT
 66
1
 10
0.0000
 20
0.0000
 30
0.0000
 40
0.0020
 41
0.0020
  0
VERTEX
  8
LPF3500_SMT
 10
3.6628
 20
2.0820
 30
0.0000
  0
VERTEX
  8
LPF3500_SMT
 10
3.6628
 20
1.9160
 30
0.0000
  0
SEQEND
  0
POLYLINE
  8
LPF3500_SMT
 66
1
 10
0.0000
 20
0.0000
 30
0.0000
 40
0.0020
 41
0.0020
  0
VERTEX
  8
LPF3500_SMT
 10
3.6610
 20
2.0820
 30
0.0000
  0
VERTEX
  8
LPF3500_SMT
 10
3.6610
 20
1.9160
 30
0.0000
  0
SEQEND
  0
POLYLINE
  8
LPF3500_SMT
 66
1
 10
0.0000
 20
0.0000
 30
0.0000
 40
0.0020
 41
0.0020
  0
VERTEX
  8
LPF3500_SMT
 10
3.6592
 20
2.0820
 30
0.0000
  0
VERTEX
  8
LPF3500_SMT
 10
3.6592
 20
1.9160
 30
0.0000
  0
SEQEND
  0
POLYLINE
  8
LPF3500_SMT
 66
1
 10
0.0000
 20
0.0000
 30
0.0000
 40
0.0020
 41
0.0020
  0
VERTEX
  8
LPF3500_SMT
 10
3.6574
 20
2.0820
 30
0.0000
  0
VERTEX
  8
LPF3500_SMT
 10
3.6574
 20
1.9160
 30
0.0000
  0
SEQEND
  0
POLYLINE
  8
LPF3500_SMT
 66
1
 10
0.0000
 20
0.0000
 30
0.0000
 40
0.0020
 41
0.0020
  0
VERTEX
  8
LPF3500_SMT
 10
3.6556
 20
2.0820
 30
0.0000
  0
VERTEX
  8
LPF3500_SMT
 10
3.6556
 20
1.9160
 30
0.0000
  0
SEQEND
  0
POLYLINE
  8
LPF3500_SMT
 66
1
 10
0.0000
 20
0.0000
 30
0.0000
 40
0.0020
 41
0.0020
  0
VERTEX
  8
LPF3500_SMT
 10
3.6538
 20
2.0820
 30
0.0000
  0
VERTEX
  8
LPF3500_SMT
 10
3.6538
 20
1.9160
 30
0.0000
  0
SEQEND
  0
POLYLINE
  8
LPF3500_SMT
 66
1
 10
0.0000
 20
0.0000
 30
0.0000
 40
0.0020
 41
0.0020
  0
VERTEX
  8
LPF3500_SMT
 10
3.6520
 20
2.0820
 30
0.0000
  0
VERTEX
  8
LPF3500_SMT
 10
3.6520
 20
1.9160
 30
0.0000
  0
SEQEND
  0
POLYLINE
  8
LPF3500_SMT
 66
1
 10
0.0000
 20
0.0000
 30
0.0000
 40
0.0020
 41
0.0020
  0
VERTEX
  8
LPF3500_SMT
 10
3.6502
 20
2.0820
 30
0.0000
  0
VERTEX
  8
LPF3500_SMT
 10
3.6502
 20
1.9160
 30
0.0000
  0
SEQEND
  0
POLYLINE
  8
LPF3500_SMT
 66
1
 10
0.0000
 20
0.0000
 30
0.0000
 40
0.0020
 41
0.0020
  0
VERTEX
  8
LPF3500_SMT
 10
3.6484
 20
2.0820
 30
0.0000
  0
VERTEX
  8
LPF3500_SMT
 10
3.6484
 20
1.9160
 30
0.0000
  0
SEQEND
  0
POLYLINE
  8
LPF3500_SMT
 66
1
 10
0.0000
 20
0.0000
 30
0.0000
 40
0.0020
 41
0.0020
  0
VERTEX
  8
LPF3500_SMT
 10
3.6466
 20
2.0820
 30
0.0000
  0
VERTEX
  8
LPF3500_SMT
 10
3.6466
 20
1.9160
 30
0.0000
  0
SEQEND
  0
POLYLINE
  8
LPF3500_SMT
 66
1
 10
0.0000
 20
0.0000
 30
0.0000
 40
0.0020
 41
0.0020
  0
VERTEX
  8
LPF3500_SMT
 10
3.6448
 20
2.0820
 30
0.0000
  0
VERTEX
  8
LPF3500_SMT
 10
3.6448
 20
1.9160
 30
0.0000
  0
SEQEND
  0
POLYLINE
  8
LPF3500_SMT
 66
1
 10
0.0000
 20
0.0000
 30
0.0000
 40
0.0020
 41
0.0020
  0
VERTEX
  8
LPF3500_SMT
 10
3.6430
 20
2.0820
 30
0.0000
  0
VERTEX
  8
LPF3500_SMT
 10
3.6430
 20
1.9160
 30
0.0000
  0
SEQEND
  0
POLYLINE
  8
LPF3500_SMT
 66
1
 10
0.0000
 20
0.0000
 30
0.0000
 40
0.0020
 41
0.0020
  0
VERTEX
  8
LPF3500_SMT
 10
3.6412
 20
2.0820
 30
0.0000
  0
VERTEX
  8
LPF3500_SMT
 10
3.6412
 20
1.9160
 30
0.0000
  0
SEQEND
  0
POLYLINE
  8
LPF3500_SMT
 66
1
 10
0.0000
 20
0.0000
 30
0.0000
 40
0.0020
 41
0.0020
  0
VERTEX
  8
LPF3500_SMT
 10
3.9850
 20
2.0802
 30
0.0000
  0
VERTEX
  8
LPF3500_SMT
 10
3.6390
 20
2.0802
 30
0.0000
  0
SEQEND
  0
POLYLINE
  8
LPF3500_SMT
 66
1
 10
0.0000
 20
0.0000
 30
0.0000
 40
0.0020
 41
0.0020
  0
VERTEX
  8
LPF3500_SMT
 10
3.9850
 20
2.0784
 30
0.0000
  0
VERTEX
  8
LPF3500_SMT
 10
3.6390
 20
2.0784
 30
0.0000
  0
SEQEND
  0
POLYLINE
  8
LPF3500_SMT
 66
1
 10
0.0000
 20
0.0000
 30
0.0000
 40
0.0020
 41
0.0020
  0
VERTEX
  8
LPF3500_SMT
 10
3.9850
 20
2.0766
 30
0.0000
  0
VERTEX
  8
LPF3500_SMT
 10
3.6390
 20
2.0766
 30
0.0000
  0
SEQEND
  0
POLYLINE
  8
LPF3500_SMT
 66
1
 10
0.0000
 20
0.0000
 30
0.0000
 40
0.0020
 41
0.0020
  0
VERTEX
  8
LPF3500_SMT
 10
3.9850
 20
2.0748
 30
0.0000
  0
VERTEX
  8
LPF3500_SMT
 10
3.6390
 20
2.0748
 30
0.0000
  0
SEQEND
  0
POLYLINE
  8
LPF3500_SMT
 66
1
 10
0.0000
 20
0.0000
 30
0.0000
 40
0.0020
 41
0.0020
  0
VERTEX
  8
LPF3500_SMT
 10
3.9850
 20
2.0730
 30
0.0000
  0
VERTEX
  8
LPF3500_SMT
 10
3.6390
 20
2.0730
 30
0.0000
  0
SEQEND
  0
POLYLINE
  8
LPF3500_SMT
 66
1
 10
0.0000
 20
0.0000
 30
0.0000
 40
0.0020
 41
0.0020
  0
VERTEX
  8
LPF3500_SMT
 10
3.9850
 20
2.0712
 30
0.0000
  0
VERTEX
  8
LPF3500_SMT
 10
3.6390
 20
2.0712
 30
0.0000
  0
SEQEND
  0
POLYLINE
  8
LPF3500_SMT
 66
1
 10
0.0000
 20
0.0000
 30
0.0000
 40
0.0020
 41
0.0020
  0
VERTEX
  8
LPF3500_SMT
 10
3.9850
 20
2.0694
 30
0.0000
  0
VERTEX
  8
LPF3500_SMT
 10
3.6390
 20
2.0694
 30
0.0000
  0
SEQEND
  0
POLYLINE
  8
LPF3500_SMT
 66
1
 10
0.0000
 20
0.0000
 30
0.0000
 40
0.0020
 41
0.0020
  0
VERTEX
  8
LPF3500_SMT
 10
3.9850
 20
2.0676
 30
0.0000
  0
VERTEX
  8
LPF3500_SMT
 10
3.6390
 20
2.0676
 30
0.0000
  0
SEQEND
  0
POLYLINE
  8
LPF3500_SMT
 66
1
 10
0.0000
 20
0.0000
 30
0.0000
 40
0.0020
 41
0.0020
  0
VERTEX
  8
LPF3500_SMT
 10
3.9850
 20
2.0658
 30
0.0000
  0
VERTEX
  8
LPF3500_SMT
 10
3.6390
 20
2.0658
 30
0.0000
  0
SEQEND
  0
POLYLINE
  8
LPF3500_SMT
 66
1
 10
0.0000
 20
0.0000
 30
0.0000
 40
0.0020
 41
0.0020
  0
VERTEX
  8
LPF3500_SMT
 10
3.9850
 20
2.0640
 30
0.0000
  0
VERTEX
  8
LPF3500_SMT
 10
3.6390
 20
2.0640
 30
0.0000
  0
SEQEND
  0
POLYLINE
  8
LPF3500_SMT
 66
1
 10
0.0000
 20
0.0000
 30
0.0000
 40
0.0020
 41
0.0020
  0
VERTEX
  8
LPF3500_SMT
 10
3.9850
 20
2.0622
 30
0.0000
  0
VERTEX
  8
LPF3500_SMT
 10
3.6390
 20
2.0622
 30
0.0000
  0
SEQEND
  0
POLYLINE
  8
LPF3500_SMT
 66
1
 10
0.0000
 20
0.0000
 30
0.0000
 40
0.0020
 41
0.0020
  0
VERTEX
  8
LPF3500_SMT
 10
3.9850
 20
2.0604
 30
0.0000
  0
VERTEX
  8
LPF3500_SMT
 10
3.6390
 20
2.0604
 30
0.0000
  0
SEQEND
  0
POLYLINE
  8
LPF3500_SMT
 66
1
 10
0.0000
 20
0.0000
 30
0.0000
 40
0.0020
 41
0.0020
  0
VERTEX
  8
LPF3500_SMT
 10
3.9850
 20
2.0586
 30
0.0000
  0
VERTEX
  8
LPF3500_SMT
 10
3.6390
 20
2.0586
 30
0.0000
  0
SEQEND
  0
POLYLINE
  8
LPF3500_SMT
 66
1
 10
0.0000
 20
0.0000
 30
0.0000
 40
0.0020
 41
0.0020
  0
VERTEX
  8
LPF3500_SMT
 10
3.9850
 20
2.0568
 30
0.0000
  0
VERTEX
  8
LPF3500_SMT
 10
3.6390
 20
2.0568
 30
0.0000
  0
SEQEND
  0
POLYLINE
  8
LPF3500_SMT
 66
1
 10
0.0000
 20
0.0000
 30
0.0000
 40
0.0020
 41
0.0020
  0
VERTEX
  8
LPF3500_SMT
 10
3.9850
 20
2.0550
 30
0.0000
  0
VERTEX
  8
LPF3500_SMT
 10
3.6390
 20
2.0550
 30
0.0000
  0
SEQEND
  0
POLYLINE
  8
LPF3500_SMT
 66
1
 10
0.0000
 20
0.0000
 30
0.0000
 40
0.0020
 41
0.0020
  0
VERTEX
  8
LPF3500_SMT
 10
3.9850
 20
2.0532
 30
0.0000
  0
VERTEX
  8
LPF3500_SMT
 10
3.6390
 20
2.0532
 30
0.0000
  0
SEQEND
  0
POLYLINE
  8
LPF3500_SMT
 66
1
 10
0.0000
 20
0.0000
 30
0.0000
 40
0.0020
 41
0.0020
  0
VERTEX
  8
LPF3500_SMT
 10
3.9850
 20
2.0514
 30
0.0000
  0
VERTEX
  8
LPF3500_SMT
 10
3.6390
 20
2.0514
 30
0.0000
  0
SEQEND
  0
POLYLINE
  8
LPF3500_SMT
 66
1
 10
0.0000
 20
0.0000
 30
0.0000
 40
0.0020
 41
0.0020
  0
VERTEX
  8
LPF3500_SMT
 10
3.9850
 20
2.0496
 30
0.0000
  0
VERTEX
  8
LPF3500_SMT
 10
3.6390
 20
2.0496
 30
0.0000
  0
SEQEND
  0
POLYLINE
  8
LPF3500_SMT
 66
1
 10
0.0000
 20
0.0000
 30
0.0000
 40
0.0020
 41
0.0020
  0
VERTEX
  8
LPF3500_SMT
 10
3.9850
 20
2.0478
 30
0.0000
  0
VERTEX
  8
LPF3500_SMT
 10
3.6390
 20
2.0478
 30
0.0000
  0
SEQEND
  0
POLYLINE
  8
LPF3500_SMT
 66
1
 10
0.0000
 20
0.0000
 30
0.0000
 40
0.0020
 41
0.0020
  0
VERTEX
  8
LPF3500_SMT
 10
3.9850
 20
2.0460
 30
0.0000
  0
VERTEX
  8
LPF3500_SMT
 10
3.6390
 20
2.0460
 30
0.0000
  0
SEQEND
  0
POLYLINE
  8
LPF3500_SMT
 66
1
 10
0.0000
 20
0.0000
 30
0.0000
 40
0.0020
 41
0.0020
  0
VERTEX
  8
LPF3500_SMT
 10
3.9850
 20
2.0442
 30
0.0000
  0
VERTEX
  8
LPF3500_SMT
 10
3.6390
 20
2.0442
 30
0.0000
  0
SEQEND
  0
POLYLINE
  8
LPF3500_SMT
 66
1
 10
0.0000
 20
0.0000
 30
0.0000
 40
0.0020
 41
0.0020
  0
VERTEX
  8
LPF3500_SMT
 10
3.9850
 20
2.0424
 30
0.0000
  0
VERTEX
  8
LPF3500_SMT
 10
3.6390
 20
2.0424
 30
0.0000
  0
SEQEND
  0
POLYLINE
  8
LPF3500_SMT
 66
1
 10
0.0000
 20
0.0000
 30
0.0000
 40
0.0020
 41
0.0020
  0
VERTEX
  8
LPF3500_SMT
 10
3.9850
 20
2.0406
 30
0.0000
  0
VERTEX
  8
LPF3500_SMT
 10
3.6390
 20
2.0406
 30
0.0000
  0
SEQEND
  0
POLYLINE
  8
LPF3500_SMT
 66
1
 10
0.0000
 20
0.0000
 30
0.0000
 40
0.0020
 41
0.0020
  0
VERTEX
  8
LPF3500_SMT
 10
3.9850
 20
2.0388
 30
0.0000
  0
VERTEX
  8
LPF3500_SMT
 10
3.6390
 20
2.0388
 30
0.0000
  0
SEQEND
  0
POLYLINE
  8
LPF3500_SMT
 66
1
 10
0.0000
 20
0.0000
 30
0.0000
 40
0.0020
 41
0.0020
  0
VERTEX
  8
LPF3500_SMT
 10
3.9850
 20
2.0370
 30
0.0000
  0
VERTEX
  8
LPF3500_SMT
 10
3.6390
 20
2.0370
 30
0.0000
  0
SEQEND
  0
POLYLINE
  8
LPF3500_SMT
 66
1
 10
0.0000
 20
0.0000
 30
0.0000
 40
0.0020
 41
0.0020
  0
VERTEX
  8
LPF3500_SMT
 10
3.9850
 20
2.0352
 30
0.0000
  0
VERTEX
  8
LPF3500_SMT
 10
3.6390
 20
2.0352
 30
0.0000
  0
SEQEND
  0
POLYLINE
  8
LPF3500_SMT
 66
1
 10
0.0000
 20
0.0000
 30
0.0000
 40
0.0020
 41
0.0020
  0
VERTEX
  8
LPF3500_SMT
 10
3.9850
 20
2.0334
 30
0.0000
  0
VERTEX
  8
LPF3500_SMT
 10
3.6390
 20
2.0334
 30
0.0000
  0
SEQEND
  0
POLYLINE
  8
LPF3500_SMT
 66
1
 10
0.0000
 20
0.0000
 30
0.0000
 40
0.0020
 41
0.0020
  0
VERTEX
  8
LPF3500_SMT
 10
3.9850
 20
2.0316
 30
0.0000
  0
VERTEX
  8
LPF3500_SMT
 10
3.6390
 20
2.0316
 30
0.0000
  0
SEQEND
  0
POLYLINE
  8
LPF3500_SMT
 66
1
 10
0.0000
 20
0.0000
 30
0.0000
 40
0.0020
 41
0.0020
  0
VERTEX
  8
LPF3500_SMT
 10
3.9850
 20
2.0298
 30
0.0000
  0
VERTEX
  8
LPF3500_SMT
 10
3.6390
 20
2.0298
 30
0.0000
  0
SEQEND
  0
POLYLINE
  8
LPF3500_SMT
 66
1
 10
0.0000
 20
0.0000
 30
0.0000
 40
0.0020
 41
0.0020
  0
VERTEX
  8
LPF3500_SMT
 10
3.9850
 20
2.0280
 30
0.0000
  0
VERTEX
  8
LPF3500_SMT
 10
3.6390
 20
2.0280
 30
0.0000
  0
SEQEND
  0
POLYLINE
  8
LPF3500_SMT
 66
1
 10
0.0000
 20
0.0000
 30
0.0000
 40
0.0020
 41
0.0020
  0
VERTEX
  8
LPF3500_SMT
 10
3.9850
 20
2.0262
 30
0.0000
  0
VERTEX
  8
LPF3500_SMT
 10
3.6390
 20
2.0262
 30
0.0000
  0
SEQEND
  0
POLYLINE
  8
LPF3500_SMT
 66
1
 10
0.0000
 20
0.0000
 30
0.0000
 40
0.0020
 41
0.0020
  0
VERTEX
  8
LPF3500_SMT
 10
3.9850
 20
2.0244
 30
0.0000
  0
VERTEX
  8
LPF3500_SMT
 10
3.6390
 20
2.0244
 30
0.0000
  0
SEQEND
  0
POLYLINE
  8
LPF3500_SMT
 66
1
 10
0.0000
 20
0.0000
 30
0.0000
 40
0.0020
 41
0.0020
  0
VERTEX
  8
LPF3500_SMT
 10
3.9850
 20
2.0226
 30
0.0000
  0
VERTEX
  8
LPF3500_SMT
 10
3.6390
 20
2.0226
 30
0.0000
  0
SEQEND
  0
POLYLINE
  8
LPF3500_SMT
 66
1
 10
0.0000
 20
0.0000
 30
0.0000
 40
0.0020
 41
0.0020
  0
VERTEX
  8
LPF3500_SMT
 10
3.9850
 20
2.0208
 30
0.0000
  0
VERTEX
  8
LPF3500_SMT
 10
3.6390
 20
2.0208
 30
0.0000
  0
SEQEND
  0
POLYLINE
  8
LPF3500_SMT
 66
1
 10
0.0000
 20
0.0000
 30
0.0000
 40
0.0020
 41
0.0020
  0
VERTEX
  8
LPF3500_SMT
 10
3.9850
 20
2.0190
 30
0.0000
  0
VERTEX
  8
LPF3500_SMT
 10
3.6390
 20
2.0190
 30
0.0000
  0
SEQEND
  0
POLYLINE
  8
LPF3500_SMT
 66
1
 10
0.0000
 20
0.0000
 30
0.0000
 40
0.0020
 41
0.0020
  0
VERTEX
  8
LPF3500_SMT
 10
3.9850
 20
2.0172
 30
0.0000
  0
VERTEX
  8
LPF3500_SMT
 10
3.6390
 20
2.0172
 30
0.0000
  0
SEQEND
  0
POLYLINE
  8
LPF3500_SMT
 66
1
 10
0.0000
 20
0.0000
 30
0.0000
 40
0.0020
 41
0.0020
  0
VERTEX
  8
LPF3500_SMT
 10
3.9850
 20
2.0154
 30
0.0000
  0
VERTEX
  8
LPF3500_SMT
 10
3.6390
 20
2.0154
 30
0.0000
  0
SEQEND
  0
POLYLINE
  8
LPF3500_SMT
 66
1
 10
0.0000
 20
0.0000
 30
0.0000
 40
0.0020
 41
0.0020
  0
VERTEX
  8
LPF3500_SMT
 10
3.9850
 20
2.0136
 30
0.0000
  0
VERTEX
  8
LPF3500_SMT
 10
3.6390
 20
2.0136
 30
0.0000
  0
SEQEND
  0
POLYLINE
  8
LPF3500_SMT
 66
1
 10
0.0000
 20
0.0000
 30
0.0000
 40
0.0020
 41
0.0020
  0
VERTEX
  8
LPF3500_SMT
 10
3.9850
 20
2.0118
 30
0.0000
  0
VERTEX
  8
LPF3500_SMT
 10
3.6390
 20
2.0118
 30
0.0000
  0
SEQEND
  0
POLYLINE
  8
LPF3500_SMT
 66
1
 10
0.0000
 20
0.0000
 30
0.0000
 40
0.0020
 41
0.0020
  0
VERTEX
  8
LPF3500_SMT
 10
3.9850
 20
2.0100
 30
0.0000
  0
VERTEX
  8
LPF3500_SMT
 10
3.6390
 20
2.0100
 30
0.0000
  0
SEQEND
  0
POLYLINE
  8
LPF3500_SMT
 66
1
 10
0.0000
 20
0.0000
 30
0.0000
 40
0.0020
 41
0.0020
  0
VERTEX
  8
LPF3500_SMT
 10
3.9850
 20
2.0082
 30
0.0000
  0
VERTEX
  8
LPF3500_SMT
 10
3.6390
 20
2.0082
 30
0.0000
  0
SEQEND
  0
POLYLINE
  8
LPF3500_SMT
 66
1
 10
0.0000
 20
0.0000
 30
0.0000
 40
0.0020
 41
0.0020
  0
VERTEX
  8
LPF3500_SMT
 10
3.9850
 20
2.0064
 30
0.0000
  0
VERTEX
  8
LPF3500_SMT
 10
3.6390
 20
2.0064
 30
0.0000
  0
SEQEND
  0
POLYLINE
  8
LPF3500_SMT
 66
1
 10
0.0000
 20
0.0000
 30
0.0000
 40
0.0020
 41
0.0020
  0
VERTEX
  8
LPF3500_SMT
 10
3.9850
 20
2.0046
 30
0.0000
  0
VERTEX
  8
LPF3500_SMT
 10
3.6390
 20
2.0046
 30
0.0000
  0
SEQEND
  0
POLYLINE
  8
LPF3500_SMT
 66
1
 10
0.0000
 20
0.0000
 30
0.0000
 40
0.0020
 41
0.0020
  0
VERTEX
  8
LPF3500_SMT
 10
3.9850
 20
2.0028
 30
0.0000
  0
VERTEX
  8
LPF3500_SMT
 10
3.6390
 20
2.0028
 30
0.0000
  0
SEQEND
  0
POLYLINE
  8
LPF3500_SMT
 66
1
 10
0.0000
 20
0.0000
 30
0.0000
 40
0.0020
 41
0.0020
  0
VERTEX
  8
LPF3500_SMT
 10
3.9850
 20
2.0010
 30
0.0000
  0
VERTEX
  8
LPF3500_SMT
 10
3.6390
 20
2.0010
 30
0.0000
  0
SEQEND
  0
POLYLINE
  8
LPF3500_SMT
 66
1
 10
0.0000
 20
0.0000
 30
0.0000
 40
0.0020
 41
0.0020
  0
VERTEX
  8
LPF3500_SMT
 10
3.9850
 20
1.9992
 30
0.0000
  0
VERTEX
  8
LPF3500_SMT
 10
3.6390
 20
1.9992
 30
0.0000
  0
SEQEND
  0
POLYLINE
  8
LPF3500_SMT
 66
1
 10
0.0000
 20
0.0000
 30
0.0000
 40
0.0020
 41
0.0020
  0
VERTEX
  8
LPF3500_SMT
 10
3.9850
 20
1.9974
 30
0.0000
  0
VERTEX
  8
LPF3500_SMT
 10
3.6390
 20
1.9974
 30
0.0000
  0
SEQEND
  0
POLYLINE
  8
LPF3500_SMT
 66
1
 10
0.0000
 20
0.0000
 30
0.0000
 40
0.0020
 41
0.0020
  0
VERTEX
  8
LPF3500_SMT
 10
3.9850
 20
1.9956
 30
0.0000
  0
VERTEX
  8
LPF3500_SMT
 10
3.6390
 20
1.9956
 30
0.0000
  0
SEQEND
  0
POLYLINE
  8
LPF3500_SMT
 66
1
 10
0.0000
 20
0.0000
 30
0.0000
 40
0.0020
 41
0.0020
  0
VERTEX
  8
LPF3500_SMT
 10
3.9850
 20
1.9938
 30
0.0000
  0
VERTEX
  8
LPF3500_SMT
 10
3.6390
 20
1.9938
 30
0.0000
  0
SEQEND
  0
POLYLINE
  8
LPF3500_SMT
 66
1
 10
0.0000
 20
0.0000
 30
0.0000
 40
0.0020
 41
0.0020
  0
VERTEX
  8
LPF3500_SMT
 10
3.9850
 20
1.9920
 30
0.0000
  0
VERTEX
  8
LPF3500_SMT
 10
3.6390
 20
1.9920
 30
0.0000
  0
SEQEND
  0
POLYLINE
  8
LPF3500_SMT
 66
1
 10
0.0000
 20
0.0000
 30
0.0000
 40
0.0020
 41
0.0020
  0
VERTEX
  8
LPF3500_SMT
 10
3.9850
 20
1.9902
 30
0.0000
  0
VERTEX
  8
LPF3500_SMT
 10
3.6390
 20
1.9902
 30
0.0000
  0
SEQEND
  0
POLYLINE
  8
LPF3500_SMT
 66
1
 10
0.0000
 20
0.0000
 30
0.0000
 40
0.0020
 41
0.0020
  0
VERTEX
  8
LPF3500_SMT
 10
3.9850
 20
1.9884
 30
0.0000
  0
VERTEX
  8
LPF3500_SMT
 10
3.6390
 20
1.9884
 30
0.0000
  0
SEQEND
  0
POLYLINE
  8
LPF3500_SMT
 66
1
 10
0.0000
 20
0.0000
 30
0.0000
 40
0.0020
 41
0.0020
  0
VERTEX
  8
LPF3500_SMT
 10
3.9850
 20
1.9866
 30
0.0000
  0
VERTEX
  8
LPF3500_SMT
 10
3.6390
 20
1.9866
 30
0.0000
  0
SEQEND
  0
POLYLINE
  8
LPF3500_SMT
 66
1
 10
0.0000
 20
0.0000
 30
0.0000
 40
0.0020
 41
0.0020
  0
VERTEX
  8
LPF3500_SMT
 10
3.9850
 20
1.9848
 30
0.0000
  0
VERTEX
  8
LPF3500_SMT
 10
3.6390
 20
1.9848
 30
0.0000
  0
SEQEND
  0
POLYLINE
  8
LPF3500_SMT
 66
1
 10
0.0000
 20
0.0000
 30
0.0000
 40
0.0020
 41
0.0020
  0
VERTEX
  8
LPF3500_SMT
 10
3.9850
 20
1.9830
 30
0.0000
  0
VERTEX
  8
LPF3500_SMT
 10
3.6390
 20
1.9830
 30
0.0000
  0
SEQEND
  0
POLYLINE
  8
LPF3500_SMT
 66
1
 10
0.0000
 20
0.0000
 30
0.0000
 40
0.0020
 41
0.0020
  0
VERTEX
  8
LPF3500_SMT
 10
3.9850
 20
1.9812
 30
0.0000
  0
VERTEX
  8
LPF3500_SMT
 10
3.6390
 20
1.9812
 30
0.0000
  0
SEQEND
  0
POLYLINE
  8
LPF3500_SMT
 66
1
 10
0.0000
 20
0.0000
 30
0.0000
 40
0.0020
 41
0.0020
  0
VERTEX
  8
LPF3500_SMT
 10
3.9850
 20
1.9794
 30
0.0000
  0
VERTEX
  8
LPF3500_SMT
 10
3.6390
 20
1.9794
 30
0.0000
  0
SEQEND
  0
POLYLINE
  8
LPF3500_SMT
 66
1
 10
0.0000
 20
0.0000
 30
0.0000
 40
0.0020
 41
0.0020
  0
VERTEX
  8
LPF3500_SMT
 10
3.9850
 20
1.9776
 30
0.0000
  0
VERTEX
  8
LPF3500_SMT
 10
3.6390
 20
1.9776
 30
0.0000
  0
SEQEND
  0
POLYLINE
  8
LPF3500_SMT
 66
1
 10
0.0000
 20
0.0000
 30
0.0000
 40
0.0020
 41
0.0020
  0
VERTEX
  8
LPF3500_SMT
 10
3.9850
 20
1.9758
 30
0.0000
  0
VERTEX
  8
LPF3500_SMT
 10
3.6390
 20
1.9758
 30
0.0000
  0
SEQEND
  0
POLYLINE
  8
LPF3500_SMT
 66
1
 10
0.0000
 20
0.0000
 30
0.0000
 40
0.0020
 41
0.0020
  0
VERTEX
  8
LPF3500_SMT
 10
3.9850
 20
1.9740
 30
0.0000
  0
VERTEX
  8
LPF3500_SMT
 10
3.6390
 20
1.9740
 30
0.0000
  0
SEQEND
  0
POLYLINE
  8
LPF3500_SMT
 66
1
 10
0.0000
 20
0.0000
 30
0.0000
 40
0.0020
 41
0.0020
  0
VERTEX
  8
LPF3500_SMT
 10
3.9850
 20
1.9722
 30
0.0000
  0
VERTEX
  8
LPF3500_SMT
 10
3.6390
 20
1.9722
 30
0.0000
  0
SEQEND
  0
POLYLINE
  8
LPF3500_SMT
 66
1
 10
0.0000
 20
0.0000
 30
0.0000
 40
0.0020
 41
0.0020
  0
VERTEX
  8
LPF3500_SMT
 10
3.9850
 20
1.9704
 30
0.0000
  0
VERTEX
  8
LPF3500_SMT
 10
3.6390
 20
1.9704
 30
0.0000
  0
SEQEND
  0
POLYLINE
  8
LPF3500_SMT
 66
1
 10
0.0000
 20
0.0000
 30
0.0000
 40
0.0020
 41
0.0020
  0
VERTEX
  8
LPF3500_SMT
 10
3.9850
 20
1.9686
 30
0.0000
  0
VERTEX
  8
LPF3500_SMT
 10
3.6390
 20
1.9686
 30
0.0000
  0
SEQEND
  0
POLYLINE
  8
LPF3500_SMT
 66
1
 10
0.0000
 20
0.0000
 30
0.0000
 40
0.0020
 41
0.0020
  0
VERTEX
  8
LPF3500_SMT
 10
3.9850
 20
1.9668
 30
0.0000
  0
VERTEX
  8
LPF3500_SMT
 10
3.6390
 20
1.9668
 30
0.0000
  0
SEQEND
  0
POLYLINE
  8
LPF3500_SMT
 66
1
 10
0.0000
 20
0.0000
 30
0.0000
 40
0.0020
 41
0.0020
  0
VERTEX
  8
LPF3500_SMT
 10
3.9850
 20
1.9650
 30
0.0000
  0
VERTEX
  8
LPF3500_SMT
 10
3.6390
 20
1.9650
 30
0.0000
  0
SEQEND
  0
POLYLINE
  8
LPF3500_SMT
 66
1
 10
0.0000
 20
0.0000
 30
0.0000
 40
0.0020
 41
0.0020
  0
VERTEX
  8
LPF3500_SMT
 10
3.9850
 20
1.9632
 30
0.0000
  0
VERTEX
  8
LPF3500_SMT
 10
3.6390
 20
1.9632
 30
0.0000
  0
SEQEND
  0
POLYLINE
  8
LPF3500_SMT
 66
1
 10
0.0000
 20
0.0000
 30
0.0000
 40
0.0020
 41
0.0020
  0
VERTEX
  8
LPF3500_SMT
 10
3.9850
 20
1.9614
 30
0.0000
  0
VERTEX
  8
LPF3500_SMT
 10
3.6390
 20
1.9614
 30
0.0000
  0
SEQEND
  0
POLYLINE
  8
LPF3500_SMT
 66
1
 10
0.0000
 20
0.0000
 30
0.0000
 40
0.0020
 41
0.0020
  0
VERTEX
  8
LPF3500_SMT
 10
3.9850
 20
1.9596
 30
0.0000
  0
VERTEX
  8
LPF3500_SMT
 10
3.6390
 20
1.9596
 30
0.0000
  0
SEQEND
  0
POLYLINE
  8
LPF3500_SMT
 66
1
 10
0.0000
 20
0.0000
 30
0.0000
 40
0.0020
 41
0.0020
  0
VERTEX
  8
LPF3500_SMT
 10
3.9850
 20
1.9578
 30
0.0000
  0
VERTEX
  8
LPF3500_SMT
 10
3.6390
 20
1.9578
 30
0.0000
  0
SEQEND
  0
POLYLINE
  8
LPF3500_SMT
 66
1
 10
0.0000
 20
0.0000
 30
0.0000
 40
0.0020
 41
0.0020
  0
VERTEX
  8
LPF3500_SMT
 10
3.9850
 20
1.9560
 30
0.0000
  0
VERTEX
  8
LPF3500_SMT
 10
3.6390
 20
1.9560
 30
0.0000
  0
SEQEND
  0
POLYLINE
  8
LPF3500_SMT
 66
1
 10
0.0000
 20
0.0000
 30
0.0000
 40
0.0020
 41
0.0020
  0
VERTEX
  8
LPF3500_SMT
 10
3.9850
 20
1.9542
 30
0.0000
  0
VERTEX
  8
LPF3500_SMT
 10
3.6390
 20
1.9542
 30
0.0000
  0
SEQEND
  0
POLYLINE
  8
LPF3500_SMT
 66
1
 10
0.0000
 20
0.0000
 30
0.0000
 40
0.0020
 41
0.0020
  0
VERTEX
  8
LPF3500_SMT
 10
3.9850
 20
1.9524
 30
0.0000
  0
VERTEX
  8
LPF3500_SMT
 10
3.6390
 20
1.9524
 30
0.0000
  0
SEQEND
  0
POLYLINE
  8
LPF3500_SMT
 66
1
 10
0.0000
 20
0.0000
 30
0.0000
 40
0.0020
 41
0.0020
  0
VERTEX
  8
LPF3500_SMT
 10
3.9850
 20
1.9506
 30
0.0000
  0
VERTEX
  8
LPF3500_SMT
 10
3.6390
 20
1.9506
 30
0.0000
  0
SEQEND
  0
POLYLINE
  8
LPF3500_SMT
 66
1
 10
0.0000
 20
0.0000
 30
0.0000
 40
0.0020
 41
0.0020
  0
VERTEX
  8
LPF3500_SMT
 10
3.9850
 20
1.9488
 30
0.0000
  0
VERTEX
  8
LPF3500_SMT
 10
3.6390
 20
1.9488
 30
0.0000
  0
SEQEND
  0
POLYLINE
  8
LPF3500_SMT
 66
1
 10
0.0000
 20
0.0000
 30
0.0000
 40
0.0020
 41
0.0020
  0
VERTEX
  8
LPF3500_SMT
 10
3.9850
 20
1.9470
 30
0.0000
  0
VERTEX
  8
LPF3500_SMT
 10
3.6390
 20
1.9470
 30
0.0000
  0
SEQEND
  0
POLYLINE
  8
LPF3500_SMT
 66
1
 10
0.0000
 20
0.0000
 30
0.0000
 40
0.0020
 41
0.0020
  0
VERTEX
  8
LPF3500_SMT
 10
3.9850
 20
1.9452
 30
0.0000
  0
VERTEX
  8
LPF3500_SMT
 10
3.6390
 20
1.9452
 30
0.0000
  0
SEQEND
  0
POLYLINE
  8
LPF3500_SMT
 66
1
 10
0.0000
 20
0.0000
 30
0.0000
 40
0.0020
 41
0.0020
  0
VERTEX
  8
LPF3500_SMT
 10
3.9850
 20
1.9434
 30
0.0000
  0
VERTEX
  8
LPF3500_SMT
 10
3.6390
 20
1.9434
 30
0.0000
  0
SEQEND
  0
POLYLINE
  8
LPF3500_SMT
 66
1
 10
0.0000
 20
0.0000
 30
0.0000
 40
0.0020
 41
0.0020
  0
VERTEX
  8
LPF3500_SMT
 10
3.9850
 20
1.9416
 30
0.0000
  0
VERTEX
  8
LPF3500_SMT
 10
3.6390
 20
1.9416
 30
0.0000
  0
SEQEND
  0
POLYLINE
  8
LPF3500_SMT
 66
1
 10
0.0000
 20
0.0000
 30
0.0000
 40
0.0020
 41
0.0020
  0
VERTEX
  8
LPF3500_SMT
 10
3.9850
 20
1.9398
 30
0.0000
  0
VERTEX
  8
LPF3500_SMT
 10
3.6390
 20
1.9398
 30
0.0000
  0
SEQEND
  0
POLYLINE
  8
LPF3500_SMT
 66
1
 10
0.0000
 20
0.0000
 30
0.0000
 40
0.0020
 41
0.0020
  0
VERTEX
  8
LPF3500_SMT
 10
3.9850
 20
1.9380
 30
0.0000
  0
VERTEX
  8
LPF3500_SMT
 10
3.6390
 20
1.9380
 30
0.0000
  0
SEQEND
  0
POLYLINE
  8
LPF3500_SMT
 66
1
 10
0.0000
 20
0.0000
 30
0.0000
 40
0.0020
 41
0.0020
  0
VERTEX
  8
LPF3500_SMT
 10
3.9850
 20
1.9362
 30
0.0000
  0
VERTEX
  8
LPF3500_SMT
 10
3.6390
 20
1.9362
 30
0.0000
  0
SEQEND
  0
POLYLINE
  8
LPF3500_SMT
 66
1
 10
0.0000
 20
0.0000
 30
0.0000
 40
0.0020
 41
0.0020
  0
VERTEX
  8
LPF3500_SMT
 10
3.9850
 20
1.9344
 30
0.0000
  0
VERTEX
  8
LPF3500_SMT
 10
3.6390
 20
1.9344
 30
0.0000
  0
SEQEND
  0
POLYLINE
  8
LPF3500_SMT
 66
1
 10
0.0000
 20
0.0000
 30
0.0000
 40
0.0020
 41
0.0020
  0
VERTEX
  8
LPF3500_SMT
 10
3.9850
 20
1.9326
 30
0.0000
  0
VERTEX
  8
LPF3500_SMT
 10
3.6390
 20
1.9326
 30
0.0000
  0
SEQEND
  0
POLYLINE
  8
LPF3500_SMT
 66
1
 10
0.0000
 20
0.0000
 30
0.0000
 40
0.0020
 41
0.0020
  0
VERTEX
  8
LPF3500_SMT
 10
3.9850
 20
1.9308
 30
0.0000
  0
VERTEX
  8
LPF3500_SMT
 10
3.6390
 20
1.9308
 30
0.0000
  0
SEQEND
  0
POLYLINE
  8
LPF3500_SMT
 66
1
 10
0.0000
 20
0.0000
 30
0.0000
 40
0.0020
 41
0.0020
  0
VERTEX
  8
LPF3500_SMT
 10
3.9850
 20
1.9290
 30
0.0000
  0
VERTEX
  8
LPF3500_SMT
 10
3.6390
 20
1.9290
 30
0.0000
  0
SEQEND
  0
POLYLINE
  8
LPF3500_SMT
 66
1
 10
0.0000
 20
0.0000
 30
0.0000
 40
0.0020
 41
0.0020
  0
VERTEX
  8
LPF3500_SMT
 10
3.9850
 20
1.9272
 30
0.0000
  0
VERTEX
  8
LPF3500_SMT
 10
3.6390
 20
1.9272
 30
0.0000
  0
SEQEND
  0
POLYLINE
  8
LPF3500_SMT
 66
1
 10
0.0000
 20
0.0000
 30
0.0000
 40
0.0020
 41
0.0020
  0
VERTEX
  8
LPF3500_SMT
 10
3.9850
 20
1.9254
 30
0.0000
  0
VERTEX
  8
LPF3500_SMT
 10
3.6390
 20
1.9254
 30
0.0000
  0
SEQEND
  0
POLYLINE
  8
LPF3500_SMT
 66
1
 10
0.0000
 20
0.0000
 30
0.0000
 40
0.0020
 41
0.0020
  0
VERTEX
  8
LPF3500_SMT
 10
3.9850
 20
1.9236
 30
0.0000
  0
VERTEX
  8
LPF3500_SMT
 10
3.6390
 20
1.9236
 30
0.0000
  0
SEQEND
  0
POLYLINE
  8
LPF3500_SMT
 66
1
 10
0.0000
 20
0.0000
 30
0.0000
 40
0.0020
 41
0.0020
  0
VERTEX
  8
LPF3500_SMT
 10
3.9850
 20
1.9218
 30
0.0000
  0
VERTEX
  8
LPF3500_SMT
 10
3.6390
 20
1.9218
 30
0.0000
  0
SEQEND
  0
POLYLINE
  8
LPF3500_SMT
 66
1
 10
0.0000
 20
0.0000
 30
0.0000
 40
0.0020
 41
0.0020
  0
VERTEX
  8
LPF3500_SMT
 10
3.9850
 20
1.9200
 30
0.0000
  0
VERTEX
  8
LPF3500_SMT
 10
3.6390
 20
1.9200
 30
0.0000
  0
SEQEND
  0
POLYLINE
  8
LPF3500_SMT
 66
1
 10
0.0000
 20
0.0000
 30
0.0000
 40
0.0020
 41
0.0020
  0
VERTEX
  8
LPF3500_SMT
 10
3.9850
 20
1.9182
 30
0.0000
  0
VERTEX
  8
LPF3500_SMT
 10
3.6390
 20
1.9182
 30
0.0000
  0
SEQEND
  0
POLYLINE
  8
LPF3500_SMT
 66
1
 10
0.0000
 20
0.0000
 30
0.0000
 40
0.0020
 41
0.0020
  0
VERTEX
  8
LPF3500_SMT
 10
0.0150
 20
9.3260
 30
0.0000
  0
VERTEX
  8
LPF3500_SMT
 10
0.0150
 20
9.1600
 30
0.0000
  0
SEQEND
  0
POLYLINE
  8
LPF3500_SMT
 66
1
 10
0.0000
 20
0.0000
 30
0.0000
 40
0.0020
 41
0.0020
  0
VERTEX
  8
LPF3500_SMT
 10
0.3630
 20
9.1600
 30
0.0000
  0
VERTEX
  8
LPF3500_SMT
 10
0.0150
 20
9.1600
 30
0.0000
  0
SEQEND
  0
POLYLINE
  8
LPF3500_SMT
 66
1
 10
0.0000
 20
0.0000
 30
0.0000
 40
0.0020
 41
0.0020
  0
VERTEX
  8
LPF3500_SMT
 10
0.3630
 20
9.3260
 30
0.0000
  0
VERTEX
  8
LPF3500_SMT
 10
0.3630
 20
9.1600
 30
0.0000
  0
SEQEND
  0
POLYLINE
  8
LPF3500_SMT
 66
1
 10
0.0000
 20
0.0000
 30
0.0000
 40
0.0020
 41
0.0020
  0
VERTEX
  8
LPF3500_SMT
 10
0.3630
 20
9.3260
 30
0.0000
  0
VERTEX
  8
LPF3500_SMT
 10
0.0150
 20
9.3260
 30
0.0000
  0
SEQEND
  0
POLYLINE
  8
LPF3500_SMT
 66
1
 10
0.0000
 20
0.0000
 30
0.0000
 40
0.0020
 41
0.0020
  0
VERTEX
  8
LPF3500_SMT
 10
0.3610
 20
9.3260
 30
0.0000
  0
VERTEX
  8
LPF3500_SMT
 10
0.3610
 20
9.1600
 30
0.0000
  0
SEQEND
  0
POLYLINE
  8
LPF3500_SMT
 66
1
 10
0.0000
 20
0.0000
 30
0.0000
 40
0.0020
 41
0.0020
  0
VERTEX
  8
LPF3500_SMT
 10
0.3592
 20
9.3260
 30
0.0000
  0
VERTEX
  8
LPF3500_SMT
 10
0.3592
 20
9.1600
 30
0.0000
  0
SEQEND
  0
POLYLINE
  8
LPF3500_SMT
 66
1
 10
0.0000
 20
0.0000
 30
0.0000
 40
0.0020
 41
0.0020
  0
VERTEX
  8
LPF3500_SMT
 10
0.3574
 20
9.3260
 30
0.0000
  0
VERTEX
  8
LPF3500_SMT
 10
0.3574
 20
9.1600
 30
0.0000
  0
SEQEND
  0
POLYLINE
  8
LPF3500_SMT
 66
1
 10
0.0000
 20
0.0000
 30
0.0000
 40
0.0020
 41
0.0020
  0
VERTEX
  8
LPF3500_SMT
 10
0.3556
 20
9.3260
 30
0.0000
  0
VERTEX
  8
LPF3500_SMT
 10
0.3556
 20
9.1600
 30
0.0000
  0
SEQEND
  0
POLYLINE
  8
LPF3500_SMT
 66
1
 10
0.0000
 20
0.0000
 30
0.0000
 40
0.0020
 41
0.0020
  0
VERTEX
  8
LPF3500_SMT
 10
0.3538
 20
9.3260
 30
0.0000
  0
VERTEX
  8
LPF3500_SMT
 10
0.3538
 20
9.1600
 30
0.0000
  0
SEQEND
  0
POLYLINE
  8
LPF3500_SMT
 66
1
 10
0.0000
 20
0.0000
 30
0.0000
 40
0.0020
 41
0.0020
  0
VERTEX
  8
LPF3500_SMT
 10
0.3520
 20
9.3260
 30
0.0000
  0
VERTEX
  8
LPF3500_SMT
 10
0.3520
 20
9.1600
 30
0.0000
  0
SEQEND
  0
POLYLINE
  8
LPF3500_SMT
 66
1
 10
0.0000
 20
0.0000
 30
0.0000
 40
0.0020
 41
0.0020
  0
VERTEX
  8
LPF3500_SMT
 10
0.3502
 20
9.3260
 30
0.0000
  0
VERTEX
  8
LPF3500_SMT
 10
0.3502
 20
9.1600
 30
0.0000
  0
SEQEND
  0
POLYLINE
  8
LPF3500_SMT
 66
1
 10
0.0000
 20
0.0000
 30
0.0000
 40
0.0020
 41
0.0020
  0
VERTEX
  8
LPF3500_SMT
 10
0.3484
 20
9.3260
 30
0.0000
  0
VERTEX
  8
LPF3500_SMT
 10
0.3484
 20
9.1600
 30
0.0000
  0
SEQEND
  0
POLYLINE
  8
LPF3500_SMT
 66
1
 10
0.0000
 20
0.0000
 30
0.0000
 40
0.0020
 41
0.0020
  0
VERTEX
  8
LPF3500_SMT
 10
0.3466
 20
9.3260
 30
0.0000
  0
VERTEX
  8
LPF3500_SMT
 10
0.3466
 20
9.1600
 30
0.0000
  0
SEQEND
  0
POLYLINE
  8
LPF3500_SMT
 66
1
 10
0.0000
 20
0.0000
 30
0.0000
 40
0.0020
 41
0.0020
  0
VERTEX
  8
LPF3500_SMT
 10
0.3448
 20
9.3260
 30
0.0000
  0
VERTEX
  8
LPF3500_SMT
 10
0.3448
 20
9.1600
 30
0.0000
  0
SEQEND
  0
POLYLINE
  8
LPF3500_SMT
 66
1
 10
0.0000
 20
0.0000
 30
0.0000
 40
0.0020
 41
0.0020
  0
VERTEX
  8
LPF3500_SMT
 10
0.3430
 20
9.3260
 30
0.0000
  0
VERTEX
  8
LPF3500_SMT
 10
0.3430
 20
9.1600
 30
0.0000
  0
SEQEND
  0
POLYLINE
  8
LPF3500_SMT
 66
1
 10
0.0000
 20
0.0000
 30
0.0000
 40
0.0020
 41
0.0020
  0
VERTEX
  8
LPF3500_SMT
 10
0.3412
 20
9.3260
 30
0.0000
  0
VERTEX
  8
LPF3500_SMT
 10
0.3412
 20
9.1600
 30
0.0000
  0
SEQEND
  0
POLYLINE
  8
LPF3500_SMT
 66
1
 10
0.0000
 20
0.0000
 30
0.0000
 40
0.0020
 41
0.0020
  0
VERTEX
  8
LPF3500_SMT
 10
0.3394
 20
9.3260
 30
0.0000
  0
VERTEX
  8
LPF3500_SMT
 10
0.3394
 20
9.1600
 30
0.0000
  0
SEQEND
  0
POLYLINE
  8
LPF3500_SMT
 66
1
 10
0.0000
 20
0.0000
 30
0.0000
 40
0.0020
 41
0.0020
  0
VERTEX
  8
LPF3500_SMT
 10
0.3376
 20
9.3260
 30
0.0000
  0
VERTEX
  8
LPF3500_SMT
 10
0.3376
 20
9.1600
 30
0.0000
  0
SEQEND
  0
POLYLINE
  8
LPF3500_SMT
 66
1
 10
0.0000
 20
0.0000
 30
0.0000
 40
0.0020
 41
0.0020
  0
VERTEX
  8
LPF3500_SMT
 10
0.3358
 20
9.3260
 30
0.0000
  0
VERTEX
  8
LPF3500_SMT
 10
0.3358
 20
9.1600
 30
0.0000
  0
SEQEND
  0
POLYLINE
  8
LPF3500_SMT
 66
1
 10
0.0000
 20
0.0000
 30
0.0000
 40
0.0020
 41
0.0020
  0
VERTEX
  8
LPF3500_SMT
 10
0.3340
 20
9.3260
 30
0.0000
  0
VERTEX
  8
LPF3500_SMT
 10
0.3340
 20
9.1600
 30
0.0000
  0
SEQEND
  0
POLYLINE
  8
LPF3500_SMT
 66
1
 10
0.0000
 20
0.0000
 30
0.0000
 40
0.0020
 41
0.0020
  0
VERTEX
  8
LPF3500_SMT
 10
0.3322
 20
9.3260
 30
0.0000
  0
VERTEX
  8
LPF3500_SMT
 10
0.3322
 20
9.1600
 30
0.0000
  0
SEQEND
  0
POLYLINE
  8
LPF3500_SMT
 66
1
 10
0.0000
 20
0.0000
 30
0.0000
 40
0.0020
 41
0.0020
  0
VERTEX
  8
LPF3500_SMT
 10
0.3304
 20
9.3260
 30
0.0000
  0
VERTEX
  8
LPF3500_SMT
 10
0.3304
 20
9.1600
 30
0.0000
  0
SEQEND
  0
POLYLINE
  8
LPF3500_SMT
 66
1
 10
0.0000
 20
0.0000
 30
0.0000
 40
0.0020
 41
0.0020
  0
VERTEX
  8
LPF3500_SMT
 10
0.3286
 20
9.3260
 30
0.0000
  0
VERTEX
  8
LPF3500_SMT
 10
0.3286
 20
9.1600
 30
0.0000
  0
SEQEND
  0
POLYLINE
  8
LPF3500_SMT
 66
1
 10
0.0000
 20
0.0000
 30
0.0000
 40
0.0020
 41
0.0020
  0
VERTEX
  8
LPF3500_SMT
 10
0.3268
 20
9.3260
 30
0.0000
  0
VERTEX
  8
LPF3500_SMT
 10
0.3268
 20
9.1600
 30
0.0000
  0
SEQEND
  0
POLYLINE
  8
LPF3500_SMT
 66
1
 10
0.0000
 20
0.0000
 30
0.0000
 40
0.0020
 41
0.0020
  0
VERTEX
  8
LPF3500_SMT
 10
0.3250
 20
9.3260
 30
0.0000
  0
VERTEX
  8
LPF3500_SMT
 10
0.3250
 20
9.1600
 30
0.0000
  0
SEQEND
  0
POLYLINE
  8
LPF3500_SMT
 66
1
 10
0.0000
 20
0.0000
 30
0.0000
 40
0.0020
 41
0.0020
  0
VERTEX
  8
LPF3500_SMT
 10
0.3232
 20
9.3260
 30
0.0000
  0
VERTEX
  8
LPF3500_SMT
 10
0.3232
 20
9.1600
 30
0.0000
  0
SEQEND
  0
POLYLINE
  8
LPF3500_SMT
 66
1
 10
0.0000
 20
0.0000
 30
0.0000
 40
0.0020
 41
0.0020
  0
VERTEX
  8
LPF3500_SMT
 10
0.3214
 20
9.3260
 30
0.0000
  0
VERTEX
  8
LPF3500_SMT
 10
0.3214
 20
9.1600
 30
0.0000
  0
SEQEND
  0
POLYLINE
  8
LPF3500_SMT
 66
1
 10
0.0000
 20
0.0000
 30
0.0000
 40
0.0020
 41
0.0020
  0
VERTEX
  8
LPF3500_SMT
 10
0.3196
 20
9.3260
 30
0.0000
  0
VERTEX
  8
LPF3500_SMT
 10
0.3196
 20
9.1600
 30
0.0000
  0
SEQEND
  0
POLYLINE
  8
LPF3500_SMT
 66
1
 10
0.0000
 20
0.0000
 30
0.0000
 40
0.0020
 41
0.0020
  0
VERTEX
  8
LPF3500_SMT
 10
0.3178
 20
9.3260
 30
0.0000
  0
VERTEX
  8
LPF3500_SMT
 10
0.3178
 20
9.1600
 30
0.0000
  0
SEQEND
  0
POLYLINE
  8
LPF3500_SMT
 66
1
 10
0.0000
 20
0.0000
 30
0.0000
 40
0.0020
 41
0.0020
  0
VERTEX
  8
LPF3500_SMT
 10
0.3160
 20
9.3260
 30
0.0000
  0
VERTEX
  8
LPF3500_SMT
 10
0.3160
 20
9.1600
 30
0.0000
  0
SEQEND
  0
POLYLINE
  8
LPF3500_SMT
 66
1
 10
0.0000
 20
0.0000
 30
0.0000
 40
0.0020
 41
0.0020
  0
VERTEX
  8
LPF3500_SMT
 10
0.3142
 20
9.3260
 30
0.0000
  0
VERTEX
  8
LPF3500_SMT
 10
0.3142
 20
9.1600
 30
0.0000
  0
SEQEND
  0
POLYLINE
  8
LPF3500_SMT
 66
1
 10
0.0000
 20
0.0000
 30
0.0000
 40
0.0020
 41
0.0020
  0
VERTEX
  8
LPF3500_SMT
 10
0.3124
 20
9.3260
 30
0.0000
  0
VERTEX
  8
LPF3500_SMT
 10
0.3124
 20
9.1600
 30
0.0000
  0
SEQEND
  0
POLYLINE
  8
LPF3500_SMT
 66
1
 10
0.0000
 20
0.0000
 30
0.0000
 40
0.0020
 41
0.0020
  0
VERTEX
  8
LPF3500_SMT
 10
0.3106
 20
9.3260
 30
0.0000
  0
VERTEX
  8
LPF3500_SMT
 10
0.3106
 20
9.1600
 30
0.0000
  0
SEQEND
  0
POLYLINE
  8
LPF3500_SMT
 66
1
 10
0.0000
 20
0.0000
 30
0.0000
 40
0.0020
 41
0.0020
  0
VERTEX
  8
LPF3500_SMT
 10
0.3088
 20
9.3260
 30
0.0000
  0
VERTEX
  8
LPF3500_SMT
 10
0.3088
 20
9.1600
 30
0.0000
  0
SEQEND
  0
POLYLINE
  8
LPF3500_SMT
 66
1
 10
0.0000
 20
0.0000
 30
0.0000
 40
0.0020
 41
0.0020
  0
VERTEX
  8
LPF3500_SMT
 10
0.3070
 20
9.3260
 30
0.0000
  0
VERTEX
  8
LPF3500_SMT
 10
0.3070
 20
9.1600
 30
0.0000
  0
SEQEND
  0
POLYLINE
  8
LPF3500_SMT
 66
1
 10
0.0000
 20
0.0000
 30
0.0000
 40
0.0020
 41
0.0020
  0
VERTEX
  8
LPF3500_SMT
 10
0.3052
 20
9.3260
 30
0.0000
  0
VERTEX
  8
LPF3500_SMT
 10
0.3052
 20
9.1600
 30
0.0000
  0
SEQEND
  0
POLYLINE
  8
LPF3500_SMT
 66
1
 10
0.0000
 20
0.0000
 30
0.0000
 40
0.0020
 41
0.0020
  0
VERTEX
  8
LPF3500_SMT
 10
0.3034
 20
9.3260
 30
0.0000
  0
VERTEX
  8
LPF3500_SMT
 10
0.3034
 20
9.1600
 30
0.0000
  0
SEQEND
  0
POLYLINE
  8
LPF3500_SMT
 66
1
 10
0.0000
 20
0.0000
 30
0.0000
 40
0.0020
 41
0.0020
  0
VERTEX
  8
LPF3500_SMT
 10
0.3016
 20
9.3260
 30
0.0000
  0
VERTEX
  8
LPF3500_SMT
 10
0.3016
 20
9.1600
 30
0.0000
  0
SEQEND
  0
POLYLINE
  8
LPF3500_SMT
 66
1
 10
0.0000
 20
0.0000
 30
0.0000
 40
0.0020
 41
0.0020
  0
VERTEX
  8
LPF3500_SMT
 10
0.2998
 20
9.3260
 30
0.0000
  0
VERTEX
  8
LPF3500_SMT
 10
0.2998
 20
9.1600
 30
0.0000
  0
SEQEND
  0
POLYLINE
  8
LPF3500_SMT
 66
1
 10
0.0000
 20
0.0000
 30
0.0000
 40
0.0020
 41
0.0020
  0
VERTEX
  8
LPF3500_SMT
 10
0.2980
 20
9.3260
 30
0.0000
  0
VERTEX
  8
LPF3500_SMT
 10
0.2980
 20
9.1600
 30
0.0000
  0
SEQEND
  0
POLYLINE
  8
LPF3500_SMT
 66
1
 10
0.0000
 20
0.0000
 30
0.0000
 40
0.0020
 41
0.0020
  0
VERTEX
  8
LPF3500_SMT
 10
0.2962
 20
9.3260
 30
0.0000
  0
VERTEX
  8
LPF3500_SMT
 10
0.2962
 20
9.1600
 30
0.0000
  0
SEQEND
  0
POLYLINE
  8
LPF3500_SMT
 66
1
 10
0.0000
 20
0.0000
 30
0.0000
 40
0.0020
 41
0.0020
  0
VERTEX
  8
LPF3500_SMT
 10
0.2944
 20
9.3260
 30
0.0000
  0
VERTEX
  8
LPF3500_SMT
 10
0.2944
 20
9.1600
 30
0.0000
  0
SEQEND
  0
POLYLINE
  8
LPF3500_SMT
 66
1
 10
0.0000
 20
0.0000
 30
0.0000
 40
0.0020
 41
0.0020
  0
VERTEX
  8
LPF3500_SMT
 10
0.2926
 20
9.3260
 30
0.0000
  0
VERTEX
  8
LPF3500_SMT
 10
0.2926
 20
9.1600
 30
0.0000
  0
SEQEND
  0
POLYLINE
  8
LPF3500_SMT
 66
1
 10
0.0000
 20
0.0000
 30
0.0000
 40
0.0020
 41
0.0020
  0
VERTEX
  8
LPF3500_SMT
 10
0.2908
 20
9.3260
 30
0.0000
  0
VERTEX
  8
LPF3500_SMT
 10
0.2908
 20
9.1600
 30
0.0000
  0
SEQEND
  0
POLYLINE
  8
LPF3500_SMT
 66
1
 10
0.0000
 20
0.0000
 30
0.0000
 40
0.0020
 41
0.0020
  0
VERTEX
  8
LPF3500_SMT
 10
0.2890
 20
9.3260
 30
0.0000
  0
VERTEX
  8
LPF3500_SMT
 10
0.2890
 20
9.1600
 30
0.0000
  0
SEQEND
  0
POLYLINE
  8
LPF3500_SMT
 66
1
 10
0.0000
 20
0.0000
 30
0.0000
 40
0.0020
 41
0.0020
  0
VERTEX
  8
LPF3500_SMT
 10
0.2872
 20
9.3260
 30
0.0000
  0
VERTEX
  8
LPF3500_SMT
 10
0.2872
 20
9.1600
 30
0.0000
  0
SEQEND
  0
POLYLINE
  8
LPF3500_SMT
 66
1
 10
0.0000
 20
0.0000
 30
0.0000
 40
0.0020
 41
0.0020
  0
VERTEX
  8
LPF3500_SMT
 10
0.2854
 20
9.3260
 30
0.0000
  0
VERTEX
  8
LPF3500_SMT
 10
0.2854
 20
9.1600
 30
0.0000
  0
SEQEND
  0
POLYLINE
  8
LPF3500_SMT
 66
1
 10
0.0000
 20
0.0000
 30
0.0000
 40
0.0020
 41
0.0020
  0
VERTEX
  8
LPF3500_SMT
 10
0.2836
 20
9.3260
 30
0.0000
  0
VERTEX
  8
LPF3500_SMT
 10
0.2836
 20
9.1600
 30
0.0000
  0
SEQEND
  0
POLYLINE
  8
LPF3500_SMT
 66
1
 10
0.0000
 20
0.0000
 30
0.0000
 40
0.0020
 41
0.0020
  0
VERTEX
  8
LPF3500_SMT
 10
0.2818
 20
9.3260
 30
0.0000
  0
VERTEX
  8
LPF3500_SMT
 10
0.2818
 20
9.1600
 30
0.0000
  0
SEQEND
  0
POLYLINE
  8
LPF3500_SMT
 66
1
 10
0.0000
 20
0.0000
 30
0.0000
 40
0.0020
 41
0.0020
  0
VERTEX
  8
LPF3500_SMT
 10
0.2800
 20
9.3260
 30
0.0000
  0
VERTEX
  8
LPF3500_SMT
 10
0.2800
 20
9.1600
 30
0.0000
  0
SEQEND
  0
POLYLINE
  8
LPF3500_SMT
 66
1
 10
0.0000
 20
0.0000
 30
0.0000
 40
0.0020
 41
0.0020
  0
VERTEX
  8
LPF3500_SMT
 10
0.2782
 20
9.3260
 30
0.0000
  0
VERTEX
  8
LPF3500_SMT
 10
0.2782
 20
9.1600
 30
0.0000
  0
SEQEND
  0
POLYLINE
  8
LPF3500_SMT
 66
1
 10
0.0000
 20
0.0000
 30
0.0000
 40
0.0020
 41
0.0020
  0
VERTEX
  8
LPF3500_SMT
 10
0.2764
 20
9.3260
 30
0.0000
  0
VERTEX
  8
LPF3500_SMT
 10
0.2764
 20
9.1600
 30
0.0000
  0
SEQEND
  0
POLYLINE
  8
LPF3500_SMT
 66
1
 10
0.0000
 20
0.0000
 30
0.0000
 40
0.0020
 41
0.0020
  0
VERTEX
  8
LPF3500_SMT
 10
0.2746
 20
9.3260
 30
0.0000
  0
VERTEX
  8
LPF3500_SMT
 10
0.2746
 20
9.1600
 30
0.0000
  0
SEQEND
  0
POLYLINE
  8
LPF3500_SMT
 66
1
 10
0.0000
 20
0.0000
 30
0.0000
 40
0.0020
 41
0.0020
  0
VERTEX
  8
LPF3500_SMT
 10
0.2728
 20
9.3260
 30
0.0000
  0
VERTEX
  8
LPF3500_SMT
 10
0.2728
 20
9.1600
 30
0.0000
  0
SEQEND
  0
POLYLINE
  8
LPF3500_SMT
 66
1
 10
0.0000
 20
0.0000
 30
0.0000
 40
0.0020
 41
0.0020
  0
VERTEX
  8
LPF3500_SMT
 10
0.2710
 20
9.3260
 30
0.0000
  0
VERTEX
  8
LPF3500_SMT
 10
0.2710
 20
9.1600
 30
0.0000
  0
SEQEND
  0
POLYLINE
  8
LPF3500_SMT
 66
1
 10
0.0000
 20
0.0000
 30
0.0000
 40
0.0020
 41
0.0020
  0
VERTEX
  8
LPF3500_SMT
 10
0.2692
 20
9.3260
 30
0.0000
  0
VERTEX
  8
LPF3500_SMT
 10
0.2692
 20
9.1600
 30
0.0000
  0
SEQEND
  0
POLYLINE
  8
LPF3500_SMT
 66
1
 10
0.0000
 20
0.0000
 30
0.0000
 40
0.0020
 41
0.0020
  0
VERTEX
  8
LPF3500_SMT
 10
0.2674
 20
9.3260
 30
0.0000
  0
VERTEX
  8
LPF3500_SMT
 10
0.2674
 20
9.1600
 30
0.0000
  0
SEQEND
  0
POLYLINE
  8
LPF3500_SMT
 66
1
 10
0.0000
 20
0.0000
 30
0.0000
 40
0.0020
 41
0.0020
  0
VERTEX
  8
LPF3500_SMT
 10
0.2656
 20
9.3260
 30
0.0000
  0
VERTEX
  8
LPF3500_SMT
 10
0.2656
 20
9.1600
 30
0.0000
  0
SEQEND
  0
POLYLINE
  8
LPF3500_SMT
 66
1
 10
0.0000
 20
0.0000
 30
0.0000
 40
0.0020
 41
0.0020
  0
VERTEX
  8
LPF3500_SMT
 10
0.2638
 20
9.3260
 30
0.0000
  0
VERTEX
  8
LPF3500_SMT
 10
0.2638
 20
9.1600
 30
0.0000
  0
SEQEND
  0
POLYLINE
  8
LPF3500_SMT
 66
1
 10
0.0000
 20
0.0000
 30
0.0000
 40
0.0020
 41
0.0020
  0
VERTEX
  8
LPF3500_SMT
 10
0.2620
 20
9.3260
 30
0.0000
  0
VERTEX
  8
LPF3500_SMT
 10
0.2620
 20
9.1600
 30
0.0000
  0
SEQEND
  0
POLYLINE
  8
LPF3500_SMT
 66
1
 10
0.0000
 20
0.0000
 30
0.0000
 40
0.0020
 41
0.0020
  0
VERTEX
  8
LPF3500_SMT
 10
0.2602
 20
9.3260
 30
0.0000
  0
VERTEX
  8
LPF3500_SMT
 10
0.2602
 20
9.1600
 30
0.0000
  0
SEQEND
  0
POLYLINE
  8
LPF3500_SMT
 66
1
 10
0.0000
 20
0.0000
 30
0.0000
 40
0.0020
 41
0.0020
  0
VERTEX
  8
LPF3500_SMT
 10
0.2584
 20
9.3260
 30
0.0000
  0
VERTEX
  8
LPF3500_SMT
 10
0.2584
 20
9.1600
 30
0.0000
  0
SEQEND
  0
POLYLINE
  8
LPF3500_SMT
 66
1
 10
0.0000
 20
0.0000
 30
0.0000
 40
0.0020
 41
0.0020
  0
VERTEX
  8
LPF3500_SMT
 10
0.2566
 20
9.3260
 30
0.0000
  0
VERTEX
  8
LPF3500_SMT
 10
0.2566
 20
9.1600
 30
0.0000
  0
SEQEND
  0
POLYLINE
  8
LPF3500_SMT
 66
1
 10
0.0000
 20
0.0000
 30
0.0000
 40
0.0020
 41
0.0020
  0
VERTEX
  8
LPF3500_SMT
 10
0.2548
 20
9.3260
 30
0.0000
  0
VERTEX
  8
LPF3500_SMT
 10
0.2548
 20
9.1600
 30
0.0000
  0
SEQEND
  0
POLYLINE
  8
LPF3500_SMT
 66
1
 10
0.0000
 20
0.0000
 30
0.0000
 40
0.0020
 41
0.0020
  0
VERTEX
  8
LPF3500_SMT
 10
0.2530
 20
9.3260
 30
0.0000
  0
VERTEX
  8
LPF3500_SMT
 10
0.2530
 20
9.1600
 30
0.0000
  0
SEQEND
  0
POLYLINE
  8
LPF3500_SMT
 66
1
 10
0.0000
 20
0.0000
 30
0.0000
 40
0.0020
 41
0.0020
  0
VERTEX
  8
LPF3500_SMT
 10
0.2512
 20
9.3260
 30
0.0000
  0
VERTEX
  8
LPF3500_SMT
 10
0.2512
 20
9.1600
 30
0.0000
  0
SEQEND
  0
POLYLINE
  8
LPF3500_SMT
 66
1
 10
0.0000
 20
0.0000
 30
0.0000
 40
0.0020
 41
0.0020
  0
VERTEX
  8
LPF3500_SMT
 10
0.2494
 20
9.3260
 30
0.0000
  0
VERTEX
  8
LPF3500_SMT
 10
0.2494
 20
9.1600
 30
0.0000
  0
SEQEND
  0
POLYLINE
  8
LPF3500_SMT
 66
1
 10
0.0000
 20
0.0000
 30
0.0000
 40
0.0020
 41
0.0020
  0
VERTEX
  8
LPF3500_SMT
 10
0.2476
 20
9.3260
 30
0.0000
  0
VERTEX
  8
LPF3500_SMT
 10
0.2476
 20
9.1600
 30
0.0000
  0
SEQEND
  0
POLYLINE
  8
LPF3500_SMT
 66
1
 10
0.0000
 20
0.0000
 30
0.0000
 40
0.0020
 41
0.0020
  0
VERTEX
  8
LPF3500_SMT
 10
0.2458
 20
9.3260
 30
0.0000
  0
VERTEX
  8
LPF3500_SMT
 10
0.2458
 20
9.1600
 30
0.0000
  0
SEQEND
  0
POLYLINE
  8
LPF3500_SMT
 66
1
 10
0.0000
 20
0.0000
 30
0.0000
 40
0.0020
 41
0.0020
  0
VERTEX
  8
LPF3500_SMT
 10
0.2440
 20
9.3260
 30
0.0000
  0
VERTEX
  8
LPF3500_SMT
 10
0.2440
 20
9.1600
 30
0.0000
  0
SEQEND
  0
POLYLINE
  8
LPF3500_SMT
 66
1
 10
0.0000
 20
0.0000
 30
0.0000
 40
0.0020
 41
0.0020
  0
VERTEX
  8
LPF3500_SMT
 10
0.2422
 20
9.3260
 30
0.0000
  0
VERTEX
  8
LPF3500_SMT
 10
0.2422
 20
9.1600
 30
0.0000
  0
SEQEND
  0
POLYLINE
  8
LPF3500_SMT
 66
1
 10
0.0000
 20
0.0000
 30
0.0000
 40
0.0020
 41
0.0020
  0
VERTEX
  8
LPF3500_SMT
 10
0.2404
 20
9.3260
 30
0.0000
  0
VERTEX
  8
LPF3500_SMT
 10
0.2404
 20
9.1600
 30
0.0000
  0
SEQEND
  0
POLYLINE
  8
LPF3500_SMT
 66
1
 10
0.0000
 20
0.0000
 30
0.0000
 40
0.0020
 41
0.0020
  0
VERTEX
  8
LPF3500_SMT
 10
0.2386
 20
9.3260
 30
0.0000
  0
VERTEX
  8
LPF3500_SMT
 10
0.2386
 20
9.1600
 30
0.0000
  0
SEQEND
  0
POLYLINE
  8
LPF3500_SMT
 66
1
 10
0.0000
 20
0.0000
 30
0.0000
 40
0.0020
 41
0.0020
  0
VERTEX
  8
LPF3500_SMT
 10
0.2368
 20
9.3260
 30
0.0000
  0
VERTEX
  8
LPF3500_SMT
 10
0.2368
 20
9.1600
 30
0.0000
  0
SEQEND
  0
POLYLINE
  8
LPF3500_SMT
 66
1
 10
0.0000
 20
0.0000
 30
0.0000
 40
0.0020
 41
0.0020
  0
VERTEX
  8
LPF3500_SMT
 10
0.2350
 20
9.3260
 30
0.0000
  0
VERTEX
  8
LPF3500_SMT
 10
0.2350
 20
9.1600
 30
0.0000
  0
SEQEND
  0
POLYLINE
  8
LPF3500_SMT
 66
1
 10
0.0000
 20
0.0000
 30
0.0000
 40
0.0020
 41
0.0020
  0
VERTEX
  8
LPF3500_SMT
 10
0.2332
 20
9.3260
 30
0.0000
  0
VERTEX
  8
LPF3500_SMT
 10
0.2332
 20
9.1600
 30
0.0000
  0
SEQEND
  0
POLYLINE
  8
LPF3500_SMT
 66
1
 10
0.0000
 20
0.0000
 30
0.0000
 40
0.0020
 41
0.0020
  0
VERTEX
  8
LPF3500_SMT
 10
0.2314
 20
9.3260
 30
0.0000
  0
VERTEX
  8
LPF3500_SMT
 10
0.2314
 20
9.1600
 30
0.0000
  0
SEQEND
  0
POLYLINE
  8
LPF3500_SMT
 66
1
 10
0.0000
 20
0.0000
 30
0.0000
 40
0.0020
 41
0.0020
  0
VERTEX
  8
LPF3500_SMT
 10
0.2296
 20
9.3260
 30
0.0000
  0
VERTEX
  8
LPF3500_SMT
 10
0.2296
 20
9.1600
 30
0.0000
  0
SEQEND
  0
POLYLINE
  8
LPF3500_SMT
 66
1
 10
0.0000
 20
0.0000
 30
0.0000
 40
0.0020
 41
0.0020
  0
VERTEX
  8
LPF3500_SMT
 10
0.2278
 20
9.3260
 30
0.0000
  0
VERTEX
  8
LPF3500_SMT
 10
0.2278
 20
9.1600
 30
0.0000
  0
SEQEND
  0
POLYLINE
  8
LPF3500_SMT
 66
1
 10
0.0000
 20
0.0000
 30
0.0000
 40
0.0020
 41
0.0020
  0
VERTEX
  8
LPF3500_SMT
 10
0.2260
 20
9.3260
 30
0.0000
  0
VERTEX
  8
LPF3500_SMT
 10
0.2260
 20
9.1600
 30
0.0000
  0
SEQEND
  0
POLYLINE
  8
LPF3500_SMT
 66
1
 10
0.0000
 20
0.0000
 30
0.0000
 40
0.0020
 41
0.0020
  0
VERTEX
  8
LPF3500_SMT
 10
0.2242
 20
9.3260
 30
0.0000
  0
VERTEX
  8
LPF3500_SMT
 10
0.2242
 20
9.1600
 30
0.0000
  0
SEQEND
  0
POLYLINE
  8
LPF3500_SMT
 66
1
 10
0.0000
 20
0.0000
 30
0.0000
 40
0.0020
 41
0.0020
  0
VERTEX
  8
LPF3500_SMT
 10
0.2224
 20
9.3260
 30
0.0000
  0
VERTEX
  8
LPF3500_SMT
 10
0.2224
 20
9.1600
 30
0.0000
  0
SEQEND
  0
POLYLINE
  8
LPF3500_SMT
 66
1
 10
0.0000
 20
0.0000
 30
0.0000
 40
0.0020
 41
0.0020
  0
VERTEX
  8
LPF3500_SMT
 10
0.2206
 20
9.3260
 30
0.0000
  0
VERTEX
  8
LPF3500_SMT
 10
0.2206
 20
9.1600
 30
0.0000
  0
SEQEND
  0
POLYLINE
  8
LPF3500_SMT
 66
1
 10
0.0000
 20
0.0000
 30
0.0000
 40
0.0020
 41
0.0020
  0
VERTEX
  8
LPF3500_SMT
 10
0.2188
 20
9.3260
 30
0.0000
  0
VERTEX
  8
LPF3500_SMT
 10
0.2188
 20
9.1600
 30
0.0000
  0
SEQEND
  0
POLYLINE
  8
LPF3500_SMT
 66
1
 10
0.0000
 20
0.0000
 30
0.0000
 40
0.0020
 41
0.0020
  0
VERTEX
  8
LPF3500_SMT
 10
0.2170
 20
9.3260
 30
0.0000
  0
VERTEX
  8
LPF3500_SMT
 10
0.2170
 20
9.1600
 30
0.0000
  0
SEQEND
  0
POLYLINE
  8
LPF3500_SMT
 66
1
 10
0.0000
 20
0.0000
 30
0.0000
 40
0.0020
 41
0.0020
  0
VERTEX
  8
LPF3500_SMT
 10
0.2152
 20
9.3260
 30
0.0000
  0
VERTEX
  8
LPF3500_SMT
 10
0.2152
 20
9.1600
 30
0.0000
  0
SEQEND
  0
POLYLINE
  8
LPF3500_SMT
 66
1
 10
0.0000
 20
0.0000
 30
0.0000
 40
0.0020
 41
0.0020
  0
VERTEX
  8
LPF3500_SMT
 10
0.2134
 20
9.3260
 30
0.0000
  0
VERTEX
  8
LPF3500_SMT
 10
0.2134
 20
9.1600
 30
0.0000
  0
SEQEND
  0
POLYLINE
  8
LPF3500_SMT
 66
1
 10
0.0000
 20
0.0000
 30
0.0000
 40
0.0020
 41
0.0020
  0
VERTEX
  8
LPF3500_SMT
 10
0.2116
 20
9.3260
 30
0.0000
  0
VERTEX
  8
LPF3500_SMT
 10
0.2116
 20
9.1600
 30
0.0000
  0
SEQEND
  0
POLYLINE
  8
LPF3500_SMT
 66
1
 10
0.0000
 20
0.0000
 30
0.0000
 40
0.0020
 41
0.0020
  0
VERTEX
  8
LPF3500_SMT
 10
0.2098
 20
9.3260
 30
0.0000
  0
VERTEX
  8
LPF3500_SMT
 10
0.2098
 20
9.1600
 30
0.0000
  0
SEQEND
  0
POLYLINE
  8
LPF3500_SMT
 66
1
 10
0.0000
 20
0.0000
 30
0.0000
 40
0.0020
 41
0.0020
  0
VERTEX
  8
LPF3500_SMT
 10
0.2080
 20
9.3260
 30
0.0000
  0
VERTEX
  8
LPF3500_SMT
 10
0.2080
 20
9.1600
 30
0.0000
  0
SEQEND
  0
POLYLINE
  8
LPF3500_SMT
 66
1
 10
0.0000
 20
0.0000
 30
0.0000
 40
0.0020
 41
0.0020
  0
VERTEX
  8
LPF3500_SMT
 10
0.2062
 20
9.3260
 30
0.0000
  0
VERTEX
  8
LPF3500_SMT
 10
0.2062
 20
9.1600
 30
0.0000
  0
SEQEND
  0
POLYLINE
  8
LPF3500_SMT
 66
1
 10
0.0000
 20
0.0000
 30
0.0000
 40
0.0020
 41
0.0020
  0
VERTEX
  8
LPF3500_SMT
 10
0.2044
 20
9.3260
 30
0.0000
  0
VERTEX
  8
LPF3500_SMT
 10
0.2044
 20
9.1600
 30
0.0000
  0
SEQEND
  0
POLYLINE
  8
LPF3500_SMT
 66
1
 10
0.0000
 20
0.0000
 30
0.0000
 40
0.0020
 41
0.0020
  0
VERTEX
  8
LPF3500_SMT
 10
0.2026
 20
9.3260
 30
0.0000
  0
VERTEX
  8
LPF3500_SMT
 10
0.2026
 20
9.1600
 30
0.0000
  0
SEQEND
  0
POLYLINE
  8
LPF3500_SMT
 66
1
 10
0.0000
 20
0.0000
 30
0.0000
 40
0.0020
 41
0.0020
  0
VERTEX
  8
LPF3500_SMT
 10
0.2008
 20
9.3260
 30
0.0000
  0
VERTEX
  8
LPF3500_SMT
 10
0.2008
 20
9.1600
 30
0.0000
  0
SEQEND
  0
POLYLINE
  8
LPF3500_SMT
 66
1
 10
0.0000
 20
0.0000
 30
0.0000
 40
0.0020
 41
0.0020
  0
VERTEX
  8
LPF3500_SMT
 10
0.1990
 20
9.3260
 30
0.0000
  0
VERTEX
  8
LPF3500_SMT
 10
0.1990
 20
9.1600
 30
0.0000
  0
SEQEND
  0
POLYLINE
  8
LPF3500_SMT
 66
1
 10
0.0000
 20
0.0000
 30
0.0000
 40
0.0020
 41
0.0020
  0
VERTEX
  8
LPF3500_SMT
 10
0.1972
 20
9.3260
 30
0.0000
  0
VERTEX
  8
LPF3500_SMT
 10
0.1972
 20
9.1600
 30
0.0000
  0
SEQEND
  0
POLYLINE
  8
LPF3500_SMT
 66
1
 10
0.0000
 20
0.0000
 30
0.0000
 40
0.0020
 41
0.0020
  0
VERTEX
  8
LPF3500_SMT
 10
0.1954
 20
9.3260
 30
0.0000
  0
VERTEX
  8
LPF3500_SMT
 10
0.1954
 20
9.1600
 30
0.0000
  0
SEQEND
  0
POLYLINE
  8
LPF3500_SMT
 66
1
 10
0.0000
 20
0.0000
 30
0.0000
 40
0.0020
 41
0.0020
  0
VERTEX
  8
LPF3500_SMT
 10
0.1936
 20
9.3260
 30
0.0000
  0
VERTEX
  8
LPF3500_SMT
 10
0.1936
 20
9.1600
 30
0.0000
  0
SEQEND
  0
POLYLINE
  8
LPF3500_SMT
 66
1
 10
0.0000
 20
0.0000
 30
0.0000
 40
0.0020
 41
0.0020
  0
VERTEX
  8
LPF3500_SMT
 10
0.1918
 20
9.3260
 30
0.0000
  0
VERTEX
  8
LPF3500_SMT
 10
0.1918
 20
9.1600
 30
0.0000
  0
SEQEND
  0
POLYLINE
  8
LPF3500_SMT
 66
1
 10
0.0000
 20
0.0000
 30
0.0000
 40
0.0020
 41
0.0020
  0
VERTEX
  8
LPF3500_SMT
 10
0.1900
 20
9.3260
 30
0.0000
  0
VERTEX
  8
LPF3500_SMT
 10
0.1900
 20
9.1600
 30
0.0000
  0
SEQEND
  0
POLYLINE
  8
LPF3500_SMT
 66
1
 10
0.0000
 20
0.0000
 30
0.0000
 40
0.0020
 41
0.0020
  0
VERTEX
  8
LPF3500_SMT
 10
0.1882
 20
9.3260
 30
0.0000
  0
VERTEX
  8
LPF3500_SMT
 10
0.1882
 20
9.1600
 30
0.0000
  0
SEQEND
  0
POLYLINE
  8
LPF3500_SMT
 66
1
 10
0.0000
 20
0.0000
 30
0.0000
 40
0.0020
 41
0.0020
  0
VERTEX
  8
LPF3500_SMT
 10
0.1864
 20
9.3260
 30
0.0000
  0
VERTEX
  8
LPF3500_SMT
 10
0.1864
 20
9.1600
 30
0.0000
  0
SEQEND
  0
POLYLINE
  8
LPF3500_SMT
 66
1
 10
0.0000
 20
0.0000
 30
0.0000
 40
0.0020
 41
0.0020
  0
VERTEX
  8
LPF3500_SMT
 10
0.1846
 20
9.3260
 30
0.0000
  0
VERTEX
  8
LPF3500_SMT
 10
0.1846
 20
9.1600
 30
0.0000
  0
SEQEND
  0
POLYLINE
  8
LPF3500_SMT
 66
1
 10
0.0000
 20
0.0000
 30
0.0000
 40
0.0020
 41
0.0020
  0
VERTEX
  8
LPF3500_SMT
 10
0.1828
 20
9.3260
 30
0.0000
  0
VERTEX
  8
LPF3500_SMT
 10
0.1828
 20
9.1600
 30
0.0000
  0
SEQEND
  0
POLYLINE
  8
LPF3500_SMT
 66
1
 10
0.0000
 20
0.0000
 30
0.0000
 40
0.0020
 41
0.0020
  0
VERTEX
  8
LPF3500_SMT
 10
0.1810
 20
9.3260
 30
0.0000
  0
VERTEX
  8
LPF3500_SMT
 10
0.1810
 20
9.1600
 30
0.0000
  0
SEQEND
  0
POLYLINE
  8
LPF3500_SMT
 66
1
 10
0.0000
 20
0.0000
 30
0.0000
 40
0.0020
 41
0.0020
  0
VERTEX
  8
LPF3500_SMT
 10
0.1792
 20
9.3260
 30
0.0000
  0
VERTEX
  8
LPF3500_SMT
 10
0.1792
 20
9.1600
 30
0.0000
  0
SEQEND
  0
POLYLINE
  8
LPF3500_SMT
 66
1
 10
0.0000
 20
0.0000
 30
0.0000
 40
0.0020
 41
0.0020
  0
VERTEX
  8
LPF3500_SMT
 10
0.1774
 20
9.3260
 30
0.0000
  0
VERTEX
  8
LPF3500_SMT
 10
0.1774
 20
9.1600
 30
0.0000
  0
SEQEND
  0
POLYLINE
  8
LPF3500_SMT
 66
1
 10
0.0000
 20
0.0000
 30
0.0000
 40
0.0020
 41
0.0020
  0
VERTEX
  8
LPF3500_SMT
 10
0.1756
 20
9.3260
 30
0.0000
  0
VERTEX
  8
LPF3500_SMT
 10
0.1756
 20
9.1600
 30
0.0000
  0
SEQEND
  0
POLYLINE
  8
LPF3500_SMT
 66
1
 10
0.0000
 20
0.0000
 30
0.0000
 40
0.0020
 41
0.0020
  0
VERTEX
  8
LPF3500_SMT
 10
0.1738
 20
9.3260
 30
0.0000
  0
VERTEX
  8
LPF3500_SMT
 10
0.1738
 20
9.1600
 30
0.0000
  0
SEQEND
  0
POLYLINE
  8
LPF3500_SMT
 66
1
 10
0.0000
 20
0.0000
 30
0.0000
 40
0.0020
 41
0.0020
  0
VERTEX
  8
LPF3500_SMT
 10
0.1720
 20
9.3260
 30
0.0000
  0
VERTEX
  8
LPF3500_SMT
 10
0.1720
 20
9.1600
 30
0.0000
  0
SEQEND
  0
POLYLINE
  8
LPF3500_SMT
 66
1
 10
0.0000
 20
0.0000
 30
0.0000
 40
0.0020
 41
0.0020
  0
VERTEX
  8
LPF3500_SMT
 10
0.1702
 20
9.3260
 30
0.0000
  0
VERTEX
  8
LPF3500_SMT
 10
0.1702
 20
9.1600
 30
0.0000
  0
SEQEND
  0
POLYLINE
  8
LPF3500_SMT
 66
1
 10
0.0000
 20
0.0000
 30
0.0000
 40
0.0020
 41
0.0020
  0
VERTEX
  8
LPF3500_SMT
 10
0.1684
 20
9.3260
 30
0.0000
  0
VERTEX
  8
LPF3500_SMT
 10
0.1684
 20
9.1600
 30
0.0000
  0
SEQEND
  0
POLYLINE
  8
LPF3500_SMT
 66
1
 10
0.0000
 20
0.0000
 30
0.0000
 40
0.0020
 41
0.0020
  0
VERTEX
  8
LPF3500_SMT
 10
0.1666
 20
9.3260
 30
0.0000
  0
VERTEX
  8
LPF3500_SMT
 10
0.1666
 20
9.1600
 30
0.0000
  0
SEQEND
  0
POLYLINE
  8
LPF3500_SMT
 66
1
 10
0.0000
 20
0.0000
 30
0.0000
 40
0.0020
 41
0.0020
  0
VERTEX
  8
LPF3500_SMT
 10
0.1648
 20
9.3260
 30
0.0000
  0
VERTEX
  8
LPF3500_SMT
 10
0.1648
 20
9.1600
 30
0.0000
  0
SEQEND
  0
POLYLINE
  8
LPF3500_SMT
 66
1
 10
0.0000
 20
0.0000
 30
0.0000
 40
0.0020
 41
0.0020
  0
VERTEX
  8
LPF3500_SMT
 10
0.1630
 20
9.3260
 30
0.0000
  0
VERTEX
  8
LPF3500_SMT
 10
0.1630
 20
9.1600
 30
0.0000
  0
SEQEND
  0
POLYLINE
  8
LPF3500_SMT
 66
1
 10
0.0000
 20
0.0000
 30
0.0000
 40
0.0020
 41
0.0020
  0
VERTEX
  8
LPF3500_SMT
 10
0.1612
 20
9.3260
 30
0.0000
  0
VERTEX
  8
LPF3500_SMT
 10
0.1612
 20
9.1600
 30
0.0000
  0
SEQEND
  0
POLYLINE
  8
LPF3500_SMT
 66
1
 10
0.0000
 20
0.0000
 30
0.0000
 40
0.0020
 41
0.0020
  0
VERTEX
  8
LPF3500_SMT
 10
0.1594
 20
9.3260
 30
0.0000
  0
VERTEX
  8
LPF3500_SMT
 10
0.1594
 20
9.1600
 30
0.0000
  0
SEQEND
  0
POLYLINE
  8
LPF3500_SMT
 66
1
 10
0.0000
 20
0.0000
 30
0.0000
 40
0.0020
 41
0.0020
  0
VERTEX
  8
LPF3500_SMT
 10
0.1576
 20
9.3260
 30
0.0000
  0
VERTEX
  8
LPF3500_SMT
 10
0.1576
 20
9.1600
 30
0.0000
  0
SEQEND
  0
POLYLINE
  8
LPF3500_SMT
 66
1
 10
0.0000
 20
0.0000
 30
0.0000
 40
0.0020
 41
0.0020
  0
VERTEX
  8
LPF3500_SMT
 10
0.1558
 20
9.3260
 30
0.0000
  0
VERTEX
  8
LPF3500_SMT
 10
0.1558
 20
9.1600
 30
0.0000
  0
SEQEND
  0
POLYLINE
  8
LPF3500_SMT
 66
1
 10
0.0000
 20
0.0000
 30
0.0000
 40
0.0020
 41
0.0020
  0
VERTEX
  8
LPF3500_SMT
 10
0.1540
 20
9.3260
 30
0.0000
  0
VERTEX
  8
LPF3500_SMT
 10
0.1540
 20
9.1600
 30
0.0000
  0
SEQEND
  0
POLYLINE
  8
LPF3500_SMT
 66
1
 10
0.0000
 20
0.0000
 30
0.0000
 40
0.0020
 41
0.0020
  0
VERTEX
  8
LPF3500_SMT
 10
0.1522
 20
9.3260
 30
0.0000
  0
VERTEX
  8
LPF3500_SMT
 10
0.1522
 20
9.1600
 30
0.0000
  0
SEQEND
  0
POLYLINE
  8
LPF3500_SMT
 66
1
 10
0.0000
 20
0.0000
 30
0.0000
 40
0.0020
 41
0.0020
  0
VERTEX
  8
LPF3500_SMT
 10
0.1504
 20
9.3260
 30
0.0000
  0
VERTEX
  8
LPF3500_SMT
 10
0.1504
 20
9.1600
 30
0.0000
  0
SEQEND
  0
POLYLINE
  8
LPF3500_SMT
 66
1
 10
0.0000
 20
0.0000
 30
0.0000
 40
0.0020
 41
0.0020
  0
VERTEX
  8
LPF3500_SMT
 10
0.1486
 20
9.3260
 30
0.0000
  0
VERTEX
  8
LPF3500_SMT
 10
0.1486
 20
9.1600
 30
0.0000
  0
SEQEND
  0
POLYLINE
  8
LPF3500_SMT
 66
1
 10
0.0000
 20
0.0000
 30
0.0000
 40
0.0020
 41
0.0020
  0
VERTEX
  8
LPF3500_SMT
 10
0.1468
 20
9.3260
 30
0.0000
  0
VERTEX
  8
LPF3500_SMT
 10
0.1468
 20
9.1600
 30
0.0000
  0
SEQEND
  0
POLYLINE
  8
LPF3500_SMT
 66
1
 10
0.0000
 20
0.0000
 30
0.0000
 40
0.0020
 41
0.0020
  0
VERTEX
  8
LPF3500_SMT
 10
0.1450
 20
9.3260
 30
0.0000
  0
VERTEX
  8
LPF3500_SMT
 10
0.1450
 20
9.1600
 30
0.0000
  0
SEQEND
  0
POLYLINE
  8
LPF3500_SMT
 66
1
 10
0.0000
 20
0.0000
 30
0.0000
 40
0.0020
 41
0.0020
  0
VERTEX
  8
LPF3500_SMT
 10
0.1432
 20
9.3260
 30
0.0000
  0
VERTEX
  8
LPF3500_SMT
 10
0.1432
 20
9.1600
 30
0.0000
  0
SEQEND
  0
POLYLINE
  8
LPF3500_SMT
 66
1
 10
0.0000
 20
0.0000
 30
0.0000
 40
0.0020
 41
0.0020
  0
VERTEX
  8
LPF3500_SMT
 10
0.1414
 20
9.3260
 30
0.0000
  0
VERTEX
  8
LPF3500_SMT
 10
0.1414
 20
9.1600
 30
0.0000
  0
SEQEND
  0
POLYLINE
  8
LPF3500_SMT
 66
1
 10
0.0000
 20
0.0000
 30
0.0000
 40
0.0020
 41
0.0020
  0
VERTEX
  8
LPF3500_SMT
 10
0.1396
 20
9.3260
 30
0.0000
  0
VERTEX
  8
LPF3500_SMT
 10
0.1396
 20
9.1600
 30
0.0000
  0
SEQEND
  0
POLYLINE
  8
LPF3500_SMT
 66
1
 10
0.0000
 20
0.0000
 30
0.0000
 40
0.0020
 41
0.0020
  0
VERTEX
  8
LPF3500_SMT
 10
0.1378
 20
9.3260
 30
0.0000
  0
VERTEX
  8
LPF3500_SMT
 10
0.1378
 20
9.1600
 30
0.0000
  0
SEQEND
  0
POLYLINE
  8
LPF3500_SMT
 66
1
 10
0.0000
 20
0.0000
 30
0.0000
 40
0.0020
 41
0.0020
  0
VERTEX
  8
LPF3500_SMT
 10
0.1360
 20
9.3260
 30
0.0000
  0
VERTEX
  8
LPF3500_SMT
 10
0.1360
 20
9.1600
 30
0.0000
  0
SEQEND
  0
POLYLINE
  8
LPF3500_SMT
 66
1
 10
0.0000
 20
0.0000
 30
0.0000
 40
0.0020
 41
0.0020
  0
VERTEX
  8
LPF3500_SMT
 10
0.1342
 20
9.3260
 30
0.0000
  0
VERTEX
  8
LPF3500_SMT
 10
0.1342
 20
9.1600
 30
0.0000
  0
SEQEND
  0
POLYLINE
  8
LPF3500_SMT
 66
1
 10
0.0000
 20
0.0000
 30
0.0000
 40
0.0020
 41
0.0020
  0
VERTEX
  8
LPF3500_SMT
 10
0.1324
 20
9.3260
 30
0.0000
  0
VERTEX
  8
LPF3500_SMT
 10
0.1324
 20
9.1600
 30
0.0000
  0
SEQEND
  0
POLYLINE
  8
LPF3500_SMT
 66
1
 10
0.0000
 20
0.0000
 30
0.0000
 40
0.0020
 41
0.0020
  0
VERTEX
  8
LPF3500_SMT
 10
0.1306
 20
9.3260
 30
0.0000
  0
VERTEX
  8
LPF3500_SMT
 10
0.1306
 20
9.1600
 30
0.0000
  0
SEQEND
  0
POLYLINE
  8
LPF3500_SMT
 66
1
 10
0.0000
 20
0.0000
 30
0.0000
 40
0.0020
 41
0.0020
  0
VERTEX
  8
LPF3500_SMT
 10
0.1288
 20
9.3260
 30
0.0000
  0
VERTEX
  8
LPF3500_SMT
 10
0.1288
 20
9.1600
 30
0.0000
  0
SEQEND
  0
POLYLINE
  8
LPF3500_SMT
 66
1
 10
0.0000
 20
0.0000
 30
0.0000
 40
0.0020
 41
0.0020
  0
VERTEX
  8
LPF3500_SMT
 10
0.1270
 20
9.3260
 30
0.0000
  0
VERTEX
  8
LPF3500_SMT
 10
0.1270
 20
9.1600
 30
0.0000
  0
SEQEND
  0
POLYLINE
  8
LPF3500_SMT
 66
1
 10
0.0000
 20
0.0000
 30
0.0000
 40
0.0020
 41
0.0020
  0
VERTEX
  8
LPF3500_SMT
 10
0.1252
 20
9.3260
 30
0.0000
  0
VERTEX
  8
LPF3500_SMT
 10
0.1252
 20
9.1600
 30
0.0000
  0
SEQEND
  0
POLYLINE
  8
LPF3500_SMT
 66
1
 10
0.0000
 20
0.0000
 30
0.0000
 40
0.0020
 41
0.0020
  0
VERTEX
  8
LPF3500_SMT
 10
0.1234
 20
9.3260
 30
0.0000
  0
VERTEX
  8
LPF3500_SMT
 10
0.1234
 20
9.1600
 30
0.0000
  0
SEQEND
  0
POLYLINE
  8
LPF3500_SMT
 66
1
 10
0.0000
 20
0.0000
 30
0.0000
 40
0.0020
 41
0.0020
  0
VERTEX
  8
LPF3500_SMT
 10
0.1216
 20
9.3260
 30
0.0000
  0
VERTEX
  8
LPF3500_SMT
 10
0.1216
 20
9.1600
 30
0.0000
  0
SEQEND
  0
POLYLINE
  8
LPF3500_SMT
 66
1
 10
0.0000
 20
0.0000
 30
0.0000
 40
0.0020
 41
0.0020
  0
VERTEX
  8
LPF3500_SMT
 10
0.1198
 20
9.3260
 30
0.0000
  0
VERTEX
  8
LPF3500_SMT
 10
0.1198
 20
9.1600
 30
0.0000
  0
SEQEND
  0
POLYLINE
  8
LPF3500_SMT
 66
1
 10
0.0000
 20
0.0000
 30
0.0000
 40
0.0020
 41
0.0020
  0
VERTEX
  8
LPF3500_SMT
 10
0.1180
 20
9.3260
 30
0.0000
  0
VERTEX
  8
LPF3500_SMT
 10
0.1180
 20
9.1600
 30
0.0000
  0
SEQEND
  0
POLYLINE
  8
LPF3500_SMT
 66
1
 10
0.0000
 20
0.0000
 30
0.0000
 40
0.0020
 41
0.0020
  0
VERTEX
  8
LPF3500_SMT
 10
0.1162
 20
9.3260
 30
0.0000
  0
VERTEX
  8
LPF3500_SMT
 10
0.1162
 20
9.1600
 30
0.0000
  0
SEQEND
  0
POLYLINE
  8
LPF3500_SMT
 66
1
 10
0.0000
 20
0.0000
 30
0.0000
 40
0.0020
 41
0.0020
  0
VERTEX
  8
LPF3500_SMT
 10
0.1144
 20
9.3260
 30
0.0000
  0
VERTEX
  8
LPF3500_SMT
 10
0.1144
 20
9.1600
 30
0.0000
  0
SEQEND
  0
POLYLINE
  8
LPF3500_SMT
 66
1
 10
0.0000
 20
0.0000
 30
0.0000
 40
0.0020
 41
0.0020
  0
VERTEX
  8
LPF3500_SMT
 10
0.1126
 20
9.3260
 30
0.0000
  0
VERTEX
  8
LPF3500_SMT
 10
0.1126
 20
9.1600
 30
0.0000
  0
SEQEND
  0
POLYLINE
  8
LPF3500_SMT
 66
1
 10
0.0000
 20
0.0000
 30
0.0000
 40
0.0020
 41
0.0020
  0
VERTEX
  8
LPF3500_SMT
 10
0.1108
 20
9.3260
 30
0.0000
  0
VERTEX
  8
LPF3500_SMT
 10
0.1108
 20
9.1600
 30
0.0000
  0
SEQEND
  0
POLYLINE
  8
LPF3500_SMT
 66
1
 10
0.0000
 20
0.0000
 30
0.0000
 40
0.0020
 41
0.0020
  0
VERTEX
  8
LPF3500_SMT
 10
0.1090
 20
9.3260
 30
0.0000
  0
VERTEX
  8
LPF3500_SMT
 10
0.1090
 20
9.1600
 30
0.0000
  0
SEQEND
  0
POLYLINE
  8
LPF3500_SMT
 66
1
 10
0.0000
 20
0.0000
 30
0.0000
 40
0.0020
 41
0.0020
  0
VERTEX
  8
LPF3500_SMT
 10
0.1072
 20
9.3260
 30
0.0000
  0
VERTEX
  8
LPF3500_SMT
 10
0.1072
 20
9.1600
 30
0.0000
  0
SEQEND
  0
POLYLINE
  8
LPF3500_SMT
 66
1
 10
0.0000
 20
0.0000
 30
0.0000
 40
0.0020
 41
0.0020
  0
VERTEX
  8
LPF3500_SMT
 10
0.1054
 20
9.3260
 30
0.0000
  0
VERTEX
  8
LPF3500_SMT
 10
0.1054
 20
9.1600
 30
0.0000
  0
SEQEND
  0
POLYLINE
  8
LPF3500_SMT
 66
1
 10
0.0000
 20
0.0000
 30
0.0000
 40
0.0020
 41
0.0020
  0
VERTEX
  8
LPF3500_SMT
 10
0.1036
 20
9.3260
 30
0.0000
  0
VERTEX
  8
LPF3500_SMT
 10
0.1036
 20
9.1600
 30
0.0000
  0
SEQEND
  0
POLYLINE
  8
LPF3500_SMT
 66
1
 10
0.0000
 20
0.0000
 30
0.0000
 40
0.0020
 41
0.0020
  0
VERTEX
  8
LPF3500_SMT
 10
0.1018
 20
9.3260
 30
0.0000
  0
VERTEX
  8
LPF3500_SMT
 10
0.1018
 20
9.1600
 30
0.0000
  0
SEQEND
  0
POLYLINE
  8
LPF3500_SMT
 66
1
 10
0.0000
 20
0.0000
 30
0.0000
 40
0.0020
 41
0.0020
  0
VERTEX
  8
LPF3500_SMT
 10
0.1000
 20
9.3260
 30
0.0000
  0
VERTEX
  8
LPF3500_SMT
 10
0.1000
 20
9.1600
 30
0.0000
  0
SEQEND
  0
POLYLINE
  8
LPF3500_SMT
 66
1
 10
0.0000
 20
0.0000
 30
0.0000
 40
0.0020
 41
0.0020
  0
VERTEX
  8
LPF3500_SMT
 10
0.0982
 20
9.3260
 30
0.0000
  0
VERTEX
  8
LPF3500_SMT
 10
0.0982
 20
9.1600
 30
0.0000
  0
SEQEND
  0
POLYLINE
  8
LPF3500_SMT
 66
1
 10
0.0000
 20
0.0000
 30
0.0000
 40
0.0020
 41
0.0020
  0
VERTEX
  8
LPF3500_SMT
 10
0.0964
 20
9.3260
 30
0.0000
  0
VERTEX
  8
LPF3500_SMT
 10
0.0964
 20
9.1600
 30
0.0000
  0
SEQEND
  0
POLYLINE
  8
LPF3500_SMT
 66
1
 10
0.0000
 20
0.0000
 30
0.0000
 40
0.0020
 41
0.0020
  0
VERTEX
  8
LPF3500_SMT
 10
0.0946
 20
9.3260
 30
0.0000
  0
VERTEX
  8
LPF3500_SMT
 10
0.0946
 20
9.1600
 30
0.0000
  0
SEQEND
  0
POLYLINE
  8
LPF3500_SMT
 66
1
 10
0.0000
 20
0.0000
 30
0.0000
 40
0.0020
 41
0.0020
  0
VERTEX
  8
LPF3500_SMT
 10
0.0928
 20
9.3260
 30
0.0000
  0
VERTEX
  8
LPF3500_SMT
 10
0.0928
 20
9.1600
 30
0.0000
  0
SEQEND
  0
POLYLINE
  8
LPF3500_SMT
 66
1
 10
0.0000
 20
0.0000
 30
0.0000
 40
0.0020
 41
0.0020
  0
VERTEX
  8
LPF3500_SMT
 10
0.0910
 20
9.3260
 30
0.0000
  0
VERTEX
  8
LPF3500_SMT
 10
0.0910
 20
9.1600
 30
0.0000
  0
SEQEND
  0
POLYLINE
  8
LPF3500_SMT
 66
1
 10
0.0000
 20
0.0000
 30
0.0000
 40
0.0020
 41
0.0020
  0
VERTEX
  8
LPF3500_SMT
 10
0.0892
 20
9.3260
 30
0.0000
  0
VERTEX
  8
LPF3500_SMT
 10
0.0892
 20
9.1600
 30
0.0000
  0
SEQEND
  0
POLYLINE
  8
LPF3500_SMT
 66
1
 10
0.0000
 20
0.0000
 30
0.0000
 40
0.0020
 41
0.0020
  0
VERTEX
  8
LPF3500_SMT
 10
0.0874
 20
9.3260
 30
0.0000
  0
VERTEX
  8
LPF3500_SMT
 10
0.0874
 20
9.1600
 30
0.0000
  0
SEQEND
  0
POLYLINE
  8
LPF3500_SMT
 66
1
 10
0.0000
 20
0.0000
 30
0.0000
 40
0.0020
 41
0.0020
  0
VERTEX
  8
LPF3500_SMT
 10
0.0856
 20
9.3260
 30
0.0000
  0
VERTEX
  8
LPF3500_SMT
 10
0.0856
 20
9.1600
 30
0.0000
  0
SEQEND
  0
POLYLINE
  8
LPF3500_SMT
 66
1
 10
0.0000
 20
0.0000
 30
0.0000
 40
0.0020
 41
0.0020
  0
VERTEX
  8
LPF3500_SMT
 10
0.0838
 20
9.3260
 30
0.0000
  0
VERTEX
  8
LPF3500_SMT
 10
0.0838
 20
9.1600
 30
0.0000
  0
SEQEND
  0
POLYLINE
  8
LPF3500_SMT
 66
1
 10
0.0000
 20
0.0000
 30
0.0000
 40
0.0020
 41
0.0020
  0
VERTEX
  8
LPF3500_SMT
 10
0.0820
 20
9.3260
 30
0.0000
  0
VERTEX
  8
LPF3500_SMT
 10
0.0820
 20
9.1600
 30
0.0000
  0
SEQEND
  0
POLYLINE
  8
LPF3500_SMT
 66
1
 10
0.0000
 20
0.0000
 30
0.0000
 40
0.0020
 41
0.0020
  0
VERTEX
  8
LPF3500_SMT
 10
0.0802
 20
9.3260
 30
0.0000
  0
VERTEX
  8
LPF3500_SMT
 10
0.0802
 20
9.1600
 30
0.0000
  0
SEQEND
  0
POLYLINE
  8
LPF3500_SMT
 66
1
 10
0.0000
 20
0.0000
 30
0.0000
 40
0.0020
 41
0.0020
  0
VERTEX
  8
LPF3500_SMT
 10
0.0784
 20
9.3260
 30
0.0000
  0
VERTEX
  8
LPF3500_SMT
 10
0.0784
 20
9.1600
 30
0.0000
  0
SEQEND
  0
POLYLINE
  8
LPF3500_SMT
 66
1
 10
0.0000
 20
0.0000
 30
0.0000
 40
0.0020
 41
0.0020
  0
VERTEX
  8
LPF3500_SMT
 10
0.0766
 20
9.3260
 30
0.0000
  0
VERTEX
  8
LPF3500_SMT
 10
0.0766
 20
9.1600
 30
0.0000
  0
SEQEND
  0
POLYLINE
  8
LPF3500_SMT
 66
1
 10
0.0000
 20
0.0000
 30
0.0000
 40
0.0020
 41
0.0020
  0
VERTEX
  8
LPF3500_SMT
 10
0.0748
 20
9.3260
 30
0.0000
  0
VERTEX
  8
LPF3500_SMT
 10
0.0748
 20
9.1600
 30
0.0000
  0
SEQEND
  0
POLYLINE
  8
LPF3500_SMT
 66
1
 10
0.0000
 20
0.0000
 30
0.0000
 40
0.0020
 41
0.0020
  0
VERTEX
  8
LPF3500_SMT
 10
0.0730
 20
9.3260
 30
0.0000
  0
VERTEX
  8
LPF3500_SMT
 10
0.0730
 20
9.1600
 30
0.0000
  0
SEQEND
  0
POLYLINE
  8
LPF3500_SMT
 66
1
 10
0.0000
 20
0.0000
 30
0.0000
 40
0.0020
 41
0.0020
  0
VERTEX
  8
LPF3500_SMT
 10
0.0712
 20
9.3260
 30
0.0000
  0
VERTEX
  8
LPF3500_SMT
 10
0.0712
 20
9.1600
 30
0.0000
  0
SEQEND
  0
POLYLINE
  8
LPF3500_SMT
 66
1
 10
0.0000
 20
0.0000
 30
0.0000
 40
0.0020
 41
0.0020
  0
VERTEX
  8
LPF3500_SMT
 10
0.0694
 20
9.3260
 30
0.0000
  0
VERTEX
  8
LPF3500_SMT
 10
0.0694
 20
9.1600
 30
0.0000
  0
SEQEND
  0
POLYLINE
  8
LPF3500_SMT
 66
1
 10
0.0000
 20
0.0000
 30
0.0000
 40
0.0020
 41
0.0020
  0
VERTEX
  8
LPF3500_SMT
 10
0.0676
 20
9.3260
 30
0.0000
  0
VERTEX
  8
LPF3500_SMT
 10
0.0676
 20
9.1600
 30
0.0000
  0
SEQEND
  0
POLYLINE
  8
LPF3500_SMT
 66
1
 10
0.0000
 20
0.0000
 30
0.0000
 40
0.0020
 41
0.0020
  0
VERTEX
  8
LPF3500_SMT
 10
0.0658
 20
9.3260
 30
0.0000
  0
VERTEX
  8
LPF3500_SMT
 10
0.0658
 20
9.1600
 30
0.0000
  0
SEQEND
  0
POLYLINE
  8
LPF3500_SMT
 66
1
 10
0.0000
 20
0.0000
 30
0.0000
 40
0.0020
 41
0.0020
  0
VERTEX
  8
LPF3500_SMT
 10
0.0640
 20
9.3260
 30
0.0000
  0
VERTEX
  8
LPF3500_SMT
 10
0.0640
 20
9.1600
 30
0.0000
  0
SEQEND
  0
POLYLINE
  8
LPF3500_SMT
 66
1
 10
0.0000
 20
0.0000
 30
0.0000
 40
0.0020
 41
0.0020
  0
VERTEX
  8
LPF3500_SMT
 10
0.0622
 20
9.3260
 30
0.0000
  0
VERTEX
  8
LPF3500_SMT
 10
0.0622
 20
9.1600
 30
0.0000
  0
SEQEND
  0
POLYLINE
  8
LPF3500_SMT
 66
1
 10
0.0000
 20
0.0000
 30
0.0000
 40
0.0020
 41
0.0020
  0
VERTEX
  8
LPF3500_SMT
 10
0.0604
 20
9.3260
 30
0.0000
  0
VERTEX
  8
LPF3500_SMT
 10
0.0604
 20
9.1600
 30
0.0000
  0
SEQEND
  0
POLYLINE
  8
LPF3500_SMT
 66
1
 10
0.0000
 20
0.0000
 30
0.0000
 40
0.0020
 41
0.0020
  0
VERTEX
  8
LPF3500_SMT
 10
0.0586
 20
9.3260
 30
0.0000
  0
VERTEX
  8
LPF3500_SMT
 10
0.0586
 20
9.1600
 30
0.0000
  0
SEQEND
  0
POLYLINE
  8
LPF3500_SMT
 66
1
 10
0.0000
 20
0.0000
 30
0.0000
 40
0.0020
 41
0.0020
  0
VERTEX
  8
LPF3500_SMT
 10
0.0568
 20
9.3260
 30
0.0000
  0
VERTEX
  8
LPF3500_SMT
 10
0.0568
 20
9.1600
 30
0.0000
  0
SEQEND
  0
POLYLINE
  8
LPF3500_SMT
 66
1
 10
0.0000
 20
0.0000
 30
0.0000
 40
0.0020
 41
0.0020
  0
VERTEX
  8
LPF3500_SMT
 10
0.0550
 20
9.3260
 30
0.0000
  0
VERTEX
  8
LPF3500_SMT
 10
0.0550
 20
9.1600
 30
0.0000
  0
SEQEND
  0
POLYLINE
  8
LPF3500_SMT
 66
1
 10
0.0000
 20
0.0000
 30
0.0000
 40
0.0020
 41
0.0020
  0
VERTEX
  8
LPF3500_SMT
 10
0.0532
 20
9.3260
 30
0.0000
  0
VERTEX
  8
LPF3500_SMT
 10
0.0532
 20
9.1600
 30
0.0000
  0
SEQEND
  0
POLYLINE
  8
LPF3500_SMT
 66
1
 10
0.0000
 20
0.0000
 30
0.0000
 40
0.0020
 41
0.0020
  0
VERTEX
  8
LPF3500_SMT
 10
0.0514
 20
9.3260
 30
0.0000
  0
VERTEX
  8
LPF3500_SMT
 10
0.0514
 20
9.1600
 30
0.0000
  0
SEQEND
  0
POLYLINE
  8
LPF3500_SMT
 66
1
 10
0.0000
 20
0.0000
 30
0.0000
 40
0.0020
 41
0.0020
  0
VERTEX
  8
LPF3500_SMT
 10
0.0496
 20
9.3260
 30
0.0000
  0
VERTEX
  8
LPF3500_SMT
 10
0.0496
 20
9.1600
 30
0.0000
  0
SEQEND
  0
POLYLINE
  8
LPF3500_SMT
 66
1
 10
0.0000
 20
0.0000
 30
0.0000
 40
0.0020
 41
0.0020
  0
VERTEX
  8
LPF3500_SMT
 10
0.0478
 20
9.3260
 30
0.0000
  0
VERTEX
  8
LPF3500_SMT
 10
0.0478
 20
9.1600
 30
0.0000
  0
SEQEND
  0
POLYLINE
  8
LPF3500_SMT
 66
1
 10
0.0000
 20
0.0000
 30
0.0000
 40
0.0020
 41
0.0020
  0
VERTEX
  8
LPF3500_SMT
 10
0.0460
 20
9.3260
 30
0.0000
  0
VERTEX
  8
LPF3500_SMT
 10
0.0460
 20
9.1600
 30
0.0000
  0
SEQEND
  0
POLYLINE
  8
LPF3500_SMT
 66
1
 10
0.0000
 20
0.0000
 30
0.0000
 40
0.0020
 41
0.0020
  0
VERTEX
  8
LPF3500_SMT
 10
0.0442
 20
9.3260
 30
0.0000
  0
VERTEX
  8
LPF3500_SMT
 10
0.0442
 20
9.1600
 30
0.0000
  0
SEQEND
  0
POLYLINE
  8
LPF3500_SMT
 66
1
 10
0.0000
 20
0.0000
 30
0.0000
 40
0.0020
 41
0.0020
  0
VERTEX
  8
LPF3500_SMT
 10
0.0424
 20
9.3260
 30
0.0000
  0
VERTEX
  8
LPF3500_SMT
 10
0.0424
 20
9.1600
 30
0.0000
  0
SEQEND
  0
POLYLINE
  8
LPF3500_SMT
 66
1
 10
0.0000
 20
0.0000
 30
0.0000
 40
0.0020
 41
0.0020
  0
VERTEX
  8
LPF3500_SMT
 10
0.0406
 20
9.3260
 30
0.0000
  0
VERTEX
  8
LPF3500_SMT
 10
0.0406
 20
9.1600
 30
0.0000
  0
SEQEND
  0
POLYLINE
  8
LPF3500_SMT
 66
1
 10
0.0000
 20
0.0000
 30
0.0000
 40
0.0020
 41
0.0020
  0
VERTEX
  8
LPF3500_SMT
 10
0.0388
 20
9.3260
 30
0.0000
  0
VERTEX
  8
LPF3500_SMT
 10
0.0388
 20
9.1600
 30
0.0000
  0
SEQEND
  0
POLYLINE
  8
LPF3500_SMT
 66
1
 10
0.0000
 20
0.0000
 30
0.0000
 40
0.0020
 41
0.0020
  0
VERTEX
  8
LPF3500_SMT
 10
0.0370
 20
9.3260
 30
0.0000
  0
VERTEX
  8
LPF3500_SMT
 10
0.0370
 20
9.1600
 30
0.0000
  0
SEQEND
  0
POLYLINE
  8
LPF3500_SMT
 66
1
 10
0.0000
 20
0.0000
 30
0.0000
 40
0.0020
 41
0.0020
  0
VERTEX
  8
LPF3500_SMT
 10
0.0352
 20
9.3260
 30
0.0000
  0
VERTEX
  8
LPF3500_SMT
 10
0.0352
 20
9.1600
 30
0.0000
  0
SEQEND
  0
POLYLINE
  8
LPF3500_SMT
 66
1
 10
0.0000
 20
0.0000
 30
0.0000
 40
0.0020
 41
0.0020
  0
VERTEX
  8
LPF3500_SMT
 10
0.0334
 20
9.3260
 30
0.0000
  0
VERTEX
  8
LPF3500_SMT
 10
0.0334
 20
9.1600
 30
0.0000
  0
SEQEND
  0
POLYLINE
  8
LPF3500_SMT
 66
1
 10
0.0000
 20
0.0000
 30
0.0000
 40
0.0020
 41
0.0020
  0
VERTEX
  8
LPF3500_SMT
 10
0.0316
 20
9.3260
 30
0.0000
  0
VERTEX
  8
LPF3500_SMT
 10
0.0316
 20
9.1600
 30
0.0000
  0
SEQEND
  0
POLYLINE
  8
LPF3500_SMT
 66
1
 10
0.0000
 20
0.0000
 30
0.0000
 40
0.0020
 41
0.0020
  0
VERTEX
  8
LPF3500_SMT
 10
0.0298
 20
9.3260
 30
0.0000
  0
VERTEX
  8
LPF3500_SMT
 10
0.0298
 20
9.1600
 30
0.0000
  0
SEQEND
  0
POLYLINE
  8
LPF3500_SMT
 66
1
 10
0.0000
 20
0.0000
 30
0.0000
 40
0.0020
 41
0.0020
  0
VERTEX
  8
LPF3500_SMT
 10
0.0280
 20
9.3260
 30
0.0000
  0
VERTEX
  8
LPF3500_SMT
 10
0.0280
 20
9.1600
 30
0.0000
  0
SEQEND
  0
POLYLINE
  8
LPF3500_SMT
 66
1
 10
0.0000
 20
0.0000
 30
0.0000
 40
0.0020
 41
0.0020
  0
VERTEX
  8
LPF3500_SMT
 10
0.0262
 20
9.3260
 30
0.0000
  0
VERTEX
  8
LPF3500_SMT
 10
0.0262
 20
9.1600
 30
0.0000
  0
SEQEND
  0
POLYLINE
  8
LPF3500_SMT
 66
1
 10
0.0000
 20
0.0000
 30
0.0000
 40
0.0020
 41
0.0020
  0
VERTEX
  8
LPF3500_SMT
 10
0.0244
 20
9.3260
 30
0.0000
  0
VERTEX
  8
LPF3500_SMT
 10
0.0244
 20
9.1600
 30
0.0000
  0
SEQEND
  0
POLYLINE
  8
LPF3500_SMT
 66
1
 10
0.0000
 20
0.0000
 30
0.0000
 40
0.0020
 41
0.0020
  0
VERTEX
  8
LPF3500_SMT
 10
0.0226
 20
9.3260
 30
0.0000
  0
VERTEX
  8
LPF3500_SMT
 10
0.0226
 20
9.1600
 30
0.0000
  0
SEQEND
  0
POLYLINE
  8
LPF3500_SMT
 66
1
 10
0.0000
 20
0.0000
 30
0.0000
 40
0.0020
 41
0.0020
  0
VERTEX
  8
LPF3500_SMT
 10
0.0208
 20
9.3260
 30
0.0000
  0
VERTEX
  8
LPF3500_SMT
 10
0.0208
 20
9.1600
 30
0.0000
  0
SEQEND
  0
POLYLINE
  8
LPF3500_SMT
 66
1
 10
0.0000
 20
0.0000
 30
0.0000
 40
0.0020
 41
0.0020
  0
VERTEX
  8
LPF3500_SMT
 10
0.0190
 20
9.3260
 30
0.0000
  0
VERTEX
  8
LPF3500_SMT
 10
0.0190
 20
9.1600
 30
0.0000
  0
SEQEND
  0
POLYLINE
  8
LPF3500_SMT
 66
1
 10
0.0000
 20
0.0000
 30
0.0000
 40
0.0020
 41
0.0020
  0
VERTEX
  8
LPF3500_SMT
 10
0.0172
 20
9.3260
 30
0.0000
  0
VERTEX
  8
LPF3500_SMT
 10
0.0172
 20
9.1600
 30
0.0000
  0
SEQEND
  0
POLYLINE
  8
LPF3500_SMT
 66
1
 10
0.0000
 20
0.0000
 30
0.0000
 40
0.0020
 41
0.0020
  0
VERTEX
  8
LPF3500_SMT
 10
0.3630
 20
9.3242
 30
0.0000
  0
VERTEX
  8
LPF3500_SMT
 10
0.0150
 20
9.3242
 30
0.0000
  0
SEQEND
  0
POLYLINE
  8
LPF3500_SMT
 66
1
 10
0.0000
 20
0.0000
 30
0.0000
 40
0.0020
 41
0.0020
  0
VERTEX
  8
LPF3500_SMT
 10
0.3630
 20
9.3224
 30
0.0000
  0
VERTEX
  8
LPF3500_SMT
 10
0.0150
 20
9.3224
 30
0.0000
  0
SEQEND
  0
POLYLINE
  8
LPF3500_SMT
 66
1
 10
0.0000
 20
0.0000
 30
0.0000
 40
0.0020
 41
0.0020
  0
VERTEX
  8
LPF3500_SMT
 10
0.3630
 20
9.3206
 30
0.0000
  0
VERTEX
  8
LPF3500_SMT
 10
0.0150
 20
9.3206
 30
0.0000
  0
SEQEND
  0
POLYLINE
  8
LPF3500_SMT
 66
1
 10
0.0000
 20
0.0000
 30
0.0000
 40
0.0020
 41
0.0020
  0
VERTEX
  8
LPF3500_SMT
 10
0.3630
 20
9.3188
 30
0.0000
  0
VERTEX
  8
LPF3500_SMT
 10
0.0150
 20
9.3188
 30
0.0000
  0
SEQEND
  0
POLYLINE
  8
LPF3500_SMT
 66
1
 10
0.0000
 20
0.0000
 30
0.0000
 40
0.0020
 41
0.0020
  0
VERTEX
  8
LPF3500_SMT
 10
0.3630
 20
9.3170
 30
0.0000
  0
VERTEX
  8
LPF3500_SMT
 10
0.0150
 20
9.3170
 30
0.0000
  0
SEQEND
  0
POLYLINE
  8
LPF3500_SMT
 66
1
 10
0.0000
 20
0.0000
 30
0.0000
 40
0.0020
 41
0.0020
  0
VERTEX
  8
LPF3500_SMT
 10
0.3630
 20
9.3152
 30
0.0000
  0
VERTEX
  8
LPF3500_SMT
 10
0.0150
 20
9.3152
 30
0.0000
  0
SEQEND
  0
POLYLINE
  8
LPF3500_SMT
 66
1
 10
0.0000
 20
0.0000
 30
0.0000
 40
0.0020
 41
0.0020
  0
VERTEX
  8
LPF3500_SMT
 10
0.3630
 20
9.3134
 30
0.0000
  0
VERTEX
  8
LPF3500_SMT
 10
0.0150
 20
9.3134
 30
0.0000
  0
SEQEND
  0
POLYLINE
  8
LPF3500_SMT
 66
1
 10
0.0000
 20
0.0000
 30
0.0000
 40
0.0020
 41
0.0020
  0
VERTEX
  8
LPF3500_SMT
 10
0.3630
 20
9.3116
 30
0.0000
  0
VERTEX
  8
LPF3500_SMT
 10
0.0150
 20
9.3116
 30
0.0000
  0
SEQEND
  0
POLYLINE
  8
LPF3500_SMT
 66
1
 10
0.0000
 20
0.0000
 30
0.0000
 40
0.0020
 41
0.0020
  0
VERTEX
  8
LPF3500_SMT
 10
0.3630
 20
9.3098
 30
0.0000
  0
VERTEX
  8
LPF3500_SMT
 10
0.0150
 20
9.3098
 30
0.0000
  0
SEQEND
  0
POLYLINE
  8
LPF3500_SMT
 66
1
 10
0.0000
 20
0.0000
 30
0.0000
 40
0.0020
 41
0.0020
  0
VERTEX
  8
LPF3500_SMT
 10
0.3630
 20
9.3080
 30
0.0000
  0
VERTEX
  8
LPF3500_SMT
 10
0.0150
 20
9.3080
 30
0.0000
  0
SEQEND
  0
POLYLINE
  8
LPF3500_SMT
 66
1
 10
0.0000
 20
0.0000
 30
0.0000
 40
0.0020
 41
0.0020
  0
VERTEX
  8
LPF3500_SMT
 10
0.3630
 20
9.3062
 30
0.0000
  0
VERTEX
  8
LPF3500_SMT
 10
0.0150
 20
9.3062
 30
0.0000
  0
SEQEND
  0
POLYLINE
  8
LPF3500_SMT
 66
1
 10
0.0000
 20
0.0000
 30
0.0000
 40
0.0020
 41
0.0020
  0
VERTEX
  8
LPF3500_SMT
 10
0.3630
 20
9.3044
 30
0.0000
  0
VERTEX
  8
LPF3500_SMT
 10
0.0150
 20
9.3044
 30
0.0000
  0
SEQEND
  0
POLYLINE
  8
LPF3500_SMT
 66
1
 10
0.0000
 20
0.0000
 30
0.0000
 40
0.0020
 41
0.0020
  0
VERTEX
  8
LPF3500_SMT
 10
0.3630
 20
9.3026
 30
0.0000
  0
VERTEX
  8
LPF3500_SMT
 10
0.0150
 20
9.3026
 30
0.0000
  0
SEQEND
  0
POLYLINE
  8
LPF3500_SMT
 66
1
 10
0.0000
 20
0.0000
 30
0.0000
 40
0.0020
 41
0.0020
  0
VERTEX
  8
LPF3500_SMT
 10
0.3630
 20
9.3008
 30
0.0000
  0
VERTEX
  8
LPF3500_SMT
 10
0.0150
 20
9.3008
 30
0.0000
  0
SEQEND
  0
POLYLINE
  8
LPF3500_SMT
 66
1
 10
0.0000
 20
0.0000
 30
0.0000
 40
0.0020
 41
0.0020
  0
VERTEX
  8
LPF3500_SMT
 10
0.3630
 20
9.2990
 30
0.0000
  0
VERTEX
  8
LPF3500_SMT
 10
0.0150
 20
9.2990
 30
0.0000
  0
SEQEND
  0
POLYLINE
  8
LPF3500_SMT
 66
1
 10
0.0000
 20
0.0000
 30
0.0000
 40
0.0020
 41
0.0020
  0
VERTEX
  8
LPF3500_SMT
 10
0.3630
 20
9.2972
 30
0.0000
  0
VERTEX
  8
LPF3500_SMT
 10
0.0150
 20
9.2972
 30
0.0000
  0
SEQEND
  0
POLYLINE
  8
LPF3500_SMT
 66
1
 10
0.0000
 20
0.0000
 30
0.0000
 40
0.0020
 41
0.0020
  0
VERTEX
  8
LPF3500_SMT
 10
0.3630
 20
9.2954
 30
0.0000
  0
VERTEX
  8
LPF3500_SMT
 10
0.0150
 20
9.2954
 30
0.0000
  0
SEQEND
  0
POLYLINE
  8
LPF3500_SMT
 66
1
 10
0.0000
 20
0.0000
 30
0.0000
 40
0.0020
 41
0.0020
  0
VERTEX
  8
LPF3500_SMT
 10
0.3630
 20
9.2936
 30
0.0000
  0
VERTEX
  8
LPF3500_SMT
 10
0.0150
 20
9.2936
 30
0.0000
  0
SEQEND
  0
POLYLINE
  8
LPF3500_SMT
 66
1
 10
0.0000
 20
0.0000
 30
0.0000
 40
0.0020
 41
0.0020
  0
VERTEX
  8
LPF3500_SMT
 10
0.3630
 20
9.2918
 30
0.0000
  0
VERTEX
  8
LPF3500_SMT
 10
0.0150
 20
9.2918
 30
0.0000
  0
SEQEND
  0
POLYLINE
  8
LPF3500_SMT
 66
1
 10
0.0000
 20
0.0000
 30
0.0000
 40
0.0020
 41
0.0020
  0
VERTEX
  8
LPF3500_SMT
 10
0.3630
 20
9.2900
 30
0.0000
  0
VERTEX
  8
LPF3500_SMT
 10
0.0150
 20
9.2900
 30
0.0000
  0
SEQEND
  0
POLYLINE
  8
LPF3500_SMT
 66
1
 10
0.0000
 20
0.0000
 30
0.0000
 40
0.0020
 41
0.0020
  0
VERTEX
  8
LPF3500_SMT
 10
0.3630
 20
9.2882
 30
0.0000
  0
VERTEX
  8
LPF3500_SMT
 10
0.0150
 20
9.2882
 30
0.0000
  0
SEQEND
  0
POLYLINE
  8
LPF3500_SMT
 66
1
 10
0.0000
 20
0.0000
 30
0.0000
 40
0.0020
 41
0.0020
  0
VERTEX
  8
LPF3500_SMT
 10
0.3630
 20
9.2864
 30
0.0000
  0
VERTEX
  8
LPF3500_SMT
 10
0.0150
 20
9.2864
 30
0.0000
  0
SEQEND
  0
POLYLINE
  8
LPF3500_SMT
 66
1
 10
0.0000
 20
0.0000
 30
0.0000
 40
0.0020
 41
0.0020
  0
VERTEX
  8
LPF3500_SMT
 10
0.3630
 20
9.2846
 30
0.0000
  0
VERTEX
  8
LPF3500_SMT
 10
0.0150
 20
9.2846
 30
0.0000
  0
SEQEND
  0
POLYLINE
  8
LPF3500_SMT
 66
1
 10
0.0000
 20
0.0000
 30
0.0000
 40
0.0020
 41
0.0020
  0
VERTEX
  8
LPF3500_SMT
 10
0.3630
 20
9.2828
 30
0.0000
  0
VERTEX
  8
LPF3500_SMT
 10
0.0150
 20
9.2828
 30
0.0000
  0
SEQEND
  0
POLYLINE
  8
LPF3500_SMT
 66
1
 10
0.0000
 20
0.0000
 30
0.0000
 40
0.0020
 41
0.0020
  0
VERTEX
  8
LPF3500_SMT
 10
0.3630
 20
9.2810
 30
0.0000
  0
VERTEX
  8
LPF3500_SMT
 10
0.0150
 20
9.2810
 30
0.0000
  0
SEQEND
  0
POLYLINE
  8
LPF3500_SMT
 66
1
 10
0.0000
 20
0.0000
 30
0.0000
 40
0.0020
 41
0.0020
  0
VERTEX
  8
LPF3500_SMT
 10
0.3630
 20
9.2792
 30
0.0000
  0
VERTEX
  8
LPF3500_SMT
 10
0.0150
 20
9.2792
 30
0.0000
  0
SEQEND
  0
POLYLINE
  8
LPF3500_SMT
 66
1
 10
0.0000
 20
0.0000
 30
0.0000
 40
0.0020
 41
0.0020
  0
VERTEX
  8
LPF3500_SMT
 10
0.3630
 20
9.2774
 30
0.0000
  0
VERTEX
  8
LPF3500_SMT
 10
0.0150
 20
9.2774
 30
0.0000
  0
SEQEND
  0
POLYLINE
  8
LPF3500_SMT
 66
1
 10
0.0000
 20
0.0000
 30
0.0000
 40
0.0020
 41
0.0020
  0
VERTEX
  8
LPF3500_SMT
 10
0.3630
 20
9.2756
 30
0.0000
  0
VERTEX
  8
LPF3500_SMT
 10
0.0150
 20
9.2756
 30
0.0000
  0
SEQEND
  0
POLYLINE
  8
LPF3500_SMT
 66
1
 10
0.0000
 20
0.0000
 30
0.0000
 40
0.0020
 41
0.0020
  0
VERTEX
  8
LPF3500_SMT
 10
0.3630
 20
9.2738
 30
0.0000
  0
VERTEX
  8
LPF3500_SMT
 10
0.0150
 20
9.2738
 30
0.0000
  0
SEQEND
  0
POLYLINE
  8
LPF3500_SMT
 66
1
 10
0.0000
 20
0.0000
 30
0.0000
 40
0.0020
 41
0.0020
  0
VERTEX
  8
LPF3500_SMT
 10
0.3630
 20
9.2720
 30
0.0000
  0
VERTEX
  8
LPF3500_SMT
 10
0.0150
 20
9.2720
 30
0.0000
  0
SEQEND
  0
POLYLINE
  8
LPF3500_SMT
 66
1
 10
0.0000
 20
0.0000
 30
0.0000
 40
0.0020
 41
0.0020
  0
VERTEX
  8
LPF3500_SMT
 10
0.3630
 20
9.2702
 30
0.0000
  0
VERTEX
  8
LPF3500_SMT
 10
0.0150
 20
9.2702
 30
0.0000
  0
SEQEND
  0
POLYLINE
  8
LPF3500_SMT
 66
1
 10
0.0000
 20
0.0000
 30
0.0000
 40
0.0020
 41
0.0020
  0
VERTEX
  8
LPF3500_SMT
 10
0.3630
 20
9.2684
 30
0.0000
  0
VERTEX
  8
LPF3500_SMT
 10
0.0150
 20
9.2684
 30
0.0000
  0
SEQEND
  0
POLYLINE
  8
LPF3500_SMT
 66
1
 10
0.0000
 20
0.0000
 30
0.0000
 40
0.0020
 41
0.0020
  0
VERTEX
  8
LPF3500_SMT
 10
0.3630
 20
9.2666
 30
0.0000
  0
VERTEX
  8
LPF3500_SMT
 10
0.0150
 20
9.2666
 30
0.0000
  0
SEQEND
  0
POLYLINE
  8
LPF3500_SMT
 66
1
 10
0.0000
 20
0.0000
 30
0.0000
 40
0.0020
 41
0.0020
  0
VERTEX
  8
LPF3500_SMT
 10
0.3630
 20
9.2648
 30
0.0000
  0
VERTEX
  8
LPF3500_SMT
 10
0.0150
 20
9.2648
 30
0.0000
  0
SEQEND
  0
POLYLINE
  8
LPF3500_SMT
 66
1
 10
0.0000
 20
0.0000
 30
0.0000
 40
0.0020
 41
0.0020
  0
VERTEX
  8
LPF3500_SMT
 10
0.3630
 20
9.2630
 30
0.0000
  0
VERTEX
  8
LPF3500_SMT
 10
0.0150
 20
9.2630
 30
0.0000
  0
SEQEND
  0
POLYLINE
  8
LPF3500_SMT
 66
1
 10
0.0000
 20
0.0000
 30
0.0000
 40
0.0020
 41
0.0020
  0
VERTEX
  8
LPF3500_SMT
 10
0.3630
 20
9.2612
 30
0.0000
  0
VERTEX
  8
LPF3500_SMT
 10
0.0150
 20
9.2612
 30
0.0000
  0
SEQEND
  0
POLYLINE
  8
LPF3500_SMT
 66
1
 10
0.0000
 20
0.0000
 30
0.0000
 40
0.0020
 41
0.0020
  0
VERTEX
  8
LPF3500_SMT
 10
0.3630
 20
9.2594
 30
0.0000
  0
VERTEX
  8
LPF3500_SMT
 10
0.0150
 20
9.2594
 30
0.0000
  0
SEQEND
  0
POLYLINE
  8
LPF3500_SMT
 66
1
 10
0.0000
 20
0.0000
 30
0.0000
 40
0.0020
 41
0.0020
  0
VERTEX
  8
LPF3500_SMT
 10
0.3630
 20
9.2576
 30
0.0000
  0
VERTEX
  8
LPF3500_SMT
 10
0.0150
 20
9.2576
 30
0.0000
  0
SEQEND
  0
POLYLINE
  8
LPF3500_SMT
 66
1
 10
0.0000
 20
0.0000
 30
0.0000
 40
0.0020
 41
0.0020
  0
VERTEX
  8
LPF3500_SMT
 10
0.3630
 20
9.2558
 30
0.0000
  0
VERTEX
  8
LPF3500_SMT
 10
0.0150
 20
9.2558
 30
0.0000
  0
SEQEND
  0
POLYLINE
  8
LPF3500_SMT
 66
1
 10
0.0000
 20
0.0000
 30
0.0000
 40
0.0020
 41
0.0020
  0
VERTEX
  8
LPF3500_SMT
 10
0.3630
 20
9.2540
 30
0.0000
  0
VERTEX
  8
LPF3500_SMT
 10
0.0150
 20
9.2540
 30
0.0000
  0
SEQEND
  0
POLYLINE
  8
LPF3500_SMT
 66
1
 10
0.0000
 20
0.0000
 30
0.0000
 40
0.0020
 41
0.0020
  0
VERTEX
  8
LPF3500_SMT
 10
0.3630
 20
9.2522
 30
0.0000
  0
VERTEX
  8
LPF3500_SMT
 10
0.0150
 20
9.2522
 30
0.0000
  0
SEQEND
  0
POLYLINE
  8
LPF3500_SMT
 66
1
 10
0.0000
 20
0.0000
 30
0.0000
 40
0.0020
 41
0.0020
  0
VERTEX
  8
LPF3500_SMT
 10
0.3630
 20
9.2504
 30
0.0000
  0
VERTEX
  8
LPF3500_SMT
 10
0.0150
 20
9.2504
 30
0.0000
  0
SEQEND
  0
POLYLINE
  8
LPF3500_SMT
 66
1
 10
0.0000
 20
0.0000
 30
0.0000
 40
0.0020
 41
0.0020
  0
VERTEX
  8
LPF3500_SMT
 10
0.3630
 20
9.2486
 30
0.0000
  0
VERTEX
  8
LPF3500_SMT
 10
0.0150
 20
9.2486
 30
0.0000
  0
SEQEND
  0
POLYLINE
  8
LPF3500_SMT
 66
1
 10
0.0000
 20
0.0000
 30
0.0000
 40
0.0020
 41
0.0020
  0
VERTEX
  8
LPF3500_SMT
 10
0.3630
 20
9.2468
 30
0.0000
  0
VERTEX
  8
LPF3500_SMT
 10
0.0150
 20
9.2468
 30
0.0000
  0
SEQEND
  0
POLYLINE
  8
LPF3500_SMT
 66
1
 10
0.0000
 20
0.0000
 30
0.0000
 40
0.0020
 41
0.0020
  0
VERTEX
  8
LPF3500_SMT
 10
0.3630
 20
9.2450
 30
0.0000
  0
VERTEX
  8
LPF3500_SMT
 10
0.0150
 20
9.2450
 30
0.0000
  0
SEQEND
  0
POLYLINE
  8
LPF3500_SMT
 66
1
 10
0.0000
 20
0.0000
 30
0.0000
 40
0.0020
 41
0.0020
  0
VERTEX
  8
LPF3500_SMT
 10
0.3630
 20
9.2432
 30
0.0000
  0
VERTEX
  8
LPF3500_SMT
 10
0.0150
 20
9.2432
 30
0.0000
  0
SEQEND
  0
POLYLINE
  8
LPF3500_SMT
 66
1
 10
0.0000
 20
0.0000
 30
0.0000
 40
0.0020
 41
0.0020
  0
VERTEX
  8
LPF3500_SMT
 10
0.3630
 20
9.2414
 30
0.0000
  0
VERTEX
  8
LPF3500_SMT
 10
0.0150
 20
9.2414
 30
0.0000
  0
SEQEND
  0
POLYLINE
  8
LPF3500_SMT
 66
1
 10
0.0000
 20
0.0000
 30
0.0000
 40
0.0020
 41
0.0020
  0
VERTEX
  8
LPF3500_SMT
 10
0.3630
 20
9.2396
 30
0.0000
  0
VERTEX
  8
LPF3500_SMT
 10
0.0150
 20
9.2396
 30
0.0000
  0
SEQEND
  0
POLYLINE
  8
LPF3500_SMT
 66
1
 10
0.0000
 20
0.0000
 30
0.0000
 40
0.0020
 41
0.0020
  0
VERTEX
  8
LPF3500_SMT
 10
0.3630
 20
9.2378
 30
0.0000
  0
VERTEX
  8
LPF3500_SMT
 10
0.0150
 20
9.2378
 30
0.0000
  0
SEQEND
  0
POLYLINE
  8
LPF3500_SMT
 66
1
 10
0.0000
 20
0.0000
 30
0.0000
 40
0.0020
 41
0.0020
  0
VERTEX
  8
LPF3500_SMT
 10
0.3630
 20
9.2360
 30
0.0000
  0
VERTEX
  8
LPF3500_SMT
 10
0.0150
 20
9.2360
 30
0.0000
  0
SEQEND
  0
POLYLINE
  8
LPF3500_SMT
 66
1
 10
0.0000
 20
0.0000
 30
0.0000
 40
0.0020
 41
0.0020
  0
VERTEX
  8
LPF3500_SMT
 10
0.3630
 20
9.2342
 30
0.0000
  0
VERTEX
  8
LPF3500_SMT
 10
0.0150
 20
9.2342
 30
0.0000
  0
SEQEND
  0
POLYLINE
  8
LPF3500_SMT
 66
1
 10
0.0000
 20
0.0000
 30
0.0000
 40
0.0020
 41
0.0020
  0
VERTEX
  8
LPF3500_SMT
 10
0.3630
 20
9.2324
 30
0.0000
  0
VERTEX
  8
LPF3500_SMT
 10
0.0150
 20
9.2324
 30
0.0000
  0
SEQEND
  0
POLYLINE
  8
LPF3500_SMT
 66
1
 10
0.0000
 20
0.0000
 30
0.0000
 40
0.0020
 41
0.0020
  0
VERTEX
  8
LPF3500_SMT
 10
0.3630
 20
9.2306
 30
0.0000
  0
VERTEX
  8
LPF3500_SMT
 10
0.0150
 20
9.2306
 30
0.0000
  0
SEQEND
  0
POLYLINE
  8
LPF3500_SMT
 66
1
 10
0.0000
 20
0.0000
 30
0.0000
 40
0.0020
 41
0.0020
  0
VERTEX
  8
LPF3500_SMT
 10
0.3630
 20
9.2288
 30
0.0000
  0
VERTEX
  8
LPF3500_SMT
 10
0.0150
 20
9.2288
 30
0.0000
  0
SEQEND
  0
POLYLINE
  8
LPF3500_SMT
 66
1
 10
0.0000
 20
0.0000
 30
0.0000
 40
0.0020
 41
0.0020
  0
VERTEX
  8
LPF3500_SMT
 10
0.3630
 20
9.2270
 30
0.0000
  0
VERTEX
  8
LPF3500_SMT
 10
0.0150
 20
9.2270
 30
0.0000
  0
SEQEND
  0
POLYLINE
  8
LPF3500_SMT
 66
1
 10
0.0000
 20
0.0000
 30
0.0000
 40
0.0020
 41
0.0020
  0
VERTEX
  8
LPF3500_SMT
 10
0.3630
 20
9.2252
 30
0.0000
  0
VERTEX
  8
LPF3500_SMT
 10
0.0150
 20
9.2252
 30
0.0000
  0
SEQEND
  0
POLYLINE
  8
LPF3500_SMT
 66
1
 10
0.0000
 20
0.0000
 30
0.0000
 40
0.0020
 41
0.0020
  0
VERTEX
  8
LPF3500_SMT
 10
0.3630
 20
9.2234
 30
0.0000
  0
VERTEX
  8
LPF3500_SMT
 10
0.0150
 20
9.2234
 30
0.0000
  0
SEQEND
  0
POLYLINE
  8
LPF3500_SMT
 66
1
 10
0.0000
 20
0.0000
 30
0.0000
 40
0.0020
 41
0.0020
  0
VERTEX
  8
LPF3500_SMT
 10
0.3630
 20
9.2216
 30
0.0000
  0
VERTEX
  8
LPF3500_SMT
 10
0.0150
 20
9.2216
 30
0.0000
  0
SEQEND
  0
POLYLINE
  8
LPF3500_SMT
 66
1
 10
0.0000
 20
0.0000
 30
0.0000
 40
0.0020
 41
0.0020
  0
VERTEX
  8
LPF3500_SMT
 10
0.3630
 20
9.2198
 30
0.0000
  0
VERTEX
  8
LPF3500_SMT
 10
0.0150
 20
9.2198
 30
0.0000
  0
SEQEND
  0
POLYLINE
  8
LPF3500_SMT
 66
1
 10
0.0000
 20
0.0000
 30
0.0000
 40
0.0020
 41
0.0020
  0
VERTEX
  8
LPF3500_SMT
 10
0.3630
 20
9.2180
 30
0.0000
  0
VERTEX
  8
LPF3500_SMT
 10
0.0150
 20
9.2180
 30
0.0000
  0
SEQEND
  0
POLYLINE
  8
LPF3500_SMT
 66
1
 10
0.0000
 20
0.0000
 30
0.0000
 40
0.0020
 41
0.0020
  0
VERTEX
  8
LPF3500_SMT
 10
0.3630
 20
9.2162
 30
0.0000
  0
VERTEX
  8
LPF3500_SMT
 10
0.0150
 20
9.2162
 30
0.0000
  0
SEQEND
  0
POLYLINE
  8
LPF3500_SMT
 66
1
 10
0.0000
 20
0.0000
 30
0.0000
 40
0.0020
 41
0.0020
  0
VERTEX
  8
LPF3500_SMT
 10
0.3630
 20
9.2144
 30
0.0000
  0
VERTEX
  8
LPF3500_SMT
 10
0.0150
 20
9.2144
 30
0.0000
  0
SEQEND
  0
POLYLINE
  8
LPF3500_SMT
 66
1
 10
0.0000
 20
0.0000
 30
0.0000
 40
0.0020
 41
0.0020
  0
VERTEX
  8
LPF3500_SMT
 10
0.3630
 20
9.2126
 30
0.0000
  0
VERTEX
  8
LPF3500_SMT
 10
0.0150
 20
9.2126
 30
0.0000
  0
SEQEND
  0
POLYLINE
  8
LPF3500_SMT
 66
1
 10
0.0000
 20
0.0000
 30
0.0000
 40
0.0020
 41
0.0020
  0
VERTEX
  8
LPF3500_SMT
 10
0.3630
 20
9.2108
 30
0.0000
  0
VERTEX
  8
LPF3500_SMT
 10
0.0150
 20
9.2108
 30
0.0000
  0
SEQEND
  0
POLYLINE
  8
LPF3500_SMT
 66
1
 10
0.0000
 20
0.0000
 30
0.0000
 40
0.0020
 41
0.0020
  0
VERTEX
  8
LPF3500_SMT
 10
0.3630
 20
9.2090
 30
0.0000
  0
VERTEX
  8
LPF3500_SMT
 10
0.0150
 20
9.2090
 30
0.0000
  0
SEQEND
  0
POLYLINE
  8
LPF3500_SMT
 66
1
 10
0.0000
 20
0.0000
 30
0.0000
 40
0.0020
 41
0.0020
  0
VERTEX
  8
LPF3500_SMT
 10
0.3630
 20
9.2072
 30
0.0000
  0
VERTEX
  8
LPF3500_SMT
 10
0.0150
 20
9.2072
 30
0.0000
  0
SEQEND
  0
POLYLINE
  8
LPF3500_SMT
 66
1
 10
0.0000
 20
0.0000
 30
0.0000
 40
0.0020
 41
0.0020
  0
VERTEX
  8
LPF3500_SMT
 10
0.3630
 20
9.2054
 30
0.0000
  0
VERTEX
  8
LPF3500_SMT
 10
0.0150
 20
9.2054
 30
0.0000
  0
SEQEND
  0
POLYLINE
  8
LPF3500_SMT
 66
1
 10
0.0000
 20
0.0000
 30
0.0000
 40
0.0020
 41
0.0020
  0
VERTEX
  8
LPF3500_SMT
 10
0.3630
 20
9.2036
 30
0.0000
  0
VERTEX
  8
LPF3500_SMT
 10
0.0150
 20
9.2036
 30
0.0000
  0
SEQEND
  0
POLYLINE
  8
LPF3500_SMT
 66
1
 10
0.0000
 20
0.0000
 30
0.0000
 40
0.0020
 41
0.0020
  0
VERTEX
  8
LPF3500_SMT
 10
0.3630
 20
9.2018
 30
0.0000
  0
VERTEX
  8
LPF3500_SMT
 10
0.0150
 20
9.2018
 30
0.0000
  0
SEQEND
  0
POLYLINE
  8
LPF3500_SMT
 66
1
 10
0.0000
 20
0.0000
 30
0.0000
 40
0.0020
 41
0.0020
  0
VERTEX
  8
LPF3500_SMT
 10
0.3630
 20
9.2000
 30
0.0000
  0
VERTEX
  8
LPF3500_SMT
 10
0.0150
 20
9.2000
 30
0.0000
  0
SEQEND
  0
POLYLINE
  8
LPF3500_SMT
 66
1
 10
0.0000
 20
0.0000
 30
0.0000
 40
0.0020
 41
0.0020
  0
VERTEX
  8
LPF3500_SMT
 10
0.3630
 20
9.1982
 30
0.0000
  0
VERTEX
  8
LPF3500_SMT
 10
0.0150
 20
9.1982
 30
0.0000
  0
SEQEND
  0
POLYLINE
  8
LPF3500_SMT
 66
1
 10
0.0000
 20
0.0000
 30
0.0000
 40
0.0020
 41
0.0020
  0
VERTEX
  8
LPF3500_SMT
 10
0.3630
 20
9.1964
 30
0.0000
  0
VERTEX
  8
LPF3500_SMT
 10
0.0150
 20
9.1964
 30
0.0000
  0
SEQEND
  0
POLYLINE
  8
LPF3500_SMT
 66
1
 10
0.0000
 20
0.0000
 30
0.0000
 40
0.0020
 41
0.0020
  0
VERTEX
  8
LPF3500_SMT
 10
0.3630
 20
9.1946
 30
0.0000
  0
VERTEX
  8
LPF3500_SMT
 10
0.0150
 20
9.1946
 30
0.0000
  0
SEQEND
  0
POLYLINE
  8
LPF3500_SMT
 66
1
 10
0.0000
 20
0.0000
 30
0.0000
 40
0.0020
 41
0.0020
  0
VERTEX
  8
LPF3500_SMT
 10
0.3630
 20
9.1928
 30
0.0000
  0
VERTEX
  8
LPF3500_SMT
 10
0.0150
 20
9.1928
 30
0.0000
  0
SEQEND
  0
POLYLINE
  8
LPF3500_SMT
 66
1
 10
0.0000
 20
0.0000
 30
0.0000
 40
0.0020
 41
0.0020
  0
VERTEX
  8
LPF3500_SMT
 10
0.3630
 20
9.1910
 30
0.0000
  0
VERTEX
  8
LPF3500_SMT
 10
0.0150
 20
9.1910
 30
0.0000
  0
SEQEND
  0
POLYLINE
  8
LPF3500_SMT
 66
1
 10
0.0000
 20
0.0000
 30
0.0000
 40
0.0020
 41
0.0020
  0
VERTEX
  8
LPF3500_SMT
 10
0.3630
 20
9.1892
 30
0.0000
  0
VERTEX
  8
LPF3500_SMT
 10
0.0150
 20
9.1892
 30
0.0000
  0
SEQEND
  0
POLYLINE
  8
LPF3500_SMT
 66
1
 10
0.0000
 20
0.0000
 30
0.0000
 40
0.0020
 41
0.0020
  0
VERTEX
  8
LPF3500_SMT
 10
0.3630
 20
9.1874
 30
0.0000
  0
VERTEX
  8
LPF3500_SMT
 10
0.0150
 20
9.1874
 30
0.0000
  0
SEQEND
  0
POLYLINE
  8
LPF3500_SMT
 66
1
 10
0.0000
 20
0.0000
 30
0.0000
 40
0.0020
 41
0.0020
  0
VERTEX
  8
LPF3500_SMT
 10
0.3630
 20
9.1856
 30
0.0000
  0
VERTEX
  8
LPF3500_SMT
 10
0.0150
 20
9.1856
 30
0.0000
  0
SEQEND
  0
POLYLINE
  8
LPF3500_SMT
 66
1
 10
0.0000
 20
0.0000
 30
0.0000
 40
0.0020
 41
0.0020
  0
VERTEX
  8
LPF3500_SMT
 10
0.3630
 20
9.1838
 30
0.0000
  0
VERTEX
  8
LPF3500_SMT
 10
0.0150
 20
9.1838
 30
0.0000
  0
SEQEND
  0
POLYLINE
  8
LPF3500_SMT
 66
1
 10
0.0000
 20
0.0000
 30
0.0000
 40
0.0020
 41
0.0020
  0
VERTEX
  8
LPF3500_SMT
 10
0.3630
 20
9.1820
 30
0.0000
  0
VERTEX
  8
LPF3500_SMT
 10
0.0150
 20
9.1820
 30
0.0000
  0
SEQEND
  0
POLYLINE
  8
LPF3500_SMT
 66
1
 10
0.0000
 20
0.0000
 30
0.0000
 40
0.0020
 41
0.0020
  0
VERTEX
  8
LPF3500_SMT
 10
0.3630
 20
9.1802
 30
0.0000
  0
VERTEX
  8
LPF3500_SMT
 10
0.0150
 20
9.1802
 30
0.0000
  0
SEQEND
  0
POLYLINE
  8
LPF3500_SMT
 66
1
 10
0.0000
 20
0.0000
 30
0.0000
 40
0.0020
 41
0.0020
  0
VERTEX
  8
LPF3500_SMT
 10
0.3630
 20
9.1784
 30
0.0000
  0
VERTEX
  8
LPF3500_SMT
 10
0.0150
 20
9.1784
 30
0.0000
  0
SEQEND
  0
POLYLINE
  8
LPF3500_SMT
 66
1
 10
0.0000
 20
0.0000
 30
0.0000
 40
0.0020
 41
0.0020
  0
VERTEX
  8
LPF3500_SMT
 10
0.3630
 20
9.1766
 30
0.0000
  0
VERTEX
  8
LPF3500_SMT
 10
0.0150
 20
9.1766
 30
0.0000
  0
SEQEND
  0
POLYLINE
  8
LPF3500_SMT
 66
1
 10
0.0000
 20
0.0000
 30
0.0000
 40
0.0020
 41
0.0020
  0
VERTEX
  8
LPF3500_SMT
 10
0.3630
 20
9.1748
 30
0.0000
  0
VERTEX
  8
LPF3500_SMT
 10
0.0150
 20
9.1748
 30
0.0000
  0
SEQEND
  0
POLYLINE
  8
LPF3500_SMT
 66
1
 10
0.0000
 20
0.0000
 30
0.0000
 40
0.0020
 41
0.0020
  0
VERTEX
  8
LPF3500_SMT
 10
0.3630
 20
9.1730
 30
0.0000
  0
VERTEX
  8
LPF3500_SMT
 10
0.0150
 20
9.1730
 30
0.0000
  0
SEQEND
  0
POLYLINE
  8
LPF3500_SMT
 66
1
 10
0.0000
 20
0.0000
 30
0.0000
 40
0.0020
 41
0.0020
  0
VERTEX
  8
LPF3500_SMT
 10
0.3630
 20
9.1712
 30
0.0000
  0
VERTEX
  8
LPF3500_SMT
 10
0.0150
 20
9.1712
 30
0.0000
  0
SEQEND
  0
POLYLINE
  8
LPF3500_SMT
 66
1
 10
0.0000
 20
0.0000
 30
0.0000
 40
0.0020
 41
0.0020
  0
VERTEX
  8
LPF3500_SMT
 10
0.3630
 20
9.1694
 30
0.0000
  0
VERTEX
  8
LPF3500_SMT
 10
0.0150
 20
9.1694
 30
0.0000
  0
SEQEND
  0
POLYLINE
  8
LPF3500_SMT
 66
1
 10
0.0000
 20
0.0000
 30
0.0000
 40
0.0020
 41
0.0020
  0
VERTEX
  8
LPF3500_SMT
 10
0.3630
 20
9.1676
 30
0.0000
  0
VERTEX
  8
LPF3500_SMT
 10
0.0150
 20
9.1676
 30
0.0000
  0
SEQEND
  0
POLYLINE
  8
LPF3500_SMT
 66
1
 10
0.0000
 20
0.0000
 30
0.0000
 40
0.0020
 41
0.0020
  0
VERTEX
  8
LPF3500_SMT
 10
0.3630
 20
9.1658
 30
0.0000
  0
VERTEX
  8
LPF3500_SMT
 10
0.0150
 20
9.1658
 30
0.0000
  0
SEQEND
  0
POLYLINE
  8
LPF3500_SMT
 66
1
 10
0.0000
 20
0.0000
 30
0.0000
 40
0.0020
 41
0.0020
  0
VERTEX
  8
LPF3500_SMT
 10
0.3630
 20
9.1640
 30
0.0000
  0
VERTEX
  8
LPF3500_SMT
 10
0.0150
 20
9.1640
 30
0.0000
  0
SEQEND
  0
POLYLINE
  8
LPF3500_SMT
 66
1
 10
0.0000
 20
0.0000
 30
0.0000
 40
0.0020
 41
0.0020
  0
VERTEX
  8
LPF3500_SMT
 10
0.3630
 20
9.1622
 30
0.0000
  0
VERTEX
  8
LPF3500_SMT
 10
0.0150
 20
9.1622
 30
0.0000
  0
SEQEND
  0
TEXT
  8
LPF3500_SMT
 10
0.1896
 20
5.8098
 30
0.0000
 40
0.0984375
 41
1.0000
 51
0.0000
 71
0
  1
All Mounting Holes are 0.156 inch Thru 10 places
 50
0.0000
  7
STYLE_4
  0
TEXT
  8
LPF3500_SMT
 10
0.1834
 20
5.5390
 30
0.0000
 40
0.0984375
 41
1.0000
 51
0.0000
 71
0
  1
Use 6-32 hex cap 1/2 inch long screw
 50
0.0000
  7
STYLE_4
  0
TEXT
  8
LPF3500_SMT
 10
0.1834
 20
5.2620
 30
0.0000
 40
0.0984375
 41
1.0000
 51
0.0000
 71
0
  1
or metric same.
 50
0.0000
  7
STYLE_4
  0
TEXT
  8
LPF3500_SMT
 10
0.5112
 20
9.1976
 30
0.0000
 40
0.0984375
 41
1.0000
 51
0.0000
 71
0
  1
Center Conductor
 50
0.0000
  7
STYLE_4
  0
TEXT
  8
LPF3500_SMT
 10
2.3235
 20
1.9557
 30
0.0000
 40
0.0984375
 41
1.0000
 51
0.0000
 71
0
  1
Center Conductor
 50
0.0000
  7
STYLE_4
  0
TEXT
  8
LPF3500_SMT
 10
0.0558
 20
1.3157
 30
0.0000
 40
0.065625
 41
1.0000
 51
0.0000
 71
0
  1
RF Sample FWD
 50
0.0000
  7
STYLE_0
  0
POLYLINE
  8
LPF3500_SMT
 66
1
 10
0.0000
 20
0.0000
 30
0.0000
 40
0.0040
 41
0.0040
  0
VERTEX
  8
LPF3500_SMT
 10
0.6620
 20
1.2973
 30
0.0000
  0
VERTEX
  8
LPF3500_SMT
 10
0.7558
 20
1.1526
 30
0.0000
  0
SEQEND
  0
TEXT
  8
LPF3500_SMT
 10
2.6097
 20
1.3619
 30
0.0000
 40
0.065625
 41
1.0000
 51
0.0000
 71
0
  1
RF Sample Rev
 50
0.0000
  7
STYLE_0
  0
POLYLINE
  8
LPF3500_SMT
 66
1
 10
0.0000
 20
0.0000
 30
0.0000
 40
0.0040
 41
0.0040
  0
VERTEX
  8
LPF3500_SMT
 10
2.6835
 20
1.3372
 30
0.0000
  0
VERTEX
  8
LPF3500_SMT
 10
2.6374
 20
1.1588
 30
0.0000
  0
SEQEND
  0
POLYLINE
  8
LPF3500_SMT
 66
1
 10
0.0000
 20
0.0000
 30
0.0000
 40
0.0040
 41
0.0040
  0
VERTEX
  8
LPF3500_SMT
 10
0.7512
 20
0.0818
 30
0.0000
  0
VERTEX
  8
LPF3500_SMT
 10
0.7512
 20
0.2295
 30
0.0000
  0
SEQEND
  0
POLYLINE
  8
LPF3500_SMT
 66
1
 10
0.0000
 20
0.0000
 30
0.0000
 40
0.0040
 41
0.0040
  0
VERTEX
  8
LPF3500_SMT
 10
2.6589
 20
0.0603
 30
0.0000
  0
VERTEX
  8
LPF3500_SMT
 10
2.6589
 20
0.2018
 30
0.0000
  0
SEQEND
  0
TEXT
  8
LPF3500_SMT
 10
0.4988
 20
0.2664
 30
0.0000
 40
0.065625
 41
1.0000
 51
0.0000
 71
0
  1
DC Out FWD
 50
0.0000
  7
STYLE_0
  0
TEXT
  8
LPF3500_SMT
 10
2.3697
 20
0.2664
 30
0.0000
 40
0.065625
 41
1.0000
 51
0.0000
 71
0
  1
DC Out Rev
 50
0.0000
  7
STYLE_0
  0
TEXT
  8
LPF3500_SMT
 10
0.1326
 20
4.3743
 30
0.0000
 40
0.065625
 41
1.0000
 51
0.0000
 71
0
  1
This filter offers RF detected voltages from detector diodes or direct RF
 50
0.0000
  7
STYLE_0
  0
TEXT
  8
LPF3500_SMT
 10
0.1388
 20
4.2389
 30
0.0000
 40
0.065625
 41
1.0000
 51
0.0000
 71
0
  1
Sample. Direct RF sample is useful for customers who need high 
 50
0.0000
  7
STYLE_0
  0
TEXT
  8
LPF3500_SMT
 10
0.1418
 20
4.0973
 30
0.0000
 40
0.065625
 41
1.0000
 51
0.0000
 71
0
  1
Precision RF measurement. In this case these signals should 
 50
0.0000
  7
STYLE_0
  0
TEXT
  8
LPF3500_SMT
 10
0.1480
 20
3.9804
 30
0.0000
 40
0.065625
 41
1.0000
 51
0.0000
 71
0
  1
be routed to log detectors with high dynamic range.
 50
0.0000
  7
STYLE_0
  0
TEXT
  8
LPF3500_SMT
 10
0.1080
 20
3.0388
 30
0.0000
 40
0.065625
 41
1.0000
 51
0.0000
 71
0
  1
When using direct RF sample adjust VR1 and VR2 for minimum detected
 50
0.0000
  7
STYLE_0
  0
TEXT
  8
LPF3500_SMT
 10
0.1143
 20
2.9157
 30
0.0000
 40
0.065625
 41
1.0000
 51
0.0000
 71
0
  1
voltage. This will "disconnect" the diode detector by presenting a high 
 50
0.0000
  7
STYLE_0
  0
TEXT
  8
LPF3500_SMT
 10
0.1204
 20
2.7865
 30
0.0000
 40
0.065625
 41
1.0000
 51
0.0000
 71
0
  1
impedance at the RF sample point. 
 50
0.0000
  7
STYLE_0
  0
POLYLINE
  8
LPF3500_SMT
 66
1
 10
0.0000
 20
0.0000
 30
0.0000
 40
0.0040
 41
0.0040
  0
VERTEX
  8
LPF3500_SMT
 10
0.2842
 20
7.9732
 30
0.0000
  0
VERTEX
  8
LPF3500_SMT
 10
0.9500
 20
7.9732
 30
0.0000
  0
SEQEND
  0
POLYLINE
  8
LPF3500_SMT
 66
1
 10
0.0000
 20
0.0000
 30
0.0000
 40
0.0040
 41
0.0040
  0
VERTEX
  8
LPF3500_SMT
 10
0.2782
 20
7.9762
 30
0.0000
  0
VERTEX
  8
LPF3500_SMT
 10
0.3501
 20
8.0512
 30
0.0000
  0
SEQEND
  0
POLYLINE
  8
LPF3500_SMT
 66
1
 10
0.0000
 20
0.0000
 30
0.0000
 40
0.0040
 41
0.0040
  0
VERTEX
  8
LPF3500_SMT
 10
0.2782
 20
7.9739
 30
0.0000
  0
VERTEX
  8
LPF3500_SMT
 10
0.3487
 20
7.9065
 30
0.0000
  0
SEQEND
  0
TEXT
  8
LPF3500_SMT
 10
1.0107
 20
7.9469
 30
0.0000
 40
0.065625
 41
1.0000
 51
0.0000
 71
0
  1
Mounting Holes, 10 places.
 50
0.0000
  7
STYLE_0
  0
POLYLINE
  8
LPF3500_SST
 66
1
 10
0.0000
 20
0.0000
 30
0.0000
 40
0.0080
 41
0.0080
  0
VERTEX
  8
LPF3500_SST
 10
1.0228
 20
0.7894
 30
0.0000
  0
VERTEX
  8
LPF3500_SST
 10
1.0084
 20
0.7894
 30
0.0000
  0
SEQEND
  0
POLYLINE
  8
LPF3500_SST
 66
1
 10
0.0000
 20
0.0000
 30
0.0000
 40
0.0080
 41
0.0080
  0
VERTEX
  8
LPF3500_SST
 10
1.0156
 20
0.7894
 30
0.0000
  0
VERTEX
  8
LPF3500_SST
 10
1.0156
 20
0.8327
 30
0.0000
  0
VERTEX
  8
LPF3500_SST
 10
1.0084
 20
0.8255
 30
0.0000
  0
SEQEND
  0
POLYLINE
  8
LPF3500_SST
 66
1
 10
0.0000
 20
0.0000
 30
0.0000
 40
0.0080
 41
0.0080
  0
VERTEX
  8
LPF3500_SST
 10
0.9707
 20
0.8110
 30
0.0000
  0
VERTEX
  8
LPF3500_SST
 10
0.9815
 20
0.7894
 30
0.0000
  0
SEQEND
  0
POLYLINE
  8
LPF3500_SST
 66
1
 10
0.0000
 20
0.0000
 30
0.0000
 40
0.0080
 41
0.0080
  0
VERTEX
  8
LPF3500_SST
 10
0.9526
 20
0.8110
 30
0.0000
  0
VERTEX
  8
LPF3500_SST
 10
0.9743
 20
0.8110
 30
0.0000
  0
VERTEX
  8
LPF3500_SST
 10
0.9815
 20
0.8183
 30
0.0000
  0
VERTEX
  8
LPF3500_SST
 10
0.9815
 20
0.8255
 30
0.0000
  0
VERTEX
  8
LPF3500_SST
 10
0.9743
 20
0.8327
 30
0.0000
  0
VERTEX
  8
LPF3500_SST
 10
0.9526
 20
0.8327
 30
0.0000
  0
VERTEX
  8
LPF3500_SST
 10
0.9526
 20
0.7894
 30
0.0000
  0
SEQEND
  0
POLYLINE
  8
LPF3500_SST
 66
1
 10
0.0000
 20
0.0000
 30
0.0000
 40
0.0080
 41
0.0080
  0
VERTEX
  8
LPF3500_SST
 10
0.9330
 20
0.8327
 30
0.0000
  0
VERTEX
  8
LPF3500_SST
 10
0.9330
 20
0.8183
 30
0.0000
  0
VERTEX
  8
LPF3500_SST
 10
0.9186
 20
0.7894
 30
0.0000
  0
VERTEX
  8
LPF3500_SST
 10
0.9041
 20
0.8183
 30
0.0000
  0
VERTEX
  8
LPF3500_SST
 10
0.9041
 20
0.8327
 30
0.0000
  0
SEQEND
  0
POLYLINE
  8
LPF3500_SST
 66
1
 10
0.0000
 20
0.0000
 30
0.0000
 40
0.0080
 41
0.0080
  0
VERTEX
  8
LPF3500_SST
 10
2.1549
 20
0.8365
 30
0.0000
  0
VERTEX
  8
LPF3500_SST
 10
2.1657
 20
0.8149
 30
0.0000
  0
SEQEND
  0
POLYLINE
  8
LPF3500_SST
 66
1
 10
0.0000
 20
0.0000
 30
0.0000
 40
0.0080
 41
0.0080
  0
VERTEX
  8
LPF3500_SST
 10
2.1368
 20
0.8365
 30
0.0000
  0
VERTEX
  8
LPF3500_SST
 10
2.1585
 20
0.8365
 30
0.0000
  0
VERTEX
  8
LPF3500_SST
 10
2.1657
 20
0.8438
 30
0.0000
  0
VERTEX
  8
LPF3500_SST
 10
2.1657
 20
0.8510
 30
0.0000
  0
VERTEX
  8
LPF3500_SST
 10
2.1585
 20
0.8582
 30
0.0000
  0
VERTEX
  8
LPF3500_SST
 10
2.1368
 20
0.8582
 30
0.0000
  0
VERTEX
  8
LPF3500_SST
 10
2.1368
 20
0.8149
 30
0.0000
  0
SEQEND
  0
POLYLINE
  8
LPF3500_SST
 66
1
 10
0.0000
 20
0.0000
 30
0.0000
 40
0.0080
 41
0.0080
  0
VERTEX
  8
LPF3500_SST
 10
2.1100
 20
0.8365
 30
0.0000
  0
VERTEX
  8
LPF3500_SST
 10
2.0883
 20
0.8365
 30
0.0000
  0
SEQEND
  0
POLYLINE
  8
LPF3500_SST
 66
1
 10
0.0000
 20
0.0000
 30
0.0000
 40
0.0080
 41
0.0080
  0
VERTEX
  8
LPF3500_SST
 10
2.1172
 20
0.8149
 30
0.0000
  0
VERTEX
  8
LPF3500_SST
 10
2.0883
 20
0.8149
 30
0.0000
  0
VERTEX
  8
LPF3500_SST
 10
2.0883
 20
0.8582
 30
0.0000
  0
VERTEX
  8
LPF3500_SST
 10
2.1172
 20
0.8582
 30
0.0000
  0
SEQEND
  0
POLYLINE
  8
LPF3500_SST
 66
1
 10
0.0000
 20
0.0000
 30
0.0000
 40
0.0080
 41
0.0080
  0
VERTEX
  8
LPF3500_SST
 10
2.0543
 20
0.8149
 30
0.0000
  0
VERTEX
  8
LPF3500_SST
 10
2.0543
 20
0.8582
 30
0.0000
  0
SEQEND
  0
POLYLINE
  8
LPF3500_SST
 66
1
 10
0.0000
 20
0.0000
 30
0.0000
 40
0.0080
 41
0.0080
  0
VERTEX
  8
LPF3500_SST
 10
2.0687
 20
0.8582
 30
0.0000
  0
VERTEX
  8
LPF3500_SST
 10
2.0398
 20
0.8582
 30
0.0000
  0
SEQEND
  0
POLYLINE
  8
LPF3500_SST
 66
1
 10
0.0000
 20
0.0000
 30
0.0000
 40
0.0080
 41
0.0080
  0
VERTEX
  8
LPF3500_SST
 10
2.0202
 20
0.8149
 30
0.0000
  0
VERTEX
  8
LPF3500_SST
 10
1.9950
 20
0.8149
 30
0.0000
  0
VERTEX
  8
LPF3500_SST
 10
1.9950
 20
0.8582
 30
0.0000
  0
SEQEND
  0
POLYLINE
  8
LPF3500_SST
 66
1
 10
0.0000
 20
0.0000
 30
0.0000
 40
0.0080
 41
0.0080
  0
VERTEX
  8
LPF3500_SST
 10
1.9754
 20
0.8149
 30
0.0000
  0
VERTEX
  8
LPF3500_SST
 10
1.9609
 20
0.8149
 30
0.0000
  0
SEQEND
  0
POLYLINE
  8
LPF3500_SST
 66
1
 10
0.0000
 20
0.0000
 30
0.0000
 40
0.0080
 41
0.0080
  0
VERTEX
  8
LPF3500_SST
 10
1.9681
 20
0.8149
 30
0.0000
  0
VERTEX
  8
LPF3500_SST
 10
1.9681
 20
0.8582
 30
0.0000
  0
SEQEND
  0
POLYLINE
  8
LPF3500_SST
 66
1
 10
0.0000
 20
0.0000
 30
0.0000
 40
0.0080
 41
0.0080
  0
VERTEX
  8
LPF3500_SST
 10
1.9754
 20
0.8582
 30
0.0000
  0
VERTEX
  8
LPF3500_SST
 10
1.9609
 20
0.8582
 30
0.0000
  0
SEQEND
  0
POLYLINE
  8
LPF3500_SST
 66
1
 10
0.0000
 20
0.0000
 30
0.0000
 40
0.0080
 41
0.0080
  0
VERTEX
  8
LPF3500_SST
 10
1.9269
 20
0.8365
 30
0.0000
  0
VERTEX
  8
LPF3500_SST
 10
1.9052
 20
0.8365
 30
0.0000
  0
SEQEND
  0
POLYLINE
  8
LPF3500_SST
 66
1
 10
0.0000
 20
0.0000
 30
0.0000
 40
0.0080
 41
0.0080
  0
VERTEX
  8
LPF3500_SST
 10
1.9052
 20
0.8149
 30
0.0000
  0
VERTEX
  8
LPF3500_SST
 10
1.9052
 20
0.8582
 30
0.0000
  0
VERTEX
  8
LPF3500_SST
 10
1.9341
 20
0.8582
 30
0.0000
  0
SEQEND
  0
POLYLINE
  8
LPF3500_SST
 66
1
 10
0.0000
 20
0.0000
 30
0.0000
 40
0.0080
 41
0.0080
  0
VERTEX
  8
LPF3500_SST
 10
1.8209
 20
0.8510
 30
0.0000
  0
VERTEX
  8
LPF3500_SST
 10
1.8172
 20
0.8582
 30
0.0000
  0
VERTEX
  8
LPF3500_SST
 10
1.7956
 20
0.8582
 30
0.0000
  0
VERTEX
  8
LPF3500_SST
 10
1.7920
 20
0.8510
 30
0.0000
  0
VERTEX
  8
LPF3500_SST
 10
1.7920
 20
0.8438
 30
0.0000
  0
VERTEX
  8
LPF3500_SST
 10
1.7956
 20
0.8365
 30
0.0000
  0
VERTEX
  8
LPF3500_SST
 10
1.8172
 20
0.8365
 30
0.0000
  0
VERTEX
  8
LPF3500_SST
 10
1.8209
 20
0.8293
 30
0.0000
  0
VERTEX
  8
LPF3500_SST
 10
1.8209
 20
0.8221
 30
0.0000
  0
VERTEX
  8
LPF3500_SST
 10
1.8172
 20
0.8149
 30
0.0000
  0
VERTEX
  8
LPF3500_SST
 10
1.7956
 20
0.8149
 30
0.0000
  0
VERTEX
  8
LPF3500_SST
 10
1.7920
 20
0.8221
 30
0.0000
  0
SEQEND
  0
POLYLINE
  8
LPF3500_SST
 66
1
 10
0.0000
 20
0.0000
 30
0.0000
 40
0.0080
 41
0.0080
  0
VERTEX
  8
LPF3500_SST
 10
1.7724
 20
0.8510
 30
0.0000
  0
VERTEX
  8
LPF3500_SST
 10
1.7687
 20
0.8582
 30
0.0000
  0
VERTEX
  8
LPF3500_SST
 10
1.7471
 20
0.8582
 30
0.0000
  0
VERTEX
  8
LPF3500_SST
 10
1.7435
 20
0.8510
 30
0.0000
  0
VERTEX
  8
LPF3500_SST
 10
1.7435
 20
0.8438
 30
0.0000
  0
VERTEX
  8
LPF3500_SST
 10
1.7471
 20
0.8365
 30
0.0000
  0
VERTEX
  8
LPF3500_SST
 10
1.7687
 20
0.8365
 30
0.0000
  0
VERTEX
  8
LPF3500_SST
 10
1.7724
 20
0.8293
 30
0.0000
  0
VERTEX
  8
LPF3500_SST
 10
1.7724
 20
0.8221
 30
0.0000
  0
VERTEX
  8
LPF3500_SST
 10
1.7687
 20
0.8149
 30
0.0000
  0
VERTEX
  8
LPF3500_SST
 10
1.7471
 20
0.8149
 30
0.0000
  0
VERTEX
  8
LPF3500_SST
 10
1.7435
 20
0.8221
 30
0.0000
  0
SEQEND
  0
POLYLINE
  8
LPF3500_SST
 66
1
 10
0.0000
 20
0.0000
 30
0.0000
 40
0.0080
 41
0.0080
  0
VERTEX
  8
LPF3500_SST
 10
1.7239
 20
0.8293
 30
0.0000
  0
VERTEX
  8
LPF3500_SST
 10
1.6950
 20
0.8293
 30
0.0000
  0
SEQEND
  0
POLYLINE
  8
LPF3500_SST
 66
1
 10
0.0000
 20
0.0000
 30
0.0000
 40
0.0080
 41
0.0080
  0
VERTEX
  8
LPF3500_SST
 10
1.7239
 20
0.8149
 30
0.0000
  0
VERTEX
  8
LPF3500_SST
 10
1.7239
 20
0.8365
 30
0.0000
  0
VERTEX
  8
LPF3500_SST
 10
1.7130
 20
0.8582
 30
0.0000
  0
VERTEX
  8
LPF3500_SST
 10
1.7058
 20
0.8582
 30
0.0000
  0
VERTEX
  8
LPF3500_SST
 10
1.6950
 20
0.8365
 30
0.0000
  0
VERTEX
  8
LPF3500_SST
 10
1.6950
 20
0.8149
 30
0.0000
  0
SEQEND
  0
POLYLINE
  8
LPF3500_SST
 66
1
 10
0.0000
 20
0.0000
 30
0.0000
 40
0.0080
 41
0.0080
  0
VERTEX
  8
LPF3500_SST
 10
1.6465
 20
0.8365
 30
0.0000
  0
VERTEX
  8
LPF3500_SST
 10
1.6681
 20
0.8365
 30
0.0000
  0
VERTEX
  8
LPF3500_SST
 10
1.6754
 20
0.8438
 30
0.0000
  0
VERTEX
  8
LPF3500_SST
 10
1.6754
 20
0.8510
 30
0.0000
  0
VERTEX
  8
LPF3500_SST
 10
1.6681
 20
0.8582
 30
0.0000
  0
VERTEX
  8
LPF3500_SST
 10
1.6465
 20
0.8582
 30
0.0000
  0
VERTEX
  8
LPF3500_SST
 10
1.6465
 20
0.8149
 30
0.0000
  0
SEQEND
  0
POLYLINE
  8
LPF3500_SST
 66
1
 10
0.0000
 20
0.0000
 30
0.0000
 40
0.0080
 41
0.0080
  0
VERTEX
  8
LPF3500_SST
 10
1.5621
 20
0.8582
 30
0.0000
  0
VERTEX
  8
LPF3500_SST
 10
1.5621
 20
0.8221
 30
0.0000
  0
VERTEX
  8
LPF3500_SST
 10
1.5585
 20
0.8149
 30
0.0000
  0
VERTEX
  8
LPF3500_SST
 10
1.5477
 20
0.8365
 30
0.0000
  0
SEQEND
  0
POLYLINE
  8
LPF3500_SST
 66
1
 10
0.0000
 20
0.0000
 30
0.0000
 40
0.0080
 41
0.0080
  0
VERTEX
  8
LPF3500_SST
 10
1.5477
 20
0.8438
 30
0.0000
  0
VERTEX
  8
LPF3500_SST
 10
1.5477
 20
0.8365
 30
0.0000
  0
VERTEX
  8
LPF3500_SST
 10
1.5368
 20
0.8149
 30
0.0000
  0
VERTEX
  8
LPF3500_SST
 10
1.5332
 20
0.8221
 30
0.0000
  0
VERTEX
  8
LPF3500_SST
 10
1.5332
 20
0.8582
 30
0.0000
  0
SEQEND
  0
POLYLINE
  8
LPF3500_SST
 66
1
 10
0.0000
 20
0.0000
 30
0.0000
 40
0.0080
 41
0.0080
  0
VERTEX
  8
LPF3500_SST
 10
1.4883
 20
0.8149
 30
0.0000
  0
VERTEX
  8
LPF3500_SST
 10
1.4847
 20
0.8221
 30
0.0000
  0
VERTEX
  8
LPF3500_SST
 10
1.4847
 20
0.8510
 30
0.0000
  0
VERTEX
  8
LPF3500_SST
 10
1.4883
 20
0.8582
 30
0.0000
  0
VERTEX
  8
LPF3500_SST
 10
1.5100
 20
0.8582
 30
0.0000
  0
VERTEX
  8
LPF3500_SST
 10
1.5136
 20
0.8510
 30
0.0000
  0
VERTEX
  8
LPF3500_SST
 10
1.5136
 20
0.8221
 30
0.0000
  0
VERTEX
  8
LPF3500_SST
 10
1.5100
 20
0.8149
 30
0.0000
  0
VERTEX
  8
LPF3500_SST
 10
1.4883
 20
0.8149
 30
0.0000
  0
SEQEND
  0
POLYLINE
  8
LPF3500_SST
 66
1
 10
0.0000
 20
0.0000
 30
0.0000
 40
0.0080
 41
0.0080
  0
VERTEX
  8
LPF3500_SST
 10
1.4651
 20
0.8149
 30
0.0000
  0
VERTEX
  8
LPF3500_SST
 10
1.4398
 20
0.8149
 30
0.0000
  0
VERTEX
  8
LPF3500_SST
 10
1.4398
 20
0.8582
 30
0.0000
  0
SEQEND
  0
POLYLINE
  8
LPF3500_SST
 66
1
 10
0.0000
 20
0.0000
 30
0.0000
 40
0.0080
 41
0.0080
  0
VERTEX
  8
LPF3500_SST
 10
1.3555
 20
0.8149
 30
0.0000
  0
VERTEX
  8
LPF3500_SST
 10
1.3555
 20
0.8582
 30
0.0000
  0
VERTEX
  8
LPF3500_SST
 10
1.3483
 20
0.8510
 30
0.0000
  0
VERTEX
  8
LPF3500_SST
 10
1.3411
 20
0.8365
 30
0.0000
  0
VERTEX
  8
LPF3500_SST
 10
1.3338
 20
0.8510
 30
0.0000
  0
VERTEX
  8
LPF3500_SST
 10
1.3266
 20
0.8582
 30
0.0000
  0
VERTEX
  8
LPF3500_SST
 10
1.3266
 20
0.8149
 30
0.0000
  0
SEQEND
  0
POLYLINE
  8
LPF3500_SST
 66
1
 10
0.0000
 20
0.0000
 30
0.0000
 40
0.0080
 41
0.0080
  0
VERTEX
  8
LPF3500_SST
 10
1.2998
 20
0.8365
 30
0.0000
  0
VERTEX
  8
LPF3500_SST
 10
1.2781
 20
0.8365
 30
0.0000
  0
SEQEND
  0
POLYLINE
  8
LPF3500_SST
 66
1
 10
0.0000
 20
0.0000
 30
0.0000
 40
0.0080
 41
0.0080
  0
VERTEX
  8
LPF3500_SST
 10
1.2781
 20
0.8149
 30
0.0000
  0
VERTEX
  8
LPF3500_SST
 10
1.2781
 20
0.8582
 30
0.0000
  0
VERTEX
  8
LPF3500_SST
 10
1.3070
 20
0.8582
 30
0.0000
  0
SEQEND
  0
POLYLINE
  8
LPF3500_SST
 66
1
 10
0.0000
 20
0.0000
 30
0.0000
 40
0.0080
 41
0.0080
  0
VERTEX
  8
LPF3500_SST
 10
2.5000
 20
0.7934
 30
0.0000
  0
VERTEX
  8
LPF3500_SST
 10
2.4711
 20
0.7934
 30
0.0000
  0
VERTEX
  8
LPF3500_SST
 10
2.5000
 20
0.8223
 30
0.0000
  0
VERTEX
  8
LPF3500_SST
 10
2.5000
 20
0.8295
 30
0.0000
  0
VERTEX
  8
LPF3500_SST
 10
2.4964
 20
0.8367
 30
0.0000
  0
VERTEX
  8
LPF3500_SST
 10
2.4747
 20
0.8367
 30
0.0000
  0
VERTEX
  8
LPF3500_SST
 10
2.4711
 20
0.8295
 30
0.0000
  0
SEQEND
  0
POLYLINE
  8
LPF3500_SST
 66
1
 10
0.0000
 20
0.0000
 30
0.0000
 40
0.0080
 41
0.0080
  0
VERTEX
  8
LPF3500_SST
 10
2.4407
 20
0.8150
 30
0.0000
  0
VERTEX
  8
LPF3500_SST
 10
2.4515
 20
0.7934
 30
0.0000
  0
SEQEND
  0
POLYLINE
  8
LPF3500_SST
 66
1
 10
0.0000
 20
0.0000
 30
0.0000
 40
0.0080
 41
0.0080
  0
VERTEX
  8
LPF3500_SST
 10
2.4226
 20
0.8150
 30
0.0000
  0
VERTEX
  8
LPF3500_SST
 10
2.4443
 20
0.8150
 30
0.0000
  0
VERTEX
  8
LPF3500_SST
 10
2.4515
 20
0.8223
 30
0.0000
  0
VERTEX
  8
LPF3500_SST
 10
2.4515
 20
0.8295
 30
0.0000
  0
VERTEX
  8
LPF3500_SST
 10
2.4443
 20
0.8367
 30
0.0000
  0
VERTEX
  8
LPF3500_SST
 10
2.4226
 20
0.8367
 30
0.0000
  0
VERTEX
  8
LPF3500_SST
 10
2.4226
 20
0.7934
 30
0.0000
  0
SEQEND
  0
POLYLINE
  8
LPF3500_SST
 66
1
 10
0.0000
 20
0.0000
 30
0.0000
 40
0.0080
 41
0.0080
  0
VERTEX
  8
LPF3500_SST
 10
2.4030
 20
0.8367
 30
0.0000
  0
VERTEX
  8
LPF3500_SST
 10
2.4030
 20
0.8223
 30
0.0000
  0
VERTEX
  8
LPF3500_SST
 10
2.3886
 20
0.7934
 30
0.0000
  0
VERTEX
  8
LPF3500_SST
 10
2.3741
 20
0.8223
 30
0.0000
  0
VERTEX
  8
LPF3500_SST
 10
2.3741
 20
0.8367
 30
0.0000
  0
SEQEND
  0
POLYLINE
  8
LPF3500_SST
 66
1
 10
0.0000
 20
0.0000
 30
0.0000
 40
0.0080
 41
0.0080
  0
VERTEX
  8
LPF3500_SST
 10
0.8364
 20
1.5292
 30
0.0000
  0
VERTEX
  8
LPF3500_SST
 10
0.8364
 20
1.5625
 30
0.0000
  0
SEQEND
  0
POLYLINE
  8
LPF3500_SST
 66
1
 10
0.0000
 20
0.0000
 30
0.0000
 40
0.0080
 41
0.0080
  0
VERTEX
  8
LPF3500_SST
 10
0.8336
 20
1.5292
 30
0.0000
  0
VERTEX
  8
LPF3500_SST
 10
0.8503
 20
1.5292
 30
0.0000
  0
VERTEX
  8
LPF3500_SST
 10
0.8559
 20
1.5403
 30
0.0000
  0
VERTEX
  8
LPF3500_SST
 10
0.8559
 20
1.5514
 30
0.0000
  0
VERTEX
  8
LPF3500_SST
 10
0.8503
 20
1.5625
 30
0.0000
  0
VERTEX
  8
LPF3500_SST
 10
0.8336
 20
1.5625
 30
0.0000
  0
SEQEND
  0
POLYLINE
  8
LPF3500_SST
 66
1
 10
0.0000
 20
0.0000
 30
0.0000
 40
0.0080
 41
0.0080
  0
VERTEX
  8
LPF3500_SST
 10
0.8149
 20
1.5625
 30
0.0000
  0
VERTEX
  8
LPF3500_SST
 10
0.8149
 20
1.5348
 30
0.0000
  0
VERTEX
  8
LPF3500_SST
 10
0.8121
 20
1.5292
 30
0.0000
  0
VERTEX
  8
LPF3500_SST
 10
0.8037
 20
1.5459
 30
0.0000
  0
SEQEND
  0
POLYLINE
  8
LPF3500_SST
 66
1
 10
0.0000
 20
0.0000
 30
0.0000
 40
0.0080
 41
0.0080
  0
VERTEX
  8
LPF3500_SST
 10
0.8037
 20
1.5514
 30
0.0000
  0
VERTEX
  8
LPF3500_SST
 10
0.8037
 20
1.5459
 30
0.0000
  0
VERTEX
  8
LPF3500_SST
 10
0.7954
 20
1.5292
 30
0.0000
  0
VERTEX
  8
LPF3500_SST
 10
0.7926
 20
1.5348
 30
0.0000
  0
VERTEX
  8
LPF3500_SST
 10
0.7926
 20
1.5625
 30
0.0000
  0
SEQEND
  0
POLYLINE
  8
LPF3500_SST
 66
1
 10
0.0000
 20
0.0000
 30
0.0000
 40
0.0080
 41
0.0080
  0
VERTEX
  8
LPF3500_SST
 10
0.7683
 20
1.5459
 30
0.0000
  0
VERTEX
  8
LPF3500_SST
 10
0.7516
 20
1.5459
 30
0.0000
  0
SEQEND
  0
POLYLINE
  8
LPF3500_SST
 66
1
 10
0.0000
 20
0.0000
 30
0.0000
 40
0.0080
 41
0.0080
  0
VERTEX
  8
LPF3500_SST
 10
0.7516
 20
1.5292
 30
0.0000
  0
VERTEX
  8
LPF3500_SST
 10
0.7516
 20
1.5625
 30
0.0000
  0
VERTEX
  8
LPF3500_SST
 10
0.7739
 20
1.5625
 30
0.0000
  0
SEQEND
  0
POLYLINE
  8
LPF3500_SST
 66
1
 10
0.0000
 20
0.0000
 30
0.0000
 40
0.0080
 41
0.0080
  0
VERTEX
  8
LPF3500_SST
 10
3.4990
 20
2.2220
 30
0.0000
  0
VERTEX
  8
LPF3500_SST
 10
3.4740
 20
2.2220
 30
0.0000
  0
SEQEND
  0
POLYLINE
  8
LPF3500_SST
 66
1
 10
0.0000
 20
0.0000
 30
0.0000
 40
0.0080
 41
0.0080
  0
VERTEX
  8
LPF3500_SST
 10
3.5031
 20
2.1887
 30
0.0000
  0
VERTEX
  8
LPF3500_SST
 10
3.4865
 20
2.1887
 30
0.0000
  0
VERTEX
  8
LPF3500_SST
 10
3.4823
 20
2.1970
 30
0.0000
  0
VERTEX
  8
LPF3500_SST
 10
3.4823
 20
2.2387
 30
0.0000
  0
SEQEND
  0
POLYLINE
  8
LPF3500_SST
 66
1
 10
0.0000
 20
0.0000
 30
0.0000
 40
0.0080
 41
0.0080
  0
VERTEX
  8
LPF3500_SST
 10
3.4496
 20
2.2220
 30
0.0000
  0
VERTEX
  8
LPF3500_SST
 10
3.4496
 20
2.1887
 30
0.0000
  0
SEQEND
  0
POLYLINE
  8
LPF3500_SST
 66
1
 10
0.0000
 20
0.0000
 30
0.0000
 40
0.0080
 41
0.0080
  0
VERTEX
  8
LPF3500_SST
 10
3.4538
 20
2.1887
 30
0.0000
  0
VERTEX
  8
LPF3500_SST
 10
3.4246
 20
2.1887
 30
0.0000
  0
VERTEX
  8
LPF3500_SST
 10
3.4205
 20
2.1970
 30
0.0000
  0
VERTEX
  8
LPF3500_SST
 10
3.4205
 20
2.2220
 30
0.0000
  0
SEQEND
  0
POLYLINE
  8
LPF3500_SST
 66
1
 10
0.0000
 20
0.0000
 30
0.0000
 40
0.0080
 41
0.0080
  0
VERTEX
  8
LPF3500_SST
 10
3.3711
 20
2.1720
 30
0.0000
  0
VERTEX
  8
LPF3500_SST
 10
3.3711
 20
2.2220
 30
0.0000
  0
VERTEX
  8
LPF3500_SST
 10
3.3961
 20
2.2220
 30
0.0000
  0
VERTEX
  8
LPF3500_SST
 10
3.4003
 20
2.2137
 30
0.0000
  0
VERTEX
  8
LPF3500_SST
 10
3.4003
 20
2.1970
 30
0.0000
  0
VERTEX
  8
LPF3500_SST
 10
3.3961
 20
2.1887
 30
0.0000
  0
VERTEX
  8
LPF3500_SST
 10
3.3711
 20
2.1887
 30
0.0000
  0
SEQEND
  0
POLYLINE
  8
LPF3500_SST
 66
1
 10
0.0000
 20
0.0000
 30
0.0000
 40
0.0080
 41
0.0080
  0
VERTEX
  8
LPF3500_SST
 10
3.3468
 20
2.2220
 30
0.0000
  0
VERTEX
  8
LPF3500_SST
 10
3.3218
 20
2.2220
 30
0.0000
  0
SEQEND
  0
POLYLINE
  8
LPF3500_SST
 66
1
 10
0.0000
 20
0.0000
 30
0.0000
 40
0.0080
 41
0.0080
  0
VERTEX
  8
LPF3500_SST
 10
3.3510
 20
2.1887
 30
0.0000
  0
VERTEX
  8
LPF3500_SST
 10
3.3343
 20
2.1887
 30
0.0000
  0
VERTEX
  8
LPF3500_SST
 10
3.3302
 20
2.1970
 30
0.0000
  0
VERTEX
  8
LPF3500_SST
 10
3.3302
 20
2.2387
 30
0.0000
  0
SEQEND
  0
POLYLINE
  8
LPF3500_SST
 66
1
 10
0.0000
 20
0.0000
 30
0.0000
 40
0.0080
 41
0.0080
  0
VERTEX
  8
LPF3500_SST
 10
3.2975
 20
2.2220
 30
0.0000
  0
VERTEX
  8
LPF3500_SST
 10
3.2975
 20
2.1887
 30
0.0000
  0
SEQEND
  0
POLYLINE
  8
LPF3500_SST
 66
1
 10
0.0000
 20
0.0000
 30
0.0000
 40
0.0080
 41
0.0080
  0
VERTEX
  8
LPF3500_SST
 10
3.3017
 20
2.1887
 30
0.0000
  0
VERTEX
  8
LPF3500_SST
 10
3.2725
 20
2.1887
 30
0.0000
  0
VERTEX
  8
LPF3500_SST
 10
3.2683
 20
2.1970
 30
0.0000
  0
VERTEX
  8
LPF3500_SST
 10
3.2683
 20
2.2220
 30
0.0000
  0
SEQEND
  0
POLYLINE
  8
LPF3500_SST
 66
1
 10
0.0000
 20
0.0000
 30
0.0000
 40
0.0080
 41
0.0080
  0
VERTEX
  8
LPF3500_SST
 10
3.2190
 20
2.1887
 30
0.0000
  0
VERTEX
  8
LPF3500_SST
 10
3.2148
 20
2.1970
 30
0.0000
  0
VERTEX
  8
LPF3500_SST
 10
3.2148
 20
2.2304
 30
0.0000
  0
VERTEX
  8
LPF3500_SST
 10
3.2190
 20
2.2387
 30
0.0000
  0
VERTEX
  8
LPF3500_SST
 10
3.2440
 20
2.2387
 30
0.0000
  0
VERTEX
  8
LPF3500_SST
 10
3.2482
 20
2.2304
 30
0.0000
  0
VERTEX
  8
LPF3500_SST
 10
3.2482
 20
2.1970
 30
0.0000
  0
VERTEX
  8
LPF3500_SST
 10
3.2440
 20
2.1887
 30
0.0000
  0
VERTEX
  8
LPF3500_SST
 10
3.2190
 20
2.1887
 30
0.0000
  0
SEQEND
  0
POLYLINE
  8
LPF3500_SST
 66
1
 10
0.0000
 20
0.0000
 30
0.0000
 40
0.0080
 41
0.0080
  0
VERTEX
  8
LPF3500_SST
 10
0.6921
 20
9.0210
 30
0.0000
  0
VERTEX
  8
LPF3500_SST
 10
0.6671
 20
9.0210
 30
0.0000
  0
SEQEND
  0
POLYLINE
  8
LPF3500_SST
 66
1
 10
0.0000
 20
0.0000
 30
0.0000
 40
0.0080
 41
0.0080
  0
VERTEX
  8
LPF3500_SST
 10
0.6963
 20
8.9877
 30
0.0000
  0
VERTEX
  8
LPF3500_SST
 10
0.6796
 20
8.9877
 30
0.0000
  0
VERTEX
  8
LPF3500_SST
 10
0.6755
 20
8.9960
 30
0.0000
  0
VERTEX
  8
LPF3500_SST
 10
0.6755
 20
9.0377
 30
0.0000
  0
SEQEND
  0
POLYLINE
  8
LPF3500_SST
 66
1
 10
0.0000
 20
0.0000
 30
0.0000
 40
0.0080
 41
0.0080
  0
VERTEX
  8
LPF3500_SST
 10
0.6428
 20
9.0210
 30
0.0000
  0
VERTEX
  8
LPF3500_SST
 10
0.6428
 20
8.9877
 30
0.0000
  0
SEQEND
  0
POLYLINE
  8
LPF3500_SST
 66
1
 10
0.0000
 20
0.0000
 30
0.0000
 40
0.0080
 41
0.0080
  0
VERTEX
  8
LPF3500_SST
 10
0.6470
 20
8.9877
 30
0.0000
  0
VERTEX
  8
LPF3500_SST
 10
0.6178
 20
8.9877
 30
0.0000
  0
VERTEX
  8
LPF3500_SST
 10
0.6136
 20
8.9960
 30
0.0000
  0
VERTEX
  8
LPF3500_SST
 10
0.6136
 20
9.0210
 30
0.0000
  0
SEQEND
  0
POLYLINE
  8
LPF3500_SST
 66
1
 10
0.0000
 20
0.0000
 30
0.0000
 40
0.0080
 41
0.0080
  0
VERTEX
  8
LPF3500_SST
 10
0.5643
 20
8.9710
 30
0.0000
  0
VERTEX
  8
LPF3500_SST
 10
0.5643
 20
9.0210
 30
0.0000
  0
VERTEX
  8
LPF3500_SST
 10
0.5893
 20
9.0210
 30
0.0000
  0
VERTEX
  8
LPF3500_SST
 10
0.5935
 20
9.0127
 30
0.0000
  0
VERTEX
  8
LPF3500_SST
 10
0.5935
 20
8.9960
 30
0.0000
  0
VERTEX
  8
LPF3500_SST
 10
0.5893
 20
8.9877
 30
0.0000
  0
VERTEX
  8
LPF3500_SST
 10
0.5643
 20
8.9877
 30
0.0000
  0
SEQEND
  0
POLYLINE
  8
LPF3500_SST
 66
1
 10
0.0000
 20
0.0000
 30
0.0000
 40
0.0080
 41
0.0080
  0
VERTEX
  8
LPF3500_SST
 10
0.5441
 20
8.9877
 30
0.0000
  0
VERTEX
  8
LPF3500_SST
 10
0.5441
 20
9.0127
 30
0.0000
  0
VERTEX
  8
LPF3500_SST
 10
0.5400
 20
9.0210
 30
0.0000
  0
VERTEX
  8
LPF3500_SST
 10
0.5150
 20
9.0210
 30
0.0000
  0
VERTEX
  8
LPF3500_SST
 10
0.5150
 20
8.9877
 30
0.0000
  0
SEQEND
  0
POLYLINE
  8
LPF3500_SST
 66
1
 10
0.0000
 20
0.0000
 30
0.0000
 40
0.0080
 41
0.0080
  0
VERTEX
  8
LPF3500_SST
 10
0.4948
 20
8.9877
 30
0.0000
  0
VERTEX
  8
LPF3500_SST
 10
0.4782
 20
8.9877
 30
0.0000
  0
SEQEND
  0
POLYLINE
  8
LPF3500_SST
 66
1
 10
0.0000
 20
0.0000
 30
0.0000
 40
0.0080
 41
0.0080
  0
VERTEX
  8
LPF3500_SST
 10
0.4865
 20
8.9877
 30
0.0000
  0
VERTEX
  8
LPF3500_SST
 10
0.4865
 20
9.0377
 30
0.0000
  0
SEQEND
  0
POLYLINE
  8
LPF3500_SST
 66
1
 10
0.0000
 20
0.0000
 30
0.0000
 40
0.0080
 41
0.0080
  0
VERTEX
  8
LPF3500_SST
 10
0.4948
 20
9.0377
 30
0.0000
  0
VERTEX
  8
LPF3500_SST
 10
0.4782
 20
9.0377
 30
0.0000
  0
SEQEND
  0
POLYLINE
  8
LPF3500_SST
 66
1
 10
0.0000
 20
0.0000
 30
0.0000
 40
0.0080
 41
0.0080
  0
VERTEX
  8
LPF3500_SST
 10
2.6517
 20
1.5511
 30
0.0000
  0
VERTEX
  8
LPF3500_SST
 10
2.6517
 20
1.5400
 30
0.0000
  0
VERTEX
  8
LPF3500_SST
 10
2.6405
 20
1.5177
 30
0.0000
  0
VERTEX
  8
LPF3500_SST
 10
2.6294
 20
1.5400
 30
0.0000
  0
VERTEX
  8
LPF3500_SST
 10
2.6294
 20
1.5511
 30
0.0000
  0
SEQEND
  0
POLYLINE
  8
LPF3500_SST
 66
1
 10
0.0000
 20
0.0000
 30
0.0000
 40
0.0080
 41
0.0080
  0
VERTEX
  8
LPF3500_SST
 10
2.6051
 20
1.5344
 30
0.0000
  0
VERTEX
  8
LPF3500_SST
 10
2.5884
 20
1.5344
 30
0.0000
  0
SEQEND
  0
POLYLINE
  8
LPF3500_SST
 66
1
 10
0.0000
 20
0.0000
 30
0.0000
 40
0.0080
 41
0.0080
  0
VERTEX
  8
LPF3500_SST
 10
2.6107
 20
1.5177
 30
0.0000
  0
VERTEX
  8
LPF3500_SST
 10
2.5884
 20
1.5177
 30
0.0000
  0
VERTEX
  8
LPF3500_SST
 10
2.5884
 20
1.5511
 30
0.0000
  0
VERTEX
  8
LPF3500_SST
 10
2.6107
 20
1.5511
 30
0.0000
  0
SEQEND
  0
POLYLINE
  8
LPF3500_SST
 66
1
 10
0.0000
 20
0.0000
 30
0.0000
 40
0.0080
 41
0.0080
  0
VERTEX
  8
LPF3500_SST
 10
2.5613
 20
1.5344
 30
0.0000
  0
VERTEX
  8
LPF3500_SST
 10
2.5697
 20
1.5177
 30
0.0000
  0
SEQEND
  0
POLYLINE
  8
LPF3500_SST
 66
1
 10
0.0000
 20
0.0000
 30
0.0000
 40
0.0080
 41
0.0080
  0
VERTEX
  8
LPF3500_SST
 10
2.5474
 20
1.5344
 30
0.0000
  0
VERTEX
  8
LPF3500_SST
 10
2.5641
 20
1.5344
 30
0.0000
  0
VERTEX
  8
LPF3500_SST
 10
2.5697
 20
1.5400
 30
0.0000
  0
VERTEX
  8
LPF3500_SST
 10
2.5697
 20
1.5455
 30
0.0000
  0
VERTEX
  8
LPF3500_SST
 10
2.5641
 20
1.5511
 30
0.0000
  0
VERTEX
  8
LPF3500_SST
 10
2.5474
 20
1.5511
 30
0.0000
  0
VERTEX
  8
LPF3500_SST
 10
2.5474
 20
1.5177
 30
0.0000
  0
SEQEND
  0
POLYLINE
  8
LPF3500_SST
 66
1
 10
0.0000
 20
0.0000
 30
0.0000
 40
0.0080
 41
0.0080
  0
VERTEX
  8
LPF3500_SST
 10
2.7340
 20
0.8750
 30
0.0000
  0
VERTEX
  8
LPF3500_SST
 10
2.7340
 20
0.6620
 30
0.0000
  0
VERTEX
  8
LPF3500_SST
 10
2.7200
 20
0.6620
 30
0.0000
  0
VERTEX
  8
LPF3500_SST
 10
2.7200
 20
0.6520
 30
0.0000
  0
VERTEX
  8
LPF3500_SST
 10
2.5450
 20
0.6520
 30
0.0000
  0
VERTEX
  8
LPF3500_SST
 10
2.5450
 20
0.6620
 30
0.0000
  0
VERTEX
  8
LPF3500_SST
 10
2.5260
 20
0.6620
 30
0.0000
  0
VERTEX
  8
LPF3500_SST
 10
2.5260
 20
0.8870
 30
0.0000
  0
VERTEX
  8
LPF3500_SST
 10
2.5750
 20
0.8870
 30
0.0000
  0
VERTEX
  8
LPF3500_SST
 10
2.5750
 20
0.9020
 30
0.0000
  0
VERTEX
  8
LPF3500_SST
 10
2.6850
 20
0.9020
 30
0.0000
  0
VERTEX
  8
LPF3500_SST
 10
2.6850
 20
0.8870
 30
0.0000
  0
VERTEX
  8
LPF3500_SST
 10
2.7340
 20
0.8870
 30
0.0000
  0
VERTEX
  8
LPF3500_SST
 10
2.7340
 20
0.8740
 30
0.0000
  0
SEQEND
  0
POLYLINE
  8
LPF3500_SST
 66
1
 10
0.0000
 20
0.0000
 30
0.0000
 40
0.0080
 41
0.0080
  0
VERTEX
  8
LPF3500_SST
 10
0.8740
 20
0.8750
 30
0.0000
  0
VERTEX
  8
LPF3500_SST
 10
0.8740
 20
0.6620
 30
0.0000
  0
VERTEX
  8
LPF3500_SST
 10
0.8600
 20
0.6620
 30
0.0000
  0
VERTEX
  8
LPF3500_SST
 10
0.8600
 20
0.6520
 30
0.0000
  0
VERTEX
  8
LPF3500_SST
 10
0.6850
 20
0.6520
 30
0.0000
  0
VERTEX
  8
LPF3500_SST
 10
0.6850
 20
0.6620
 30
0.0000
  0
VERTEX
  8
LPF3500_SST
 10
0.6660
 20
0.6620
 30
0.0000
  0
VERTEX
  8
LPF3500_SST
 10
0.6660
 20
0.8870
 30
0.0000
  0
VERTEX
  8
LPF3500_SST
 10
0.7150
 20
0.8870
 30
0.0000
  0
VERTEX
  8
LPF3500_SST
 10
0.7150
 20
0.9020
 30
0.0000
  0
VERTEX
  8
LPF3500_SST
 10
0.8250
 20
0.9020
 30
0.0000
  0
VERTEX
  8
LPF3500_SST
 10
0.8250
 20
0.8870
 30
0.0000
  0
VERTEX
  8
LPF3500_SST
 10
0.8740
 20
0.8870
 30
0.0000
  0
VERTEX
  8
LPF3500_SST
 10
0.8740
 20
0.8740
 30
0.0000
  0
SEQEND
  0
ENDSEC
  0
EOF
