  0
SECTION
  2
HEADER
  9
$EXTMIN
 10
-0.2835
 20
-1.8500
 30
0.0000
  9
$EXTMAX
 10
11.0590
 20
3.4415
 30
0.0000
  0
ENDSEC
  0
SECTION
  2
TABLES
  0
TABLE
  2
LTYPE
 70
3
  0
LTYPE
  2
BYBLOCK
 70
0
  3

 72
65
 73
0
 40
0.0000
  0
LTYPE
  2
BYLAYER
 70
0
  3

 72
65
 73
0
 40
0.0000
  0
LTYPE
  2
CONTINUOUS
 70
0
  3
Solid line
 72
65
 73
0
 40
0.0000
  0
ENDTAB
  0
TABLE
  2
LAYER
 70
3
  0
LAYER
  2
0
 70
0
 62
7
  6
CONTINUOUS
  0
LAYER
  2
LPF120_DRD
 70
0
 62
6
  6
CONTINUOUS
  0
LAYER
  2
LPF120_SST
 70
0
 62
4
  6
CONTINUOUS
  0
LAYER
  2
THRUHOLE_TAP
 70
0
 62
5
  6
CONTINUOUS
  0
ENDTAB
  0
TABLE
  2
STYLE
 70
0
  0
ENDTAB
  0
ENDSEC
  0
SECTION
  2
BLOCKS
  0
BLOCK
  2
ROUND_1
  3
ROUND_1
 70
64
 10
0.0000
 20
0.0000
 30
0.0000
  0
CIRCLE
  8
0
 10
0.0000
 20
0.0000
 30
0.0000
 40
0.0110
  0
ENDBLK
  0
BLOCK
  2
ROUND_5
  3
ROUND_5
 70
64
 10
0.0000
 20
0.0000
 30
0.0000
  0
CIRCLE
  8
0
 10
0.0000
 20
0.0000
 30
0.0000
 40
0.0050
  0
ENDBLK
  0
BLOCK
  2
ROUND_7
  3
ROUND_7
 70
64
 10
0.0000
 20
0.0000
 30
0.0000
  0
CIRCLE
  8
0
 10
0.0000
 20
0.0000
 30
0.0000
 40
0.0040
  0
ENDBLK
  0
BLOCK
  2
ROUND_10
  3
ROUND_10
 70
64
 10
0.0000
 20
0.0000
 30
0.0000
  0
CIRCLE
  8
0
 10
0.0000
 20
0.0000
 30
0.0000
 40
0.1350
  0
ENDBLK
  0
BLOCK
  2
ROUND_11
  3
ROUND_11
 70
64
 10
0.0000
 20
0.0000
 30
0.0000
  0
CIRCLE
  8
0
 10
0.0000
 20
0.0000
 30
0.0000
 40
0.0140
  0
ENDBLK
  0
BLOCK
  2
ROUND_12
  3
ROUND_12
 70
64
 10
0.0000
 20
0.0000
 30
0.0000
  0
CIRCLE
  8
0
 10
0.0000
 20
0.0000
 30
0.0000
 40
0.0750
  0
ENDBLK
  0
ENDSEC
  0
SECTION
  2
ENTITIES
  0
POLYLINE
  8
LPF120_DRD
 66
1
 10
0.0000
 20
0.0000
 30
0.0000
 40
0.0100
 41
0.0100
  0
VERTEX
  8
LPF120_DRD
 10
6.4025
 20
-1.7233
 30
0.0000
  0
VERTEX
  8
LPF120_DRD
 10
6.4525
 20
-1.7233
 30
0.0000
  0
VERTEX
  8
LPF120_DRD
 10
6.4608
 20
-1.7400
 30
0.0000
  0
VERTEX
  8
LPF120_DRD
 10
6.4608
 20
-1.7567
 30
0.0000
  0
VERTEX
  8
LPF120_DRD
 10
6.4525
 20
-1.7733
 30
0.0000
  0
VERTEX
  8
LPF120_DRD
 10
6.4025
 20
-1.7733
 30
0.0000
  0
VERTEX
  8
LPF120_DRD
 10
6.3942
 20
-1.7567
 30
0.0000
  0
SEQEND
  0
POLYLINE
  8
LPF120_DRD
 66
1
 10
0.0000
 20
0.0000
 30
0.0000
 40
0.0100
 41
0.0100
  0
VERTEX
  8
LPF120_DRD
 10
6.3941
 20
-1.7567
 30
0.0000
  0
VERTEX
  8
LPF120_DRD
 10
6.3942
 20
-1.7400
 30
0.0000
  0
SEQEND
  0
POLYLINE
  8
LPF120_DRD
 66
1
 10
0.0000
 20
0.0000
 30
0.0000
 40
0.0100
 41
0.0100
  0
VERTEX
  8
LPF120_DRD
 10
6.3941
 20
-1.7400
 30
0.0000
  0
VERTEX
  8
LPF120_DRD
 10
6.4275
 20
-1.6733
 30
0.0000
  0
SEQEND
  0
POLYLINE
  8
LPF120_DRD
 66
1
 10
0.0000
 20
0.0000
 30
0.0000
 40
0.0100
 41
0.0100
  0
VERTEX
  8
LPF120_DRD
 10
6.2991
 20
-1.7567
 30
0.0000
  0
VERTEX
  8
LPF120_DRD
 10
6.3075
 20
-1.7733
 30
0.0000
  0
VERTEX
  8
LPF120_DRD
 10
6.3575
 20
-1.7733
 30
0.0000
  0
VERTEX
  8
LPF120_DRD
 10
6.3658
 20
-1.7567
 30
0.0000
  0
VERTEX
  8
LPF120_DRD
 10
6.3658
 20
-1.7233
 30
0.0000
  0
VERTEX
  8
LPF120_DRD
 10
6.3491
 20
-1.7067
 30
0.0000
  0
VERTEX
  8
LPF120_DRD
 10
6.2992
 20
-1.7067
 30
0.0000
  0
SEQEND
  0
POLYLINE
  8
LPF120_DRD
 66
1
 10
0.0000
 20
0.0000
 30
0.0000
 40
0.0100
 41
0.0100
  0
VERTEX
  8
LPF120_DRD
 10
6.2991
 20
-1.7067
 30
0.0000
  0
VERTEX
  8
LPF120_DRD
 10
6.2992
 20
-1.6733
 30
0.0000
  0
SEQEND
  0
POLYLINE
  8
LPF120_DRD
 66
1
 10
0.0000
 20
0.0000
 30
0.0000
 40
0.0100
 41
0.0100
  0
VERTEX
  8
LPF120_DRD
 10
6.2991
 20
-1.6733
 30
0.0000
  0
VERTEX
  8
LPF120_DRD
 10
6.3658
 20
-1.6733
 30
0.0000
  0
SEQEND
  0
POLYLINE
  8
LPF120_DRD
 66
1
 10
0.0000
 20
0.0000
 30
0.0000
 40
0.0100
 41
0.0100
  0
VERTEX
  8
LPF120_DRD
 10
5.2212
 20
-1.7733
 30
0.0000
  0
VERTEX
  8
LPF120_DRD
 10
5.1629
 20
-1.7733
 30
0.0000
  0
VERTEX
  8
LPF120_DRD
 10
5.1629
 20
-1.6733
 30
0.0000
  0
SEQEND
  0
POLYLINE
  8
LPF120_DRD
 66
1
 10
0.0000
 20
0.0000
 30
0.0000
 40
0.0100
 41
0.0100
  0
VERTEX
  8
LPF120_DRD
 10
5.1346
 20
-1.7400
 30
0.0000
  0
VERTEX
  8
LPF120_DRD
 10
5.0679
 20
-1.7400
 30
0.0000
  0
SEQEND
  0
POLYLINE
  8
LPF120_DRD
 66
1
 10
0.0000
 20
0.0000
 30
0.0000
 40
0.0100
 41
0.0100
  0
VERTEX
  8
LPF120_DRD
 10
5.1346
 20
-1.7733
 30
0.0000
  0
VERTEX
  8
LPF120_DRD
 10
5.1346
 20
-1.7233
 30
0.0000
  0
VERTEX
  8
LPF120_DRD
 10
5.1096
 20
-1.6733
 30
0.0000
  0
VERTEX
  8
LPF120_DRD
 10
5.0929
 20
-1.6733
 30
0.0000
  0
VERTEX
  8
LPF120_DRD
 10
5.0679
 20
-1.7233
 30
0.0000
  0
VERTEX
  8
LPF120_DRD
 10
5.0679
 20
-1.7733
 30
0.0000
  0
SEQEND
  0
POLYLINE
  8
LPF120_DRD
 66
1
 10
0.0000
 20
0.0000
 30
0.0000
 40
0.0100
 41
0.0100
  0
VERTEX
  8
LPF120_DRD
 10
5.0062
 20
-1.7733
 30
0.0000
  0
VERTEX
  8
LPF120_DRD
 10
5.0062
 20
-1.6733
 30
0.0000
  0
SEQEND
  0
POLYLINE
  8
LPF120_DRD
 66
1
 10
0.0000
 20
0.0000
 30
0.0000
 40
0.0100
 41
0.0100
  0
VERTEX
  8
LPF120_DRD
 10
5.0396
 20
-1.6733
 30
0.0000
  0
VERTEX
  8
LPF120_DRD
 10
4.9729
 20
-1.6733
 30
0.0000
  0
SEQEND
  0
POLYLINE
  8
LPF120_DRD
 66
1
 10
0.0000
 20
0.0000
 30
0.0000
 40
0.0100
 41
0.0100
  0
VERTEX
  8
LPF120_DRD
 10
4.8862
 20
-1.7733
 30
0.0000
  0
VERTEX
  8
LPF120_DRD
 10
4.8779
 20
-1.7567
 30
0.0000
  0
VERTEX
  8
LPF120_DRD
 10
4.8779
 20
-1.6900
 30
0.0000
  0
VERTEX
  8
LPF120_DRD
 10
4.8862
 20
-1.6733
 30
0.0000
  0
VERTEX
  8
LPF120_DRD
 10
4.9362
 20
-1.6733
 30
0.0000
  0
VERTEX
  8
LPF120_DRD
 10
4.9446
 20
-1.6900
 30
0.0000
  0
VERTEX
  8
LPF120_DRD
 10
4.9446
 20
-1.7567
 30
0.0000
  0
VERTEX
  8
LPF120_DRD
 10
4.9362
 20
-1.7733
 30
0.0000
  0
VERTEX
  8
LPF120_DRD
 10
4.8862
 20
-1.7733
 30
0.0000
  0
SEQEND
  0
POLYLINE
  8
LPF120_DRD
 66
1
 10
0.0000
 20
0.0000
 30
0.0000
 40
0.0100
 41
0.0100
  0
VERTEX
  8
LPF120_DRD
 10
4.8162
 20
-1.7733
 30
0.0000
  0
VERTEX
  8
LPF120_DRD
 10
4.8162
 20
-1.6733
 30
0.0000
  0
SEQEND
  0
POLYLINE
  8
LPF120_DRD
 66
1
 10
0.0000
 20
0.0000
 30
0.0000
 40
0.0100
 41
0.0100
  0
VERTEX
  8
LPF120_DRD
 10
4.8496
 20
-1.6733
 30
0.0000
  0
VERTEX
  8
LPF120_DRD
 10
4.7829
 20
-1.6733
 30
0.0000
  0
SEQEND
  0
POLYLINE
  8
LPF120_DRD
 66
1
 10
0.0000
 20
0.0000
 30
0.0000
 40
0.0100
 41
0.0100
  0
VERTEX
  8
LPF120_DRD
 10
6.4330
 20
-1.5872
 30
0.0000
  0
VERTEX
  8
LPF120_DRD
 10
6.4219
 20
-1.5761
 30
0.0000
  0
VERTEX
  8
LPF120_DRD
 10
6.4164
 20
-1.5650
 30
0.0000
  0
VERTEX
  8
LPF120_DRD
 10
6.4164
 20
-1.5428
 30
0.0000
  0
VERTEX
  8
LPF120_DRD
 10
6.4219
 20
-1.5317
 30
0.0000
  0
VERTEX
  8
LPF120_DRD
 10
6.4330
 20
-1.5206
 30
0.0000
  0
VERTEX
  8
LPF120_DRD
 10
6.4442
 20
-1.5206
 30
0.0000
  0
SEQEND
  0
POLYLINE
  8
LPF120_DRD
 66
1
 10
0.0000
 20
0.0000
 30
0.0000
 40
0.0100
 41
0.0100
  0
VERTEX
  8
LPF120_DRD
 10
6.4441
 20
-1.5206
 30
0.0000
  0
VERTEX
  8
LPF120_DRD
 10
6.4553
 20
-1.5317
 30
0.0000
  0
VERTEX
  8
LPF120_DRD
 10
6.4608
 20
-1.5428
 30
0.0000
  0
VERTEX
  8
LPF120_DRD
 10
6.4608
 20
-1.5650
 30
0.0000
  0
VERTEX
  8
LPF120_DRD
 10
6.4553
 20
-1.5761
 30
0.0000
  0
VERTEX
  8
LPF120_DRD
 10
6.4442
 20
-1.5872
 30
0.0000
  0
SEQEND
  0
POLYLINE
  8
LPF120_DRD
 66
1
 10
0.0000
 20
0.0000
 30
0.0000
 40
0.0100
 41
0.0100
  0
VERTEX
  8
LPF120_DRD
 10
6.4441
 20
-1.5872
 30
0.0000
  0
VERTEX
  8
LPF120_DRD
 10
6.4330
 20
-1.5872
 30
0.0000
  0
SEQEND
  0
POLYLINE
  8
LPF120_DRD
 66
1
 10
0.0000
 20
0.0000
 30
0.0000
 40
0.0100
 41
0.0100
  0
VERTEX
  8
LPF120_DRD
 10
6.3908
 20
-1.5872
 30
0.0000
  0
VERTEX
  8
LPF120_DRD
 10
6.3686
 20
-1.5872
 30
0.0000
  0
SEQEND
  0
POLYLINE
  8
LPF120_DRD
 66
1
 10
0.0000
 20
0.0000
 30
0.0000
 40
0.0100
 41
0.0100
  0
VERTEX
  8
LPF120_DRD
 10
6.3797
 20
-1.5872
 30
0.0000
  0
VERTEX
  8
LPF120_DRD
 10
6.3797
 20
-1.5206
 30
0.0000
  0
VERTEX
  8
LPF120_DRD
 10
6.3686
 20
-1.5317
 30
0.0000
  0
SEQEND
  0
POLYLINE
  8
LPF120_DRD
 66
1
 10
0.0000
 20
0.0000
 30
0.0000
 40
0.0100
 41
0.0100
  0
VERTEX
  8
LPF120_DRD
 10
5.0714
 20
-1.5872
 30
0.0000
  0
VERTEX
  8
LPF120_DRD
 10
5.0603
 20
-1.5761
 30
0.0000
  0
VERTEX
  8
LPF120_DRD
 10
5.0547
 20
-1.5650
 30
0.0000
  0
VERTEX
  8
LPF120_DRD
 10
5.0547
 20
-1.5428
 30
0.0000
  0
VERTEX
  8
LPF120_DRD
 10
5.0603
 20
-1.5317
 30
0.0000
  0
VERTEX
  8
LPF120_DRD
 10
5.0714
 20
-1.5206
 30
0.0000
  0
VERTEX
  8
LPF120_DRD
 10
5.0825
 20
-1.5206
 30
0.0000
  0
VERTEX
  8
LPF120_DRD
 10
5.0936
 20
-1.5317
 30
0.0000
  0
VERTEX
  8
LPF120_DRD
 10
5.0992
 20
-1.5428
 30
0.0000
  0
VERTEX
  8
LPF120_DRD
 10
5.0992
 20
-1.5650
 30
0.0000
  0
VERTEX
  8
LPF120_DRD
 10
5.0936
 20
-1.5761
 30
0.0000
  0
VERTEX
  8
LPF120_DRD
 10
5.0825
 20
-1.5872
 30
0.0000
  0
VERTEX
  8
LPF120_DRD
 10
5.0714
 20
-1.5872
 30
0.0000
  0
SEQEND
  0
POLYLINE
  8
LPF120_DRD
 66
1
 10
0.0000
 20
0.0000
 30
0.0000
 40
0.0100
 41
0.0100
  0
VERTEX
  8
LPF120_DRD
 10
4.9958
 20
-1.5872
 30
0.0000
  0
VERTEX
  8
LPF120_DRD
 10
5.0292
 20
-1.5206
 30
0.0000
  0
VERTEX
  8
LPF120_DRD
 10
4.9847
 20
-1.5206
 30
0.0000
  0
SEQEND
  0
POLYLINE
  8
LPF120_DRD
 66
1
 10
0.0000
 20
0.0000
 30
0.0000
 40
0.0100
 41
0.0100
  0
VERTEX
  8
LPF120_DRD
 10
4.9592
 20
-1.5872
 30
0.0000
  0
VERTEX
  8
LPF120_DRD
 10
4.9147
 20
-1.5872
 30
0.0000
  0
VERTEX
  8
LPF120_DRD
 10
4.9592
 20
-1.5428
 30
0.0000
  0
VERTEX
  8
LPF120_DRD
 10
4.9592
 20
-1.5317
 30
0.0000
  0
VERTEX
  8
LPF120_DRD
 10
4.9536
 20
-1.5206
 30
0.0000
  0
VERTEX
  8
LPF120_DRD
 10
4.9203
 20
-1.5206
 30
0.0000
  0
VERTEX
  8
LPF120_DRD
 10
4.9147
 20
-1.5317
 30
0.0000
  0
SEQEND
  0
POLYLINE
  8
LPF120_DRD
 66
1
 10
0.0000
 20
0.0000
 30
0.0000
 40
0.0100
 41
0.0100
  0
VERTEX
  8
LPF120_DRD
 10
4.8780
 20
-1.5872
 30
0.0000
  0
VERTEX
  8
LPF120_DRD
 10
4.8892
 20
-1.5872
 30
0.0000
  0
VERTEX
  8
LPF120_DRD
 10
4.8892
 20
-1.5761
 30
0.0000
  0
VERTEX
  8
LPF120_DRD
 10
4.8781
 20
-1.5761
 30
0.0000
  0
SEQEND
  0
POLYLINE
  8
LPF120_DRD
 66
1
 10
0.0000
 20
0.0000
 30
0.0000
 40
0.0100
 41
0.0100
  0
VERTEX
  8
LPF120_DRD
 10
4.8780
 20
-1.5761
 30
0.0000
  0
VERTEX
  8
LPF120_DRD
 10
4.8781
 20
-1.5872
 30
0.0000
  0
SEQEND
  0
POLYLINE
  8
LPF120_DRD
 66
1
 10
0.0000
 20
0.0000
 30
0.0000
 40
0.0100
 41
0.0100
  0
VERTEX
  8
LPF120_DRD
 10
4.8136
 20
-1.5872
 30
0.0000
  0
VERTEX
  8
LPF120_DRD
 10
4.8025
 20
-1.5761
 30
0.0000
  0
VERTEX
  8
LPF120_DRD
 10
4.7969
 20
-1.5650
 30
0.0000
  0
VERTEX
  8
LPF120_DRD
 10
4.7969
 20
-1.5428
 30
0.0000
  0
VERTEX
  8
LPF120_DRD
 10
4.8025
 20
-1.5317
 30
0.0000
  0
VERTEX
  8
LPF120_DRD
 10
4.8136
 20
-1.5206
 30
0.0000
  0
VERTEX
  8
LPF120_DRD
 10
4.8247
 20
-1.5206
 30
0.0000
  0
VERTEX
  8
LPF120_DRD
 10
4.8358
 20
-1.5317
 30
0.0000
  0
VERTEX
  8
LPF120_DRD
 10
4.8414
 20
-1.5428
 30
0.0000
  0
VERTEX
  8
LPF120_DRD
 10
4.8414
 20
-1.5650
 30
0.0000
  0
VERTEX
  8
LPF120_DRD
 10
4.8358
 20
-1.5761
 30
0.0000
  0
VERTEX
  8
LPF120_DRD
 10
4.8247
 20
-1.5872
 30
0.0000
  0
VERTEX
  8
LPF120_DRD
 10
4.8136
 20
-1.5872
 30
0.0000
  0
SEQEND
  0
POLYLINE
  8
LPF120_DRD
 66
1
 10
0.0000
 20
0.0000
 30
0.0000
 40
0.0100
 41
0.0100
  0
VERTEX
  8
LPF120_DRD
 10
6.4608
 20
-1.4372
 30
0.0000
  0
VERTEX
  8
LPF120_DRD
 10
6.4164
 20
-1.4372
 30
0.0000
  0
VERTEX
  8
LPF120_DRD
 10
6.4608
 20
-1.3928
 30
0.0000
  0
VERTEX
  8
LPF120_DRD
 10
6.4608
 20
-1.3817
 30
0.0000
  0
VERTEX
  8
LPF120_DRD
 10
6.4553
 20
-1.3706
 30
0.0000
  0
VERTEX
  8
LPF120_DRD
 10
6.4219
 20
-1.3706
 30
0.0000
  0
VERTEX
  8
LPF120_DRD
 10
6.4164
 20
-1.3817
 30
0.0000
  0
SEQEND
  0
POLYLINE
  8
LPF120_DRD
 66
1
 10
0.0000
 20
0.0000
 30
0.0000
 40
0.0100
 41
0.0100
  0
VERTEX
  8
LPF120_DRD
 10
6.3908
 20
-1.4372
 30
0.0000
  0
VERTEX
  8
LPF120_DRD
 10
6.3686
 20
-1.4372
 30
0.0000
  0
SEQEND
  0
POLYLINE
  8
LPF120_DRD
 66
1
 10
0.0000
 20
0.0000
 30
0.0000
 40
0.0100
 41
0.0100
  0
VERTEX
  8
LPF120_DRD
 10
6.3797
 20
-1.4372
 30
0.0000
  0
VERTEX
  8
LPF120_DRD
 10
6.3797
 20
-1.3706
 30
0.0000
  0
VERTEX
  8
LPF120_DRD
 10
6.3686
 20
-1.3817
 30
0.0000
  0
SEQEND
  0
POLYLINE
  8
LPF120_DRD
 66
1
 10
0.0000
 20
0.0000
 30
0.0000
 40
0.0100
 41
0.0100
  0
VERTEX
  8
LPF120_DRD
 10
5.0714
 20
-1.4372
 30
0.0000
  0
VERTEX
  8
LPF120_DRD
 10
5.0603
 20
-1.4261
 30
0.0000
  0
VERTEX
  8
LPF120_DRD
 10
5.0547
 20
-1.4150
 30
0.0000
  0
VERTEX
  8
LPF120_DRD
 10
5.0547
 20
-1.3928
 30
0.0000
  0
VERTEX
  8
LPF120_DRD
 10
5.0603
 20
-1.3817
 30
0.0000
  0
VERTEX
  8
LPF120_DRD
 10
5.0714
 20
-1.3706
 30
0.0000
  0
VERTEX
  8
LPF120_DRD
 10
5.0825
 20
-1.3706
 30
0.0000
  0
VERTEX
  8
LPF120_DRD
 10
5.0936
 20
-1.3817
 30
0.0000
  0
VERTEX
  8
LPF120_DRD
 10
5.0992
 20
-1.3928
 30
0.0000
  0
VERTEX
  8
LPF120_DRD
 10
5.0992
 20
-1.4150
 30
0.0000
  0
VERTEX
  8
LPF120_DRD
 10
5.0936
 20
-1.4261
 30
0.0000
  0
VERTEX
  8
LPF120_DRD
 10
5.0825
 20
-1.4372
 30
0.0000
  0
VERTEX
  8
LPF120_DRD
 10
5.0714
 20
-1.4372
 30
0.0000
  0
SEQEND
  0
POLYLINE
  8
LPF120_DRD
 66
1
 10
0.0000
 20
0.0000
 30
0.0000
 40
0.0100
 41
0.0100
  0
VERTEX
  8
LPF120_DRD
 10
4.9847
 20
-1.4261
 30
0.0000
  0
VERTEX
  8
LPF120_DRD
 10
4.9903
 20
-1.4372
 30
0.0000
  0
VERTEX
  8
LPF120_DRD
 10
5.0236
 20
-1.4372
 30
0.0000
  0
VERTEX
  8
LPF120_DRD
 10
5.0292
 20
-1.4261
 30
0.0000
  0
VERTEX
  8
LPF120_DRD
 10
5.0292
 20
-1.4039
 30
0.0000
  0
VERTEX
  8
LPF120_DRD
 10
5.0180
 20
-1.3928
 30
0.0000
  0
VERTEX
  8
LPF120_DRD
 10
4.9847
 20
-1.3928
 30
0.0000
  0
VERTEX
  8
LPF120_DRD
 10
4.9847
 20
-1.3706
 30
0.0000
  0
VERTEX
  8
LPF120_DRD
 10
5.0292
 20
-1.3706
 30
0.0000
  0
SEQEND
  0
POLYLINE
  8
LPF120_DRD
 66
1
 10
0.0000
 20
0.0000
 30
0.0000
 40
0.0100
 41
0.0100
  0
VERTEX
  8
LPF120_DRD
 10
4.9592
 20
-1.4372
 30
0.0000
  0
VERTEX
  8
LPF120_DRD
 10
4.9369
 20
-1.4372
 30
0.0000
  0
SEQEND
  0
POLYLINE
  8
LPF120_DRD
 66
1
 10
0.0000
 20
0.0000
 30
0.0000
 40
0.0100
 41
0.0100
  0
VERTEX
  8
LPF120_DRD
 10
4.9480
 20
-1.4372
 30
0.0000
  0
VERTEX
  8
LPF120_DRD
 10
4.9480
 20
-1.3706
 30
0.0000
  0
VERTEX
  8
LPF120_DRD
 10
4.9369
 20
-1.3817
 30
0.0000
  0
SEQEND
  0
POLYLINE
  8
LPF120_DRD
 66
1
 10
0.0000
 20
0.0000
 30
0.0000
 40
0.0100
 41
0.0100
  0
VERTEX
  8
LPF120_DRD
 10
4.8892
 20
-1.4372
 30
0.0000
  0
VERTEX
  8
LPF120_DRD
 10
4.9003
 20
-1.4372
 30
0.0000
  0
VERTEX
  8
LPF120_DRD
 10
4.9003
 20
-1.4261
 30
0.0000
  0
VERTEX
  8
LPF120_DRD
 10
4.8892
 20
-1.4261
 30
0.0000
  0
VERTEX
  8
LPF120_DRD
 10
4.8892
 20
-1.4372
 30
0.0000
  0
SEQEND
  0
POLYLINE
  8
LPF120_DRD
 66
1
 10
0.0000
 20
0.0000
 30
0.0000
 40
0.0100
 41
0.0100
  0
VERTEX
  8
LPF120_DRD
 10
4.8247
 20
-1.4372
 30
0.0000
  0
VERTEX
  8
LPF120_DRD
 10
4.8136
 20
-1.4261
 30
0.0000
  0
VERTEX
  8
LPF120_DRD
 10
4.8081
 20
-1.4150
 30
0.0000
  0
VERTEX
  8
LPF120_DRD
 10
4.8081
 20
-1.3928
 30
0.0000
  0
VERTEX
  8
LPF120_DRD
 10
4.8136
 20
-1.3817
 30
0.0000
  0
VERTEX
  8
LPF120_DRD
 10
4.8247
 20
-1.3706
 30
0.0000
  0
VERTEX
  8
LPF120_DRD
 10
4.8358
 20
-1.3706
 30
0.0000
  0
VERTEX
  8
LPF120_DRD
 10
4.8469
 20
-1.3817
 30
0.0000
  0
VERTEX
  8
LPF120_DRD
 10
4.8525
 20
-1.3928
 30
0.0000
  0
VERTEX
  8
LPF120_DRD
 10
4.8525
 20
-1.4150
 30
0.0000
  0
VERTEX
  8
LPF120_DRD
 10
4.8469
 20
-1.4261
 30
0.0000
  0
VERTEX
  8
LPF120_DRD
 10
4.8358
 20
-1.4372
 30
0.0000
  0
VERTEX
  8
LPF120_DRD
 10
4.8247
 20
-1.4372
 30
0.0000
  0
SEQEND
  0
POLYLINE
  8
LPF120_DRD
 66
1
 10
0.0000
 20
0.0000
 30
0.0000
 40
0.0100
 41
0.0100
  0
VERTEX
  8
LPF120_DRD
 10
6.4608
 20
-1.2650
 30
0.0000
  0
VERTEX
  8
LPF120_DRD
 10
6.4164
 20
-1.2650
 30
0.0000
  0
VERTEX
  8
LPF120_DRD
 10
6.4386
 20
-1.2206
 30
0.0000
  0
VERTEX
  8
LPF120_DRD
 10
6.4497
 20
-1.2206
 30
0.0000
  0
VERTEX
  8
LPF120_DRD
 10
6.4497
 20
-1.2872
 30
0.0000
  0
SEQEND
  0
POLYLINE
  8
LPF120_DRD
 66
1
 10
0.0000
 20
0.0000
 30
0.0000
 40
0.0100
 41
0.0100
  0
VERTEX
  8
LPF120_DRD
 10
6.3464
 20
-1.2761
 30
0.0000
  0
VERTEX
  8
LPF120_DRD
 10
6.3575
 20
-1.2872
 30
0.0000
  0
VERTEX
  8
LPF120_DRD
 10
6.3797
 20
-1.2872
 30
0.0000
  0
VERTEX
  8
LPF120_DRD
 10
6.3908
 20
-1.2761
 30
0.0000
  0
VERTEX
  8
LPF120_DRD
 10
6.3908
 20
-1.2650
 30
0.0000
  0
VERTEX
  8
LPF120_DRD
 10
6.3686
 20
-1.2428
 30
0.0000
  0
VERTEX
  8
LPF120_DRD
 10
6.3908
 20
-1.2206
 30
0.0000
  0
VERTEX
  8
LPF120_DRD
 10
6.3464
 20
-1.2206
 30
0.0000
  0
SEQEND
  0
POLYLINE
  8
LPF120_DRD
 66
1
 10
0.0000
 20
0.0000
 30
0.0000
 40
0.0100
 41
0.0100
  0
VERTEX
  8
LPF120_DRD
 10
5.0936
 20
-1.2539
 30
0.0000
  0
VERTEX
  8
LPF120_DRD
 10
5.0992
 20
-1.2428
 30
0.0000
  0
VERTEX
  8
LPF120_DRD
 10
5.0992
 20
-1.2317
 30
0.0000
  0
VERTEX
  8
LPF120_DRD
 10
5.0936
 20
-1.2206
 30
0.0000
  0
VERTEX
  8
LPF120_DRD
 10
5.0603
 20
-1.2206
 30
0.0000
  0
VERTEX
  8
LPF120_DRD
 10
5.0547
 20
-1.2317
 30
0.0000
  0
VERTEX
  8
LPF120_DRD
 10
5.0547
 20
-1.2428
 30
0.0000
  0
VERTEX
  8
LPF120_DRD
 10
5.0603
 20
-1.2539
 30
0.0000
  0
VERTEX
  8
LPF120_DRD
 10
5.0936
 20
-1.2539
 30
0.0000
  0
VERTEX
  8
LPF120_DRD
 10
5.0992
 20
-1.2650
 30
0.0000
  0
VERTEX
  8
LPF120_DRD
 10
5.0992
 20
-1.2761
 30
0.0000
  0
VERTEX
  8
LPF120_DRD
 10
5.0936
 20
-1.2872
 30
0.0000
  0
VERTEX
  8
LPF120_DRD
 10
5.0603
 20
-1.2872
 30
0.0000
  0
VERTEX
  8
LPF120_DRD
 10
5.0547
 20
-1.2761
 30
0.0000
  0
VERTEX
  8
LPF120_DRD
 10
5.0547
 20
-1.2650
 30
0.0000
  0
VERTEX
  8
LPF120_DRD
 10
5.0603
 20
-1.2539
 30
0.0000
  0
SEQEND
  0
POLYLINE
  8
LPF120_DRD
 66
1
 10
0.0000
 20
0.0000
 30
0.0000
 40
0.0100
 41
0.0100
  0
VERTEX
  8
LPF120_DRD
 10
5.0292
 20
-1.2872
 30
0.0000
  0
VERTEX
  8
LPF120_DRD
 10
4.9847
 20
-1.2872
 30
0.0000
  0
VERTEX
  8
LPF120_DRD
 10
5.0292
 20
-1.2428
 30
0.0000
  0
VERTEX
  8
LPF120_DRD
 10
5.0292
 20
-1.2317
 30
0.0000
  0
VERTEX
  8
LPF120_DRD
 10
5.0236
 20
-1.2206
 30
0.0000
  0
VERTEX
  8
LPF120_DRD
 10
4.9903
 20
-1.2206
 30
0.0000
  0
VERTEX
  8
LPF120_DRD
 10
4.9847
 20
-1.2317
 30
0.0000
  0
SEQEND
  0
POLYLINE
  8
LPF120_DRD
 66
1
 10
0.0000
 20
0.0000
 30
0.0000
 40
0.0100
 41
0.0100
  0
VERTEX
  8
LPF120_DRD
 10
4.9314
 20
-1.2872
 30
0.0000
  0
VERTEX
  8
LPF120_DRD
 10
4.9203
 20
-1.2761
 30
0.0000
  0
VERTEX
  8
LPF120_DRD
 10
4.9147
 20
-1.2650
 30
0.0000
  0
VERTEX
  8
LPF120_DRD
 10
4.9147
 20
-1.2428
 30
0.0000
  0
VERTEX
  8
LPF120_DRD
 10
4.9203
 20
-1.2317
 30
0.0000
  0
VERTEX
  8
LPF120_DRD
 10
4.9314
 20
-1.2206
 30
0.0000
  0
VERTEX
  8
LPF120_DRD
 10
4.9425
 20
-1.2206
 30
0.0000
  0
VERTEX
  8
LPF120_DRD
 10
4.9536
 20
-1.2317
 30
0.0000
  0
VERTEX
  8
LPF120_DRD
 10
4.9592
 20
-1.2428
 30
0.0000
  0
VERTEX
  8
LPF120_DRD
 10
4.9592
 20
-1.2650
 30
0.0000
  0
VERTEX
  8
LPF120_DRD
 10
4.9536
 20
-1.2761
 30
0.0000
  0
VERTEX
  8
LPF120_DRD
 10
4.9425
 20
-1.2872
 30
0.0000
  0
VERTEX
  8
LPF120_DRD
 10
4.9314
 20
-1.2872
 30
0.0000
  0
SEQEND
  0
POLYLINE
  8
LPF120_DRD
 66
1
 10
0.0000
 20
0.0000
 30
0.0000
 40
0.0100
 41
0.0100
  0
VERTEX
  8
LPF120_DRD
 10
4.8780
 20
-1.2872
 30
0.0000
  0
VERTEX
  8
LPF120_DRD
 10
4.8892
 20
-1.2872
 30
0.0000
  0
VERTEX
  8
LPF120_DRD
 10
4.8892
 20
-1.2761
 30
0.0000
  0
VERTEX
  8
LPF120_DRD
 10
4.8781
 20
-1.2761
 30
0.0000
  0
SEQEND
  0
POLYLINE
  8
LPF120_DRD
 66
1
 10
0.0000
 20
0.0000
 30
0.0000
 40
0.0100
 41
0.0100
  0
VERTEX
  8
LPF120_DRD
 10
4.8780
 20
-1.2761
 30
0.0000
  0
VERTEX
  8
LPF120_DRD
 10
4.8781
 20
-1.2872
 30
0.0000
  0
SEQEND
  0
POLYLINE
  8
LPF120_DRD
 66
1
 10
0.0000
 20
0.0000
 30
0.0000
 40
0.0100
 41
0.0100
  0
VERTEX
  8
LPF120_DRD
 10
4.8136
 20
-1.2872
 30
0.0000
  0
VERTEX
  8
LPF120_DRD
 10
4.8025
 20
-1.2761
 30
0.0000
  0
VERTEX
  8
LPF120_DRD
 10
4.7969
 20
-1.2650
 30
0.0000
  0
VERTEX
  8
LPF120_DRD
 10
4.7969
 20
-1.2428
 30
0.0000
  0
VERTEX
  8
LPF120_DRD
 10
4.8025
 20
-1.2317
 30
0.0000
  0
VERTEX
  8
LPF120_DRD
 10
4.8136
 20
-1.2206
 30
0.0000
  0
VERTEX
  8
LPF120_DRD
 10
4.8247
 20
-1.2206
 30
0.0000
  0
VERTEX
  8
LPF120_DRD
 10
4.8358
 20
-1.2317
 30
0.0000
  0
VERTEX
  8
LPF120_DRD
 10
4.8414
 20
-1.2428
 30
0.0000
  0
VERTEX
  8
LPF120_DRD
 10
4.8414
 20
-1.2650
 30
0.0000
  0
VERTEX
  8
LPF120_DRD
 10
4.8358
 20
-1.2761
 30
0.0000
  0
VERTEX
  8
LPF120_DRD
 10
4.8247
 20
-1.2872
 30
0.0000
  0
VERTEX
  8
LPF120_DRD
 10
4.8136
 20
-1.2872
 30
0.0000
  0
SEQEND
  0
POLYLINE
  8
LPF120_DRD
 66
1
 10
0.0000
 20
0.0000
 30
0.0000
 40
0.0100
 41
0.0100
  0
VERTEX
  8
LPF120_DRD
 10
7.3012
 20
-1.0733
 30
0.0000
  0
VERTEX
  8
LPF120_DRD
 10
7.2512
 20
-1.0733
 30
0.0000
  0
SEQEND
  0
POLYLINE
  8
LPF120_DRD
 66
1
 10
0.0000
 20
0.0000
 30
0.0000
 40
0.0100
 41
0.0100
  0
VERTEX
  8
LPF120_DRD
 10
7.3179
 20
-1.1233
 30
0.0000
  0
VERTEX
  8
LPF120_DRD
 10
7.2512
 20
-1.1233
 30
0.0000
  0
VERTEX
  8
LPF120_DRD
 10
7.2512
 20
-1.0233
 30
0.0000
  0
VERTEX
  8
LPF120_DRD
 10
7.3179
 20
-1.0233
 30
0.0000
  0
SEQEND
  0
POLYLINE
  8
LPF120_DRD
 66
1
 10
0.0000
 20
0.0000
 30
0.0000
 40
0.0100
 41
0.0100
  0
VERTEX
  8
LPF120_DRD
 10
7.1896
 20
-1.1233
 30
0.0000
  0
VERTEX
  8
LPF120_DRD
 10
7.1896
 20
-1.0233
 30
0.0000
  0
SEQEND
  0
POLYLINE
  8
LPF120_DRD
 66
1
 10
0.0000
 20
0.0000
 30
0.0000
 40
0.0100
 41
0.0100
  0
VERTEX
  8
LPF120_DRD
 10
7.2229
 20
-1.0233
 30
0.0000
  0
VERTEX
  8
LPF120_DRD
 10
7.1562
 20
-1.0233
 30
0.0000
  0
SEQEND
  0
POLYLINE
  8
LPF120_DRD
 66
1
 10
0.0000
 20
0.0000
 30
0.0000
 40
0.0100
 41
0.0100
  0
VERTEX
  8
LPF120_DRD
 10
7.0695
 20
-1.1233
 30
0.0000
  0
VERTEX
  8
LPF120_DRD
 10
7.0612
 20
-1.1067
 30
0.0000
  0
VERTEX
  8
LPF120_DRD
 10
7.0612
 20
-1.0400
 30
0.0000
  0
VERTEX
  8
LPF120_DRD
 10
7.0696
 20
-1.0233
 30
0.0000
  0
SEQEND
  0
POLYLINE
  8
LPF120_DRD
 66
1
 10
0.0000
 20
0.0000
 30
0.0000
 40
0.0100
 41
0.0100
  0
VERTEX
  8
LPF120_DRD
 10
7.0695
 20
-1.0233
 30
0.0000
  0
VERTEX
  8
LPF120_DRD
 10
7.1196
 20
-1.0233
 30
0.0000
  0
SEQEND
  0
POLYLINE
  8
LPF120_DRD
 66
1
 10
0.0000
 20
0.0000
 30
0.0000
 40
0.0100
 41
0.0100
  0
VERTEX
  8
LPF120_DRD
 10
7.1195
 20
-1.0233
 30
0.0000
  0
VERTEX
  8
LPF120_DRD
 10
7.1279
 20
-1.0400
 30
0.0000
  0
VERTEX
  8
LPF120_DRD
 10
7.1279
 20
-1.1067
 30
0.0000
  0
VERTEX
  8
LPF120_DRD
 10
7.1196
 20
-1.1233
 30
0.0000
  0
SEQEND
  0
POLYLINE
  8
LPF120_DRD
 66
1
 10
0.0000
 20
0.0000
 30
0.0000
 40
0.0100
 41
0.0100
  0
VERTEX
  8
LPF120_DRD
 10
7.1195
 20
-1.1233
 30
0.0000
  0
VERTEX
  8
LPF120_DRD
 10
7.0696
 20
-1.1233
 30
0.0000
  0
SEQEND
  0
POLYLINE
  8
LPF120_DRD
 66
1
 10
0.0000
 20
0.0000
 30
0.0000
 40
0.0100
 41
0.0100
  0
VERTEX
  8
LPF120_DRD
 10
7.0329
 20
-1.0233
 30
0.0000
  0
VERTEX
  8
LPF120_DRD
 10
7.0329
 20
-1.1233
 30
0.0000
  0
VERTEX
  8
LPF120_DRD
 10
7.0162
 20
-1.1067
 30
0.0000
  0
VERTEX
  8
LPF120_DRD
 10
6.9829
 20
-1.0400
 30
0.0000
  0
VERTEX
  8
LPF120_DRD
 10
6.9662
 20
-1.0233
 30
0.0000
  0
VERTEX
  8
LPF120_DRD
 10
6.9662
 20
-1.1233
 30
0.0000
  0
SEQEND
  0
POLYLINE
  8
LPF120_DRD
 66
1
 10
0.0000
 20
0.0000
 30
0.0000
 40
0.0100
 41
0.0100
  0
VERTEX
  8
LPF120_DRD
 10
6.3825
 20
-1.1233
 30
0.0000
  0
VERTEX
  8
LPF120_DRD
 10
6.3825
 20
-1.0733
 30
0.0000
  0
SEQEND
  0
POLYLINE
  8
LPF120_DRD
 66
1
 10
0.0000
 20
0.0000
 30
0.0000
 40
0.0100
 41
0.0100
  0
VERTEX
  8
LPF120_DRD
 10
6.4158
 20
-1.0233
 30
0.0000
  0
VERTEX
  8
LPF120_DRD
 10
6.3908
 20
-1.0733
 30
0.0000
  0
VERTEX
  8
LPF120_DRD
 10
6.3742
 20
-1.0733
 30
0.0000
  0
SEQEND
  0
POLYLINE
  8
LPF120_DRD
 66
1
 10
0.0000
 20
0.0000
 30
0.0000
 40
0.0100
 41
0.0100
  0
VERTEX
  8
LPF120_DRD
 10
6.3741
 20
-1.0733
 30
0.0000
  0
VERTEX
  8
LPF120_DRD
 10
6.3492
 20
-1.0233
 30
0.0000
  0
SEQEND
  0
POLYLINE
  8
LPF120_DRD
 66
1
 10
0.0000
 20
0.0000
 30
0.0000
 40
0.0100
 41
0.0100
  0
VERTEX
  8
LPF120_DRD
 10
6.2875
 20
-1.1233
 30
0.0000
  0
VERTEX
  8
LPF120_DRD
 10
6.2875
 20
-1.0233
 30
0.0000
  0
SEQEND
  0
POLYLINE
  8
LPF120_DRD
 66
1
 10
0.0000
 20
0.0000
 30
0.0000
 40
0.0100
 41
0.0100
  0
VERTEX
  8
LPF120_DRD
 10
6.3208
 20
-1.0233
 30
0.0000
  0
VERTEX
  8
LPF120_DRD
 10
6.2542
 20
-1.0233
 30
0.0000
  0
SEQEND
  0
POLYLINE
  8
LPF120_DRD
 66
1
 10
0.0000
 20
0.0000
 30
0.0000
 40
0.0100
 41
0.0100
  0
VERTEX
  8
LPF120_DRD
 10
6.1925
 20
-1.0900
 30
0.0000
  0
VERTEX
  8
LPF120_DRD
 10
6.2258
 20
-1.1233
 30
0.0000
  0
SEQEND
  0
POLYLINE
  8
LPF120_DRD
 66
1
 10
0.0000
 20
0.0000
 30
0.0000
 40
0.0100
 41
0.0100
  0
VERTEX
  8
LPF120_DRD
 10
6.1591
 20
-1.1067
 30
0.0000
  0
VERTEX
  8
LPF120_DRD
 10
6.1675
 20
-1.1233
 30
0.0000
  0
VERTEX
  8
LPF120_DRD
 10
6.2008
 20
-1.1233
 30
0.0000
  0
VERTEX
  8
LPF120_DRD
 10
6.2091
 20
-1.1067
 30
0.0000
  0
VERTEX
  8
LPF120_DRD
 10
6.2258
 20
-1.0900
 30
0.0000
  0
VERTEX
  8
LPF120_DRD
 10
6.2258
 20
-1.0400
 30
0.0000
  0
VERTEX
  8
LPF120_DRD
 10
6.2175
 20
-1.0233
 30
0.0000
  0
VERTEX
  8
LPF120_DRD
 10
6.1675
 20
-1.0233
 30
0.0000
  0
VERTEX
  8
LPF120_DRD
 10
6.1592
 20
-1.0400
 30
0.0000
  0
SEQEND
  0
POLYLINE
  8
LPF120_DRD
 66
1
 10
0.0000
 20
0.0000
 30
0.0000
 40
0.0100
 41
0.0100
  0
VERTEX
  8
LPF120_DRD
 10
6.1591
 20
-1.0400
 30
0.0000
  0
VERTEX
  8
LPF120_DRD
 10
6.1592
 20
-1.1067
 30
0.0000
  0
SEQEND
  0
POLYLINE
  8
LPF120_DRD
 66
1
 10
0.0000
 20
0.0000
 30
0.0000
 40
0.0100
 41
0.0100
  0
VERTEX
  8
LPF120_DRD
 10
5.7308
 20
-1.1233
 30
0.0000
  0
VERTEX
  8
LPF120_DRD
 10
5.6725
 20
-1.1233
 30
0.0000
  0
VERTEX
  8
LPF120_DRD
 10
5.6725
 20
-1.0233
 30
0.0000
  0
SEQEND
  0
POLYLINE
  8
LPF120_DRD
 66
1
 10
0.0000
 20
0.0000
 30
0.0000
 40
0.0100
 41
0.0100
  0
VERTEX
  8
LPF120_DRD
 10
5.5858
 20
-1.1233
 30
0.0000
  0
VERTEX
  8
LPF120_DRD
 10
5.5775
 20
-1.1067
 30
0.0000
  0
VERTEX
  8
LPF120_DRD
 10
5.5775
 20
-1.0400
 30
0.0000
  0
VERTEX
  8
LPF120_DRD
 10
5.5858
 20
-1.0233
 30
0.0000
  0
VERTEX
  8
LPF120_DRD
 10
5.6358
 20
-1.0233
 30
0.0000
  0
VERTEX
  8
LPF120_DRD
 10
5.6442
 20
-1.0400
 30
0.0000
  0
VERTEX
  8
LPF120_DRD
 10
5.6442
 20
-1.1067
 30
0.0000
  0
VERTEX
  8
LPF120_DRD
 10
5.6358
 20
-1.1233
 30
0.0000
  0
VERTEX
  8
LPF120_DRD
 10
5.5858
 20
-1.1233
 30
0.0000
  0
SEQEND
  0
POLYLINE
  8
LPF120_DRD
 66
1
 10
0.0000
 20
0.0000
 30
0.0000
 40
0.0100
 41
0.0100
  0
VERTEX
  8
LPF120_DRD
 10
5.5158
 20
-1.1233
 30
0.0000
  0
VERTEX
  8
LPF120_DRD
 10
5.5158
 20
-1.0233
 30
0.0000
  0
SEQEND
  0
POLYLINE
  8
LPF120_DRD
 66
1
 10
0.0000
 20
0.0000
 30
0.0000
 40
0.0100
 41
0.0100
  0
VERTEX
  8
LPF120_DRD
 10
5.5492
 20
-1.0233
 30
0.0000
  0
VERTEX
  8
LPF120_DRD
 10
5.4825
 20
-1.0233
 30
0.0000
  0
SEQEND
  0
POLYLINE
  8
LPF120_DRD
 66
1
 10
0.0000
 20
0.0000
 30
0.0000
 40
0.0100
 41
0.0100
  0
VERTEX
  8
LPF120_DRD
 10
4.9487
 20
-1.1233
 30
0.0000
  0
VERTEX
  8
LPF120_DRD
 10
4.9487
 20
-1.0233
 30
0.0000
  0
VERTEX
  8
LPF120_DRD
 10
4.9320
 20
-1.0400
 30
0.0000
  0
VERTEX
  8
LPF120_DRD
 10
4.9154
 20
-1.0733
 30
0.0000
  0
VERTEX
  8
LPF120_DRD
 10
4.8987
 20
-1.0400
 30
0.0000
  0
VERTEX
  8
LPF120_DRD
 10
4.8821
 20
-1.0233
 30
0.0000
  0
SEQEND
  0
POLYLINE
  8
LPF120_DRD
 66
1
 10
0.0000
 20
0.0000
 30
0.0000
 40
0.0100
 41
0.0100
  0
VERTEX
  8
LPF120_DRD
 10
4.8820
 20
-1.0233
 30
0.0000
  0
VERTEX
  8
LPF120_DRD
 10
4.8821
 20
-1.1233
 30
0.0000
  0
SEQEND
  0
POLYLINE
  8
LPF120_DRD
 66
1
 10
0.0000
 20
0.0000
 30
0.0000
 40
0.0100
 41
0.0100
  0
VERTEX
  8
LPF120_DRD
 10
4.8537
 20
-1.0900
 30
0.0000
  0
VERTEX
  8
LPF120_DRD
 10
4.7871
 20
-1.0900
 30
0.0000
  0
SEQEND
  0
POLYLINE
  8
LPF120_DRD
 66
1
 10
0.0000
 20
0.0000
 30
0.0000
 40
0.0100
 41
0.0100
  0
VERTEX
  8
LPF120_DRD
 10
4.8537
 20
-1.1233
 30
0.0000
  0
VERTEX
  8
LPF120_DRD
 10
4.8537
 20
-1.0733
 30
0.0000
  0
VERTEX
  8
LPF120_DRD
 10
4.8287
 20
-1.0233
 30
0.0000
  0
VERTEX
  8
LPF120_DRD
 10
4.8121
 20
-1.0233
 30
0.0000
  0
SEQEND
  0
POLYLINE
  8
LPF120_DRD
 66
1
 10
0.0000
 20
0.0000
 30
0.0000
 40
0.0100
 41
0.0100
  0
VERTEX
  8
LPF120_DRD
 10
4.8120
 20
-1.0233
 30
0.0000
  0
VERTEX
  8
LPF120_DRD
 10
4.7871
 20
-1.0733
 30
0.0000
  0
SEQEND
  0
POLYLINE
  8
LPF120_DRD
 66
1
 10
0.0000
 20
0.0000
 30
0.0000
 40
0.0100
 41
0.0100
  0
VERTEX
  8
LPF120_DRD
 10
4.7870
 20
-1.0733
 30
0.0000
  0
VERTEX
  8
LPF120_DRD
 10
4.7871
 20
-1.1233
 30
0.0000
  0
SEQEND
  0
POLYLINE
  8
LPF120_DRD
 66
1
 10
0.0000
 20
0.0000
 30
0.0000
 40
0.0100
 41
0.0100
  0
VERTEX
  8
LPF120_DRD
 10
4.7587
 20
-1.1233
 30
0.0000
  0
VERTEX
  8
LPF120_DRD
 10
4.7254
 20
-1.1233
 30
0.0000
  0
SEQEND
  0
POLYLINE
  8
LPF120_DRD
 66
1
 10
0.0000
 20
0.0000
 30
0.0000
 40
0.0100
 41
0.0100
  0
VERTEX
  8
LPF120_DRD
 10
4.7421
 20
-1.1233
 30
0.0000
  0
VERTEX
  8
LPF120_DRD
 10
4.7421
 20
-1.0233
 30
0.0000
  0
SEQEND
  0
POLYLINE
  8
LPF120_DRD
 66
1
 10
0.0000
 20
0.0000
 30
0.0000
 40
0.0100
 41
0.0100
  0
VERTEX
  8
LPF120_DRD
 10
4.7587
 20
-1.0233
 30
0.0000
  0
VERTEX
  8
LPF120_DRD
 10
4.7254
 20
-1.0233
 30
0.0000
  0
SEQEND
  0
POLYLINE
  8
LPF120_DRD
 66
1
 10
0.0000
 20
0.0000
 30
0.0000
 40
0.0100
 41
0.0100
  0
VERTEX
  8
LPF120_DRD
 10
4.6221
 20
-1.1233
 30
0.0000
  0
VERTEX
  8
LPF120_DRD
 10
4.6221
 20
-1.0233
 30
0.0000
  0
SEQEND
  0
POLYLINE
  8
LPF120_DRD
 66
1
 10
0.0000
 20
0.0000
 30
0.0000
 40
0.0100
 41
0.0100
  0
VERTEX
  8
LPF120_DRD
 10
4.6137
 20
-1.1233
 30
0.0000
  0
VERTEX
  8
LPF120_DRD
 10
4.6637
 20
-1.1233
 30
0.0000
  0
VERTEX
  8
LPF120_DRD
 10
4.6804
 20
-1.0900
 30
0.0000
  0
VERTEX
  8
LPF120_DRD
 10
4.6804
 20
-1.0567
 30
0.0000
  0
VERTEX
  8
LPF120_DRD
 10
4.6637
 20
-1.0233
 30
0.0000
  0
VERTEX
  8
LPF120_DRD
 10
4.6137
 20
-1.0233
 30
0.0000
  0
SEQEND
  0
POLYLINE
  8
LPF120_DRD
 66
1
 10
0.0000
 20
0.0000
 30
0.0000
 40
0.0100
 41
0.0100
  0
VERTEX
  8
LPF120_DRD
 10
4.3050
 20
-1.1233
 30
0.0000
  0
VERTEX
  8
LPF120_DRD
 10
4.3050
 20
-1.0233
 30
0.0000
  0
VERTEX
  8
LPF120_DRD
 10
4.2883
 20
-1.0400
 30
0.0000
  0
VERTEX
  8
LPF120_DRD
 10
4.2717
 20
-1.0733
 30
0.0000
  0
VERTEX
  8
LPF120_DRD
 10
4.2550
 20
-1.0400
 30
0.0000
  0
VERTEX
  8
LPF120_DRD
 10
4.2383
 20
-1.0233
 30
0.0000
  0
VERTEX
  8
LPF120_DRD
 10
4.2383
 20
-1.1233
 30
0.0000
  0
SEQEND
  0
POLYLINE
  8
LPF120_DRD
 66
1
 10
0.0000
 20
0.0000
 30
0.0000
 40
0.0100
 41
0.0100
  0
VERTEX
  8
LPF120_DRD
 10
4.1767
 20
-1.1233
 30
0.0000
  0
VERTEX
  8
LPF120_DRD
 10
4.1767
 20
-1.0733
 30
0.0000
  0
SEQEND
  0
POLYLINE
  8
LPF120_DRD
 66
1
 10
0.0000
 20
0.0000
 30
0.0000
 40
0.0100
 41
0.0100
  0
VERTEX
  8
LPF120_DRD
 10
4.2100
 20
-1.0233
 30
0.0000
  0
VERTEX
  8
LPF120_DRD
 10
4.1850
 20
-1.0733
 30
0.0000
  0
VERTEX
  8
LPF120_DRD
 10
4.1683
 20
-1.0733
 30
0.0000
  0
VERTEX
  8
LPF120_DRD
 10
4.1433
 20
-1.0233
 30
0.0000
  0
SEQEND
  0
POLYLINE
  8
LPF120_DRD
 66
1
 10
0.0000
 20
0.0000
 30
0.0000
 40
0.0100
 41
0.0100
  0
VERTEX
  8
LPF120_DRD
 10
4.1150
 20
-1.0400
 30
0.0000
  0
VERTEX
  8
LPF120_DRD
 10
4.1067
 20
-1.0233
 30
0.0000
  0
SEQEND
  0
POLYLINE
  8
LPF120_DRD
 66
1
 10
0.0000
 20
0.0000
 30
0.0000
 40
0.0100
 41
0.0100
  0
VERTEX
  8
LPF120_DRD
 10
4.1066
 20
-1.0233
 30
0.0000
  0
VERTEX
  8
LPF120_DRD
 10
4.0567
 20
-1.0233
 30
0.0000
  0
SEQEND
  0
POLYLINE
  8
LPF120_DRD
 66
1
 10
0.0000
 20
0.0000
 30
0.0000
 40
0.0100
 41
0.0100
  0
VERTEX
  8
LPF120_DRD
 10
4.0566
 20
-1.0233
 30
0.0000
  0
VERTEX
  8
LPF120_DRD
 10
4.0483
 20
-1.0400
 30
0.0000
  0
VERTEX
  8
LPF120_DRD
 10
4.0483
 20
-1.0567
 30
0.0000
  0
VERTEX
  8
LPF120_DRD
 10
4.0567
 20
-1.0733
 30
0.0000
  0
SEQEND
  0
POLYLINE
  8
LPF120_DRD
 66
1
 10
0.0000
 20
0.0000
 30
0.0000
 40
0.0100
 41
0.0100
  0
VERTEX
  8
LPF120_DRD
 10
4.0566
 20
-1.0733
 30
0.0000
  0
VERTEX
  8
LPF120_DRD
 10
4.1067
 20
-1.0733
 30
0.0000
  0
SEQEND
  0
POLYLINE
  8
LPF120_DRD
 66
1
 10
0.0000
 20
0.0000
 30
0.0000
 40
0.0100
 41
0.0100
  0
VERTEX
  8
LPF120_DRD
 10
4.1066
 20
-1.0733
 30
0.0000
  0
VERTEX
  8
LPF120_DRD
 10
4.1150
 20
-1.0900
 30
0.0000
  0
VERTEX
  8
LPF120_DRD
 10
4.1150
 20
-1.1067
 30
0.0000
  0
VERTEX
  8
LPF120_DRD
 10
4.1067
 20
-1.1233
 30
0.0000
  0
SEQEND
  0
POLYLINE
  8
LPF120_DRD
 66
1
 10
0.0000
 20
0.0000
 30
0.0000
 40
0.0100
 41
0.0100
  0
VERTEX
  8
LPF120_DRD
 10
4.1066
 20
-1.1233
 30
0.0000
  0
VERTEX
  8
LPF120_DRD
 10
4.0567
 20
-1.1233
 30
0.0000
  0
SEQEND
  0
POLYLINE
  8
LPF120_DRD
 66
1
 10
0.0000
 20
0.0000
 30
0.0000
 40
0.0100
 41
0.0100
  0
VERTEX
  8
LPF120_DRD
 10
4.0566
 20
-1.1233
 30
0.0000
  0
VERTEX
  8
LPF120_DRD
 10
4.0483
 20
-1.1067
 30
0.0000
  0
SEQEND
  0
POLYLINE
  8
LPF120_DRD
 66
1
 10
0.0000
 20
0.0000
 30
0.0000
 40
0.0100
 41
0.0100
  0
VERTEX
  8
LPF120_DRD
 10
6.3337
 20
-0.9233
 30
0.0000
  0
VERTEX
  8
LPF120_DRD
 10
6.3337
 20
-0.8233
 30
0.0000
  0
SEQEND
  0
POLYLINE
  8
LPF120_DRD
 66
1
 10
0.0000
 20
0.0000
 30
0.0000
 40
0.0100
 41
0.0100
  0
VERTEX
  8
LPF120_DRD
 10
6.3670
 20
-0.8233
 30
0.0000
  0
VERTEX
  8
LPF120_DRD
 10
6.3004
 20
-0.8233
 30
0.0000
  0
SEQEND
  0
POLYLINE
  8
LPF120_DRD
 66
1
 10
0.0000
 20
0.0000
 30
0.0000
 40
0.0100
 41
0.0100
  0
VERTEX
  8
LPF120_DRD
 10
6.2470
 20
-0.8733
 30
0.0000
  0
VERTEX
  8
LPF120_DRD
 10
6.2720
 20
-0.9233
 30
0.0000
  0
SEQEND
  0
POLYLINE
  8
LPF120_DRD
 66
1
 10
0.0000
 20
0.0000
 30
0.0000
 40
0.0100
 41
0.0100
  0
VERTEX
  8
LPF120_DRD
 10
6.2054
 20
-0.8733
 30
0.0000
  0
VERTEX
  8
LPF120_DRD
 10
6.2554
 20
-0.8733
 30
0.0000
  0
VERTEX
  8
LPF120_DRD
 10
6.2720
 20
-0.8567
 30
0.0000
  0
VERTEX
  8
LPF120_DRD
 10
6.2720
 20
-0.8400
 30
0.0000
  0
VERTEX
  8
LPF120_DRD
 10
6.2554
 20
-0.8233
 30
0.0000
  0
VERTEX
  8
LPF120_DRD
 10
6.2054
 20
-0.8233
 30
0.0000
  0
VERTEX
  8
LPF120_DRD
 10
6.2054
 20
-0.9233
 30
0.0000
  0
SEQEND
  0
POLYLINE
  8
LPF120_DRD
 66
1
 10
0.0000
 20
0.0000
 30
0.0000
 40
0.0100
 41
0.0100
  0
VERTEX
  8
LPF120_DRD
 10
6.1770
 20
-0.8900
 30
0.0000
  0
VERTEX
  8
LPF120_DRD
 10
6.1104
 20
-0.8900
 30
0.0000
  0
SEQEND
  0
POLYLINE
  8
LPF120_DRD
 66
1
 10
0.0000
 20
0.0000
 30
0.0000
 40
0.0100
 41
0.0100
  0
VERTEX
  8
LPF120_DRD
 10
6.1770
 20
-0.9233
 30
0.0000
  0
VERTEX
  8
LPF120_DRD
 10
6.1770
 20
-0.8733
 30
0.0000
  0
VERTEX
  8
LPF120_DRD
 10
6.1520
 20
-0.8233
 30
0.0000
  0
VERTEX
  8
LPF120_DRD
 10
6.1354
 20
-0.8233
 30
0.0000
  0
VERTEX
  8
LPF120_DRD
 10
6.1104
 20
-0.8733
 30
0.0000
  0
VERTEX
  8
LPF120_DRD
 10
6.1104
 20
-0.9233
 30
0.0000
  0
SEQEND
  0
POLYLINE
  8
LPF120_DRD
 66
1
 10
0.0000
 20
0.0000
 30
0.0000
 40
0.0100
 41
0.0100
  0
VERTEX
  8
LPF120_DRD
 10
6.0820
 20
-0.8733
 30
0.0000
  0
VERTEX
  8
LPF120_DRD
 10
6.0154
 20
-0.8733
 30
0.0000
  0
SEQEND
  0
POLYLINE
  8
LPF120_DRD
 66
1
 10
0.0000
 20
0.0000
 30
0.0000
 40
0.0100
 41
0.0100
  0
VERTEX
  8
LPF120_DRD
 10
6.0820
 20
-0.9233
 30
0.0000
  0
VERTEX
  8
LPF120_DRD
 10
6.0820
 20
-0.8233
 30
0.0000
  0
SEQEND
  0
POLYLINE
  8
LPF120_DRD
 66
1
 10
0.0000
 20
0.0000
 30
0.0000
 40
0.0100
 41
0.0100
  0
VERTEX
  8
LPF120_DRD
 10
6.0154
 20
-0.9233
 30
0.0000
  0
VERTEX
  8
LPF120_DRD
 10
6.0154
 20
-0.8233
 30
0.0000
  0
SEQEND
  0
POLYLINE
  8
LPF120_DRD
 66
1
 10
0.0000
 20
0.0000
 30
0.0000
 40
0.0100
 41
0.0100
  0
VERTEX
  8
LPF120_DRD
 10
5.9870
 20
-0.9067
 30
0.0000
  0
VERTEX
  8
LPF120_DRD
 10
5.9787
 20
-0.9233
 30
0.0000
  0
VERTEX
  8
LPF120_DRD
 10
5.9287
 20
-0.9233
 30
0.0000
  0
VERTEX
  8
LPF120_DRD
 10
5.9204
 20
-0.9067
 30
0.0000
  0
VERTEX
  8
LPF120_DRD
 10
5.9204
 20
-0.8400
 30
0.0000
  0
VERTEX
  8
LPF120_DRD
 10
5.9287
 20
-0.8233
 30
0.0000
  0
VERTEX
  8
LPF120_DRD
 10
5.9787
 20
-0.8233
 30
0.0000
  0
VERTEX
  8
LPF120_DRD
 10
5.9870
 20
-0.8400
 30
0.0000
  0
SEQEND
  0
POLYLINE
  8
LPF120_DRD
 66
1
 10
0.0000
 20
0.0000
 30
0.0000
 40
0.0100
 41
0.0100
  0
VERTEX
  8
LPF120_DRD
 10
5.7595
 20
-0.9233
 30
0.0000
  0
VERTEX
  8
LPF120_DRD
 10
5.7012
 20
-0.9233
 30
0.0000
  0
VERTEX
  8
LPF120_DRD
 10
5.7012
 20
-0.8233
 30
0.0000
  0
SEQEND
  0
POLYLINE
  8
LPF120_DRD
 66
1
 10
0.0000
 20
0.0000
 30
0.0000
 40
0.0100
 41
0.0100
  0
VERTEX
  8
LPF120_DRD
 10
5.6729
 20
-0.9233
 30
0.0000
  0
VERTEX
  8
LPF120_DRD
 10
5.6146
 20
-0.9233
 30
0.0000
  0
VERTEX
  8
LPF120_DRD
 10
5.6146
 20
-0.8233
 30
0.0000
  0
SEQEND
  0
POLYLINE
  8
LPF120_DRD
 66
1
 10
0.0000
 20
0.0000
 30
0.0000
 40
0.0100
 41
0.0100
  0
VERTEX
  8
LPF120_DRD
 10
5.5862
 20
-0.9233
 30
0.0000
  0
VERTEX
  8
LPF120_DRD
 10
5.5529
 20
-0.9233
 30
0.0000
  0
SEQEND
  0
POLYLINE
  8
LPF120_DRD
 66
1
 10
0.0000
 20
0.0000
 30
0.0000
 40
0.0100
 41
0.0100
  0
VERTEX
  8
LPF120_DRD
 10
5.5696
 20
-0.9233
 30
0.0000
  0
VERTEX
  8
LPF120_DRD
 10
5.5696
 20
-0.8233
 30
0.0000
  0
SEQEND
  0
POLYLINE
  8
LPF120_DRD
 66
1
 10
0.0000
 20
0.0000
 30
0.0000
 40
0.0100
 41
0.0100
  0
VERTEX
  8
LPF120_DRD
 10
5.5862
 20
-0.8233
 30
0.0000
  0
VERTEX
  8
LPF120_DRD
 10
5.5529
 20
-0.8233
 30
0.0000
  0
SEQEND
  0
POLYLINE
  8
LPF120_DRD
 66
1
 10
0.0000
 20
0.0000
 30
0.0000
 40
0.0100
 41
0.0100
  0
VERTEX
  8
LPF120_DRD
 10
5.4829
 20
-0.8733
 30
0.0000
  0
VERTEX
  8
LPF120_DRD
 10
5.5079
 20
-0.9233
 30
0.0000
  0
SEQEND
  0
POLYLINE
  8
LPF120_DRD
 66
1
 10
0.0000
 20
0.0000
 30
0.0000
 40
0.0100
 41
0.0100
  0
VERTEX
  8
LPF120_DRD
 10
5.4412
 20
-0.8733
 30
0.0000
  0
VERTEX
  8
LPF120_DRD
 10
5.4912
 20
-0.8733
 30
0.0000
  0
VERTEX
  8
LPF120_DRD
 10
5.5079
 20
-0.8567
 30
0.0000
  0
VERTEX
  8
LPF120_DRD
 10
5.5079
 20
-0.8400
 30
0.0000
  0
VERTEX
  8
LPF120_DRD
 10
5.4912
 20
-0.8233
 30
0.0000
  0
VERTEX
  8
LPF120_DRD
 10
5.4413
 20
-0.8233
 30
0.0000
  0
SEQEND
  0
POLYLINE
  8
LPF120_DRD
 66
1
 10
0.0000
 20
0.0000
 30
0.0000
 40
0.0100
 41
0.0100
  0
VERTEX
  8
LPF120_DRD
 10
5.4412
 20
-0.8233
 30
0.0000
  0
VERTEX
  8
LPF120_DRD
 10
5.4413
 20
-0.9233
 30
0.0000
  0
SEQEND
  0
POLYLINE
  8
LPF120_DRD
 66
1
 10
0.0000
 20
0.0000
 30
0.0000
 40
0.0100
 41
0.0100
  0
VERTEX
  8
LPF120_DRD
 10
5.3546
 20
-0.9233
 30
0.0000
  0
VERTEX
  8
LPF120_DRD
 10
5.3546
 20
-0.8233
 30
0.0000
  0
SEQEND
  0
POLYLINE
  8
LPF120_DRD
 66
1
 10
0.0000
 20
0.0000
 30
0.0000
 40
0.0100
 41
0.0100
  0
VERTEX
  8
LPF120_DRD
 10
5.3462
 20
-0.9233
 30
0.0000
  0
VERTEX
  8
LPF120_DRD
 10
5.3962
 20
-0.9233
 30
0.0000
  0
VERTEX
  8
LPF120_DRD
 10
5.4129
 20
-0.8900
 30
0.0000
  0
VERTEX
  8
LPF120_DRD
 10
5.4129
 20
-0.8567
 30
0.0000
  0
VERTEX
  8
LPF120_DRD
 10
5.3962
 20
-0.8233
 30
0.0000
  0
VERTEX
  8
LPF120_DRD
 10
5.3463
 20
-0.8233
 30
0.0000
  0
SEQEND
  0
POLYLINE
  8
LPF120_DRD
 66
1
 10
0.0000
 20
0.0000
 30
0.0000
 40
0.0100
 41
0.0100
  0
VERTEX
  8
LPF120_DRD
 10
5.6248
 20
3.3031
 30
0.0000
  0
VERTEX
  8
LPF120_DRD
 10
5.6290
 20
3.2948
 30
0.0000
  0
VERTEX
  8
LPF120_DRD
 10
5.6540
 20
3.2948
 30
0.0000
  0
VERTEX
  8
LPF120_DRD
 10
5.6581
 20
3.3031
 30
0.0000
  0
VERTEX
  8
LPF120_DRD
 10
5.6581
 20
3.3198
 30
0.0000
  0
VERTEX
  8
LPF120_DRD
 10
5.6498
 20
3.3282
 30
0.0000
  0
VERTEX
  8
LPF120_DRD
 10
5.6248
 20
3.3282
 30
0.0000
  0
VERTEX
  8
LPF120_DRD
 10
5.6248
 20
3.3448
 30
0.0000
  0
VERTEX
  8
LPF120_DRD
 10
5.6581
 20
3.3448
 30
0.0000
  0
SEQEND
  0
POLYLINE
  8
LPF120_DRD
 66
1
 10
0.0000
 20
0.0000
 30
0.0000
 40
0.0100
 41
0.0100
  0
VERTEX
  8
LPF120_DRD
 10
5.5673
 20
3.3031
 30
0.0000
  0
VERTEX
  8
LPF120_DRD
 10
5.5715
 20
3.2948
 30
0.0000
  0
VERTEX
  8
LPF120_DRD
 10
5.5965
 20
3.2948
 30
0.0000
  0
VERTEX
  8
LPF120_DRD
 10
5.6006
 20
3.3031
 30
0.0000
  0
VERTEX
  8
LPF120_DRD
 10
5.6006
 20
3.3198
 30
0.0000
  0
VERTEX
  8
LPF120_DRD
 10
5.5923
 20
3.3282
 30
0.0000
  0
VERTEX
  8
LPF120_DRD
 10
5.5673
 20
3.3282
 30
0.0000
  0
VERTEX
  8
LPF120_DRD
 10
5.5673
 20
3.3448
 30
0.0000
  0
VERTEX
  8
LPF120_DRD
 10
5.6006
 20
3.3448
 30
0.0000
  0
SEQEND
  0
POLYLINE
  8
LPF120_DRD
 66
1
 10
0.0000
 20
0.0000
 30
0.0000
 40
0.0100
 41
0.0100
  0
VERTEX
  8
LPF120_DRD
 10
5.5223
 20
3.2948
 30
0.0000
  0
VERTEX
  8
LPF120_DRD
 10
5.5140
 20
3.3031
 30
0.0000
  0
VERTEX
  8
LPF120_DRD
 10
5.5098
 20
3.3115
 30
0.0000
  0
VERTEX
  8
LPF120_DRD
 10
5.5098
 20
3.3282
 30
0.0000
  0
VERTEX
  8
LPF120_DRD
 10
5.5140
 20
3.3365
 30
0.0000
  0
VERTEX
  8
LPF120_DRD
 10
5.5223
 20
3.3448
 30
0.0000
  0
VERTEX
  8
LPF120_DRD
 10
5.5306
 20
3.3448
 30
0.0000
  0
VERTEX
  8
LPF120_DRD
 10
5.5390
 20
3.3365
 30
0.0000
  0
VERTEX
  8
LPF120_DRD
 10
5.5431
 20
3.3282
 30
0.0000
  0
VERTEX
  8
LPF120_DRD
 10
5.5431
 20
3.3115
 30
0.0000
  0
VERTEX
  8
LPF120_DRD
 10
5.5390
 20
3.3031
 30
0.0000
  0
VERTEX
  8
LPF120_DRD
 10
5.5306
 20
3.2948
 30
0.0000
  0
VERTEX
  8
LPF120_DRD
 10
5.5223
 20
3.2948
 30
0.0000
  0
SEQEND
  0
POLYLINE
  8
LPF120_DRD
 66
1
 10
0.0000
 20
0.0000
 30
0.0000
 40
0.0100
 41
0.0100
  0
VERTEX
  8
LPF120_DRD
 10
5.4856
 20
3.2948
 30
0.0000
  0
VERTEX
  8
LPF120_DRD
 10
5.4690
 20
3.2948
 30
0.0000
  0
SEQEND
  0
POLYLINE
  8
LPF120_DRD
 66
1
 10
0.0000
 20
0.0000
 30
0.0000
 40
0.0100
 41
0.0100
  0
VERTEX
  8
LPF120_DRD
 10
5.4773
 20
3.2948
 30
0.0000
  0
VERTEX
  8
LPF120_DRD
 10
5.4773
 20
3.3448
 30
0.0000
  0
VERTEX
  8
LPF120_DRD
 10
5.4690
 20
3.3365
 30
0.0000
  0
SEQEND
  0
POLYLINE
  8
LPF120_DRD
 66
1
 10
0.0000
 20
0.0000
 30
0.0000
 40
0.0100
 41
0.0100
  0
VERTEX
  8
LPF120_DRD
 10
5.4365
 20
3.2948
 30
0.0000
  0
VERTEX
  8
LPF120_DRD
 10
5.4198
 20
3.2948
 30
0.0000
  0
SEQEND
  0
POLYLINE
  8
LPF120_DRD
 66
1
 10
0.0000
 20
0.0000
 30
0.0000
 40
0.0100
 41
0.0100
  0
VERTEX
  8
LPF120_DRD
 10
5.4282
 20
3.2948
 30
0.0000
  0
VERTEX
  8
LPF120_DRD
 10
5.4282
 20
3.3448
 30
0.0000
  0
VERTEX
  8
LPF120_DRD
 10
5.4198
 20
3.3365
 30
0.0000
  0
SEQEND
  0
POLYLINE
  8
LPF120_DRD
 66
1
 10
0.0000
 20
0.0000
 30
0.0000
 40
0.0100
 41
0.0100
  0
VERTEX
  8
LPF120_DRD
 10
-0.1952
 20
1.4919
 30
0.0000
  0
VERTEX
  8
LPF120_DRD
 10
-0.1868
 20
1.5003
 30
0.0000
  0
VERTEX
  8
LPF120_DRD
 10
-0.1785
 20
1.5044
 30
0.0000
  0
VERTEX
  8
LPF120_DRD
 10
-0.1618
 20
1.5044
 30
0.0000
  0
VERTEX
  8
LPF120_DRD
 10
-0.1535
 20
1.5003
 30
0.0000
  0
VERTEX
  8
LPF120_DRD
 10
-0.1452
 20
1.4919
 30
0.0000
  0
VERTEX
  8
LPF120_DRD
 10
-0.1452
 20
1.4836
 30
0.0000
  0
VERTEX
  8
LPF120_DRD
 10
-0.1535
 20
1.4753
 30
0.0000
  0
VERTEX
  8
LPF120_DRD
 10
-0.1618
 20
1.4711
 30
0.0000
  0
VERTEX
  8
LPF120_DRD
 10
-0.1785
 20
1.4711
 30
0.0000
  0
VERTEX
  8
LPF120_DRD
 10
-0.1868
 20
1.4753
 30
0.0000
  0
VERTEX
  8
LPF120_DRD
 10
-0.1952
 20
1.4836
 30
0.0000
  0
VERTEX
  8
LPF120_DRD
 10
-0.1952
 20
1.4919
 30
0.0000
  0
SEQEND
  0
POLYLINE
  8
LPF120_DRD
 66
1
 10
0.0000
 20
0.0000
 30
0.0000
 40
0.0100
 41
0.0100
  0
VERTEX
  8
LPF120_DRD
 10
-0.1868
 20
1.5619
 30
0.0000
  0
VERTEX
  8
LPF120_DRD
 10
-0.1952
 20
1.5578
 30
0.0000
  0
VERTEX
  8
LPF120_DRD
 10
-0.1952
 20
1.5328
 30
0.0000
  0
VERTEX
  8
LPF120_DRD
 10
-0.1868
 20
1.5286
 30
0.0000
  0
VERTEX
  8
LPF120_DRD
 10
-0.1702
 20
1.5286
 30
0.0000
  0
VERTEX
  8
LPF120_DRD
 10
-0.1618
 20
1.5369
 30
0.0000
  0
VERTEX
  8
LPF120_DRD
 10
-0.1618
 20
1.5619
 30
0.0000
  0
VERTEX
  8
LPF120_DRD
 10
-0.1452
 20
1.5619
 30
0.0000
  0
VERTEX
  8
LPF120_DRD
 10
-0.1452
 20
1.5286
 30
0.0000
  0
SEQEND
  0
POLYLINE
  8
LPF120_DRD
 66
1
 10
0.0000
 20
0.0000
 30
0.0000
 40
0.0100
 41
0.0100
  0
VERTEX
  8
LPF120_DRD
 10
-0.1952
 20
1.5861
 30
0.0000
  0
VERTEX
  8
LPF120_DRD
 10
-0.1952
 20
1.6027
 30
0.0000
  0
SEQEND
  0
POLYLINE
  8
LPF120_DRD
 66
1
 10
0.0000
 20
0.0000
 30
0.0000
 40
0.0100
 41
0.0100
  0
VERTEX
  8
LPF120_DRD
 10
-0.1952
 20
1.5944
 30
0.0000
  0
VERTEX
  8
LPF120_DRD
 10
-0.1452
 20
1.5944
 30
0.0000
  0
VERTEX
  8
LPF120_DRD
 10
-0.1535
 20
1.6027
 30
0.0000
  0
SEQEND
  0
POLYLINE
  8
LPF120_DRD
 66
1
 10
0.0000
 20
0.0000
 30
0.0000
 40
0.0100
 41
0.0100
  0
VERTEX
  8
LPF120_DRD
 10
-0.1868
 20
1.6686
 30
0.0000
  0
VERTEX
  8
LPF120_DRD
 10
-0.1952
 20
1.6602
 30
0.0000
  0
VERTEX
  8
LPF120_DRD
 10
-0.1952
 20
1.6436
 30
0.0000
  0
VERTEX
  8
LPF120_DRD
 10
-0.1868
 20
1.6352
 30
0.0000
  0
VERTEX
  8
LPF120_DRD
 10
-0.1785
 20
1.6352
 30
0.0000
  0
VERTEX
  8
LPF120_DRD
 10
-0.1618
 20
1.6519
 30
0.0000
  0
VERTEX
  8
LPF120_DRD
 10
-0.1452
 20
1.6352
 30
0.0000
  0
VERTEX
  8
LPF120_DRD
 10
-0.1452
 20
1.6686
 30
0.0000
  0
SEQEND
  0
POLYLINE
  8
LPF120_DRD
 66
1
 10
0.0000
 20
0.0000
 30
0.0000
 40
0.0100
 41
0.0100
  0
VERTEX
  8
LPF120_DRD
 10
4.1975
 20
-1.5650
 30
0.0000
  0
VERTEX
  8
LPF120_DRD
 10
4.1475
 20
-1.5650
 30
0.0000
  0
SEQEND
  0
POLYLINE
  8
LPF120_DRD
 66
1
 10
0.0000
 20
0.0000
 30
0.0000
 40
0.0100
 41
0.0100
  0
VERTEX
  8
LPF120_DRD
 10
4.1725
 20
-1.5400
 30
0.0000
  0
VERTEX
  8
LPF120_DRD
 10
4.1725
 20
-1.5900
 30
0.0000
  0
SEQEND
  0
POLYLINE
  8
LPF120_DRD
 66
1
 10
0.0000
 20
0.0000
 30
0.0000
 40
0.0100
 41
0.0100
  0
VERTEX
  8
LPF120_DRD
 10
4.1975
 20
-1.3900
 30
0.0000
  0
VERTEX
  8
LPF120_DRD
 10
4.1475
 20
-1.4400
 30
0.0000
  0
SEQEND
  0
POLYLINE
  8
LPF120_DRD
 66
1
 10
0.0000
 20
0.0000
 30
0.0000
 40
0.0100
 41
0.0100
  0
VERTEX
  8
LPF120_DRD
 10
4.1975
 20
-1.4400
 30
0.0000
  0
VERTEX
  8
LPF120_DRD
 10
4.1475
 20
-1.3900
 30
0.0000
  0
SEQEND
  0
POLYLINE
  8
LPF120_DRD
 66
1
 10
0.0000
 20
0.0000
 30
0.0000
 40
0.0100
 41
0.0100
  0
VERTEX
  8
LPF120_DRD
 10
4.1725
 20
-1.2400
 30
0.0000
  0
VERTEX
  8
LPF120_DRD
 10
4.1475
 20
-1.2650
 30
0.0000
  0
SEQEND
  0
POLYLINE
  8
LPF120_DRD
 66
1
 10
0.0000
 20
0.0000
 30
0.0000
 40
0.0100
 41
0.0100
  0
VERTEX
  8
LPF120_DRD
 10
4.1975
 20
-1.2650
 30
0.0000
  0
VERTEX
  8
LPF120_DRD
 10
4.1725
 20
-1.2400
 30
0.0000
  0
SEQEND
  0
POLYLINE
  8
LPF120_DRD
 66
1
 10
0.0000
 20
0.0000
 30
0.0000
 40
0.0100
 41
0.0100
  0
VERTEX
  8
LPF120_DRD
 10
4.1725
 20
-1.2900
 30
0.0000
  0
VERTEX
  8
LPF120_DRD
 10
4.1975
 20
-1.2650
 30
0.0000
  0
SEQEND
  0
POLYLINE
  8
LPF120_DRD
 66
1
 10
0.0000
 20
0.0000
 30
0.0000
 40
0.0100
 41
0.0100
  0
VERTEX
  8
LPF120_DRD
 10
4.1475
 20
-1.2650
 30
0.0000
  0
VERTEX
  8
LPF120_DRD
 10
4.1725
 20
-1.2900
 30
0.0000
  0
SEQEND
  0
POLYLINE
  8
LPF120_DRD
 66
1
 10
0.0000
 20
0.0000
 30
0.0000
 40
0.0100
 41
0.0100
  0
VERTEX
  8
LPF120_DRD
 10
7.7200
 20
-1.8450
 30
0.0000
  0
VERTEX
  8
LPF120_DRD
 10
3.9850
 20
-1.8450
 30
0.0000
  0
SEQEND
  0
POLYLINE
  8
LPF120_DRD
 66
1
 10
0.0000
 20
0.0000
 30
0.0000
 40
0.0100
 41
0.0100
  0
VERTEX
  8
LPF120_DRD
 10
7.7150
 20
-1.8400
 30
0.0000
  0
VERTEX
  8
LPF120_DRD
 10
3.9900
 20
-1.8400
 30
0.0000
  0
SEQEND
  0
POLYLINE
  8
LPF120_DRD
 66
1
 10
0.0000
 20
0.0000
 30
0.0000
 40
0.0100
 41
0.0100
  0
VERTEX
  8
LPF120_DRD
 10
7.7150
 20
-1.6400
 30
0.0000
  0
VERTEX
  8
LPF120_DRD
 10
3.9900
 20
-1.6400
 30
0.0000
  0
SEQEND
  0
POLYLINE
  8
LPF120_DRD
 66
1
 10
0.0000
 20
0.0000
 30
0.0000
 40
0.0100
 41
0.0100
  0
VERTEX
  8
LPF120_DRD
 10
7.7150
 20
-1.4900
 30
0.0000
  0
VERTEX
  8
LPF120_DRD
 10
3.9900
 20
-1.4900
 30
0.0000
  0
SEQEND
  0
POLYLINE
  8
LPF120_DRD
 66
1
 10
0.0000
 20
0.0000
 30
0.0000
 40
0.0100
 41
0.0100
  0
VERTEX
  8
LPF120_DRD
 10
7.7150
 20
-1.3400
 30
0.0000
  0
VERTEX
  8
LPF120_DRD
 10
3.9900
 20
-1.3400
 30
0.0000
  0
SEQEND
  0
POLYLINE
  8
LPF120_DRD
 66
1
 10
0.0000
 20
0.0000
 30
0.0000
 40
0.0100
 41
0.0100
  0
VERTEX
  8
LPF120_DRD
 10
7.7150
 20
-1.1900
 30
0.0000
  0
VERTEX
  8
LPF120_DRD
 10
3.9900
 20
-1.1900
 30
0.0000
  0
SEQEND
  0
POLYLINE
  8
LPF120_DRD
 66
1
 10
0.0000
 20
0.0000
 30
0.0000
 40
0.0100
 41
0.0100
  0
VERTEX
  8
LPF120_DRD
 10
7.7150
 20
-1.1850
 30
0.0000
  0
VERTEX
  8
LPF120_DRD
 10
3.9900
 20
-1.1850
 30
0.0000
  0
SEQEND
  0
POLYLINE
  8
LPF120_DRD
 66
1
 10
0.0000
 20
0.0000
 30
0.0000
 40
0.0100
 41
0.0100
  0
VERTEX
  8
LPF120_DRD
 10
7.7150
 20
-0.9900
 30
0.0000
  0
VERTEX
  8
LPF120_DRD
 10
3.9900
 20
-0.9900
 30
0.0000
  0
SEQEND
  0
POLYLINE
  8
LPF120_DRD
 66
1
 10
0.0000
 20
0.0000
 30
0.0000
 40
0.0100
 41
0.0100
  0
VERTEX
  8
LPF120_DRD
 10
7.7150
 20
-0.9850
 30
0.0000
  0
VERTEX
  8
LPF120_DRD
 10
3.9900
 20
-0.9850
 30
0.0000
  0
SEQEND
  0
POLYLINE
  8
LPF120_DRD
 66
1
 10
0.0000
 20
0.0000
 30
0.0000
 40
0.0100
 41
0.0100
  0
VERTEX
  8
LPF120_DRD
 10
7.7150
 20
-0.7900
 30
0.0000
  0
VERTEX
  8
LPF120_DRD
 10
3.9900
 20
-0.7900
 30
0.0000
  0
SEQEND
  0
POLYLINE
  8
LPF120_DRD
 66
1
 10
0.0000
 20
0.0000
 30
0.0000
 40
0.0100
 41
0.0100
  0
VERTEX
  8
LPF120_DRD
 10
7.7200
 20
-0.7850
 30
0.0000
  0
VERTEX
  8
LPF120_DRD
 10
3.9850
 20
-0.7850
 30
0.0000
  0
SEQEND
  0
POLYLINE
  8
LPF120_DRD
 66
1
 10
0.0000
 20
0.0000
 30
0.0000
 40
0.0100
 41
0.0100
  0
VERTEX
  8
LPF120_DRD
 10
7.7200
 20
-1.8400
 30
0.0000
  0
VERTEX
  8
LPF120_DRD
 10
7.7200
 20
-0.7900
 30
0.0000
  0
SEQEND
  0
POLYLINE
  8
LPF120_DRD
 66
1
 10
0.0000
 20
0.0000
 30
0.0000
 40
0.0100
 41
0.0100
  0
VERTEX
  8
LPF120_DRD
 10
7.7150
 20
-1.8400
 30
0.0000
  0
VERTEX
  8
LPF120_DRD
 10
7.7150
 20
-0.7900
 30
0.0000
  0
SEQEND
  0
POLYLINE
  8
LPF120_DRD
 66
1
 10
0.0000
 20
0.0000
 30
0.0000
 40
0.0100
 41
0.0100
  0
VERTEX
  8
LPF120_DRD
 10
6.5608
 20
-1.8400
 30
0.0000
  0
VERTEX
  8
LPF120_DRD
 10
6.5608
 20
-0.9900
 30
0.0000
  0
SEQEND
  0
POLYLINE
  8
LPF120_DRD
 66
1
 10
0.0000
 20
0.0000
 30
0.0000
 40
0.0100
 41
0.0100
  0
VERTEX
  8
LPF120_DRD
 10
6.0058
 20
-1.8400
 30
0.0000
  0
VERTEX
  8
LPF120_DRD
 10
6.0058
 20
-0.9900
 30
0.0000
  0
SEQEND
  0
POLYLINE
  8
LPF120_DRD
 66
1
 10
0.0000
 20
0.0000
 30
0.0000
 40
0.0100
 41
0.0100
  0
VERTEX
  8
LPF120_DRD
 10
5.1992
 20
-1.6400
 30
0.0000
  0
VERTEX
  8
LPF120_DRD
 10
5.1992
 20
-0.9900
 30
0.0000
  0
SEQEND
  0
POLYLINE
  8
LPF120_DRD
 66
1
 10
0.0000
 20
0.0000
 30
0.0000
 40
0.0100
 41
0.0100
  0
VERTEX
  8
LPF120_DRD
 10
4.3600
 20
-1.6400
 30
0.0000
  0
VERTEX
  8
LPF120_DRD
 10
4.3600
 20
-0.9900
 30
0.0000
  0
SEQEND
  0
POLYLINE
  8
LPF120_DRD
 66
1
 10
0.0000
 20
0.0000
 30
0.0000
 40
0.0100
 41
0.0100
  0
VERTEX
  8
LPF120_DRD
 10
4.3550
 20
-1.6400
 30
0.0000
  0
VERTEX
  8
LPF120_DRD
 10
4.3550
 20
-0.9900
 30
0.0000
  0
SEQEND
  0
POLYLINE
  8
LPF120_DRD
 66
1
 10
0.0000
 20
0.0000
 30
0.0000
 40
0.0100
 41
0.0100
  0
VERTEX
  8
LPF120_DRD
 10
3.9850
 20
-1.8400
 30
0.0000
  0
VERTEX
  8
LPF120_DRD
 10
3.9850
 20
-0.7900
 30
0.0000
  0
SEQEND
  0
POLYLINE
  8
LPF120_DRD
 66
1
 10
0.0000
 20
0.0000
 30
0.0000
 40
0.0100
 41
0.0100
  0
VERTEX
  8
LPF120_DRD
 10
3.9900
 20
-1.8400
 30
0.0000
  0
VERTEX
  8
LPF120_DRD
 10
3.9900
 20
-0.7900
 30
0.0000
  0
SEQEND
  0
POLYLINE
  8
LPF120_DRD
 66
1
 10
0.0000
 20
0.0000
 30
0.0000
 40
0.0100
 41
0.0100
  0
VERTEX
  8
LPF120_DRD
 10
2.9690
 20
3.1490
 30
0.0000
  0
VERTEX
  8
LPF120_DRD
 10
11.0540
 20
3.1490
 30
0.0000
  0
VERTEX
  8
LPF120_DRD
 10
11.0540
 20
-0.0010
 30
0.0000
  0
VERTEX
  8
LPF120_DRD
 10
-0.0010
 20
-0.0010
 30
0.0000
  0
VERTEX
  8
LPF120_DRD
 10
-0.0010
 20
3.1490
 30
0.0000
  0
VERTEX
  8
LPF120_DRD
 10
2.9690
 20
3.1490
 30
0.0000
  0
SEQEND
  0
POLYLINE
  8
LPF120_DRD
 66
1
 10
0.0000
 20
0.0000
 30
0.0000
 40
0.0100
 41
0.0100
  0
VERTEX
  8
LPF120_DRD
 10
-0.0010
 20
3.4365
 30
0.0000
  0
VERTEX
  8
LPF120_DRD
 10
-0.0010
 20
3.2115
 30
0.0000
  0
SEQEND
  0
POLYLINE
  8
LPF120_DRD
 66
1
 10
0.0000
 20
0.0000
 30
0.0000
 40
0.0100
 41
0.0100
  0
VERTEX
  8
LPF120_DRD
 10
5.3511
 20
3.3240
 30
0.0000
  0
VERTEX
  8
LPF120_DRD
 10
-0.0010
 20
3.3240
 30
0.0000
  0
SEQEND
  0
POLYLINE
  8
LPF120_DRD
 66
1
 10
0.0000
 20
0.0000
 30
0.0000
 40
0.0100
 41
0.0100
  0
VERTEX
  8
LPF120_DRD
 10
0.0552
 20
3.3052
 30
0.0000
  0
VERTEX
  8
LPF120_DRD
 10
-0.0010
 20
3.3240
 30
0.0000
  0
VERTEX
  8
LPF120_DRD
 10
0.0552
 20
3.3427
 30
0.0000
  0
SEQEND
  0
POLYLINE
  8
LPF120_DRD
 66
1
 10
0.0000
 20
0.0000
 30
0.0000
 40
0.0100
 41
0.0100
  0
VERTEX
  8
LPF120_DRD
 10
11.0540
 20
3.4365
 30
0.0000
  0
VERTEX
  8
LPF120_DRD
 10
11.0540
 20
3.2115
 30
0.0000
  0
SEQEND
  0
POLYLINE
  8
LPF120_DRD
 66
1
 10
0.0000
 20
0.0000
 30
0.0000
 40
0.0100
 41
0.0100
  0
VERTEX
  8
LPF120_DRD
 10
5.7019
 20
3.3240
 30
0.0000
  0
VERTEX
  8
LPF120_DRD
 10
11.0540
 20
3.3240
 30
0.0000
  0
SEQEND
  0
POLYLINE
  8
LPF120_DRD
 66
1
 10
0.0000
 20
0.0000
 30
0.0000
 40
0.0100
 41
0.0100
  0
VERTEX
  8
LPF120_DRD
 10
10.9977
 20
3.3427
 30
0.0000
  0
VERTEX
  8
LPF120_DRD
 10
11.0540
 20
3.3240
 30
0.0000
  0
VERTEX
  8
LPF120_DRD
 10
10.9977
 20
3.3052
 30
0.0000
  0
SEQEND
  0
POLYLINE
  8
LPF120_DRD
 66
1
 10
0.0000
 20
0.0000
 30
0.0000
 40
0.0100
 41
0.0100
  0
VERTEX
  8
LPF120_DRD
 10
-0.2785
 20
-0.0010
 30
0.0000
  0
VERTEX
  8
LPF120_DRD
 10
-0.0535
 20
-0.0010
 30
0.0000
  0
SEQEND
  0
POLYLINE
  8
LPF120_DRD
 66
1
 10
0.0000
 20
0.0000
 30
0.0000
 40
0.0100
 41
0.0100
  0
VERTEX
  8
LPF120_DRD
 10
-0.1660
 20
1.4190
 30
0.0000
  0
VERTEX
  8
LPF120_DRD
 10
-0.1660
 20
-0.0010
 30
0.0000
  0
SEQEND
  0
POLYLINE
  8
LPF120_DRD
 66
1
 10
0.0000
 20
0.0000
 30
0.0000
 40
0.0100
 41
0.0100
  0
VERTEX
  8
LPF120_DRD
 10
-0.1472
 20
0.0552
 30
0.0000
  0
VERTEX
  8
LPF120_DRD
 10
-0.1660
 20
-0.0010
 30
0.0000
  0
VERTEX
  8
LPF120_DRD
 10
-0.1847
 20
0.0552
 30
0.0000
  0
SEQEND
  0
POLYLINE
  8
LPF120_DRD
 66
1
 10
0.0000
 20
0.0000
 30
0.0000
 40
0.0100
 41
0.0100
  0
VERTEX
  8
LPF120_DRD
 10
-0.2785
 20
3.1490
 30
0.0000
  0
VERTEX
  8
LPF120_DRD
 10
-0.0535
 20
3.1490
 30
0.0000
  0
SEQEND
  0
POLYLINE
  8
LPF120_DRD
 66
1
 10
0.0000
 20
0.0000
 30
0.0000
 40
0.0100
 41
0.0100
  0
VERTEX
  8
LPF120_DRD
 10
-0.1660
 20
1.7290
 30
0.0000
  0
VERTEX
  8
LPF120_DRD
 10
-0.1660
 20
3.1490
 30
0.0000
  0
SEQEND
  0
POLYLINE
  8
LPF120_DRD
 66
1
 10
0.0000
 20
0.0000
 30
0.0000
 40
0.0100
 41
0.0100
  0
VERTEX
  8
LPF120_DRD
 10
-0.1847
 20
3.0927
 30
0.0000
  0
VERTEX
  8
LPF120_DRD
 10
-0.1660
 20
3.1490
 30
0.0000
  0
VERTEX
  8
LPF120_DRD
 10
-0.1472
 20
3.0927
 30
0.0000
  0
SEQEND
  0
POLYLINE
  8
LPF120_DRD
 66
1
 10
0.0000
 20
0.0000
 30
0.0000
 40
0.0100
 41
0.0100
  0
VERTEX
  8
LPF120_DRD
 10
10.6000
 20
2.8750
 30
0.0000
  0
VERTEX
  8
LPF120_DRD
 10
10.5750
 20
2.8500
 30
0.0000
  0
SEQEND
  0
POLYLINE
  8
LPF120_DRD
 66
1
 10
0.0000
 20
0.0000
 30
0.0000
 40
0.0100
 41
0.0100
  0
VERTEX
  8
LPF120_DRD
 10
10.6250
 20
2.8500
 30
0.0000
  0
VERTEX
  8
LPF120_DRD
 10
10.6000
 20
2.8750
 30
0.0000
  0
SEQEND
  0
POLYLINE
  8
LPF120_DRD
 66
1
 10
0.0000
 20
0.0000
 30
0.0000
 40
0.0100
 41
0.0100
  0
VERTEX
  8
LPF120_DRD
 10
10.6000
 20
2.8250
 30
0.0000
  0
VERTEX
  8
LPF120_DRD
 10
10.6250
 20
2.8500
 30
0.0000
  0
SEQEND
  0
POLYLINE
  8
LPF120_DRD
 66
1
 10
0.0000
 20
0.0000
 30
0.0000
 40
0.0100
 41
0.0100
  0
VERTEX
  8
LPF120_DRD
 10
10.5750
 20
2.8500
 30
0.0000
  0
VERTEX
  8
LPF120_DRD
 10
10.6000
 20
2.8250
 30
0.0000
  0
SEQEND
  0
POLYLINE
  8
LPF120_DRD
 66
1
 10
0.0000
 20
0.0000
 30
0.0000
 40
0.0100
 41
0.0100
  0
VERTEX
  8
LPF120_DRD
 10
10.2750
 20
2.8750
 30
0.0000
  0
VERTEX
  8
LPF120_DRD
 10
10.2500
 20
2.8500
 30
0.0000
  0
SEQEND
  0
POLYLINE
  8
LPF120_DRD
 66
1
 10
0.0000
 20
0.0000
 30
0.0000
 40
0.0100
 41
0.0100
  0
VERTEX
  8
LPF120_DRD
 10
10.3000
 20
2.8500
 30
0.0000
  0
VERTEX
  8
LPF120_DRD
 10
10.2750
 20
2.8750
 30
0.0000
  0
SEQEND
  0
POLYLINE
  8
LPF120_DRD
 66
1
 10
0.0000
 20
0.0000
 30
0.0000
 40
0.0100
 41
0.0100
  0
VERTEX
  8
LPF120_DRD
 10
10.2750
 20
2.8250
 30
0.0000
  0
VERTEX
  8
LPF120_DRD
 10
10.3000
 20
2.8500
 30
0.0000
  0
SEQEND
  0
POLYLINE
  8
LPF120_DRD
 66
1
 10
0.0000
 20
0.0000
 30
0.0000
 40
0.0100
 41
0.0100
  0
VERTEX
  8
LPF120_DRD
 10
10.2500
 20
2.8500
 30
0.0000
  0
VERTEX
  8
LPF120_DRD
 10
10.2750
 20
2.8250
 30
0.0000
  0
SEQEND
  0
POLYLINE
  8
LPF120_DRD
 66
1
 10
0.0000
 20
0.0000
 30
0.0000
 40
0.0100
 41
0.0100
  0
VERTEX
  8
LPF120_DRD
 10
10.5250
 20
3.1000
 30
0.0000
  0
VERTEX
  8
LPF120_DRD
 10
10.5000
 20
3.0750
 30
0.0000
  0
SEQEND
  0
POLYLINE
  8
LPF120_DRD
 66
1
 10
0.0000
 20
0.0000
 30
0.0000
 40
0.0100
 41
0.0100
  0
VERTEX
  8
LPF120_DRD
 10
10.5500
 20
3.0750
 30
0.0000
  0
VERTEX
  8
LPF120_DRD
 10
10.5250
 20
3.1000
 30
0.0000
  0
SEQEND
  0
POLYLINE
  8
LPF120_DRD
 66
1
 10
0.0000
 20
0.0000
 30
0.0000
 40
0.0100
 41
0.0100
  0
VERTEX
  8
LPF120_DRD
 10
10.5250
 20
3.0500
 30
0.0000
  0
VERTEX
  8
LPF120_DRD
 10
10.5500
 20
3.0750
 30
0.0000
  0
SEQEND
  0
POLYLINE
  8
LPF120_DRD
 66
1
 10
0.0000
 20
0.0000
 30
0.0000
 40
0.0100
 41
0.0100
  0
VERTEX
  8
LPF120_DRD
 10
10.5000
 20
3.0750
 30
0.0000
  0
VERTEX
  8
LPF120_DRD
 10
10.5250
 20
3.0500
 30
0.0000
  0
SEQEND
  0
POLYLINE
  8
LPF120_DRD
 66
1
 10
0.0000
 20
0.0000
 30
0.0000
 40
0.0100
 41
0.0100
  0
VERTEX
  8
LPF120_DRD
 10
10.2250
 20
3.1000
 30
0.0000
  0
VERTEX
  8
LPF120_DRD
 10
10.2000
 20
3.0750
 30
0.0000
  0
SEQEND
  0
POLYLINE
  8
LPF120_DRD
 66
1
 10
0.0000
 20
0.0000
 30
0.0000
 40
0.0100
 41
0.0100
  0
VERTEX
  8
LPF120_DRD
 10
10.2500
 20
3.0750
 30
0.0000
  0
VERTEX
  8
LPF120_DRD
 10
10.2250
 20
3.1000
 30
0.0000
  0
SEQEND
  0
POLYLINE
  8
LPF120_DRD
 66
1
 10
0.0000
 20
0.0000
 30
0.0000
 40
0.0100
 41
0.0100
  0
VERTEX
  8
LPF120_DRD
 10
10.2250
 20
3.0500
 30
0.0000
  0
VERTEX
  8
LPF120_DRD
 10
10.2500
 20
3.0750
 30
0.0000
  0
SEQEND
  0
POLYLINE
  8
LPF120_DRD
 66
1
 10
0.0000
 20
0.0000
 30
0.0000
 40
0.0100
 41
0.0100
  0
VERTEX
  8
LPF120_DRD
 10
10.2000
 20
3.0750
 30
0.0000
  0
VERTEX
  8
LPF120_DRD
 10
10.2250
 20
3.0500
 30
0.0000
  0
SEQEND
  0
POLYLINE
  8
LPF120_DRD
 66
1
 10
0.0000
 20
0.0000
 30
0.0000
 40
0.0100
 41
0.0100
  0
VERTEX
  8
LPF120_DRD
 10
10.2250
 20
2.6500
 30
0.0000
  0
VERTEX
  8
LPF120_DRD
 10
10.2000
 20
2.6250
 30
0.0000
  0
SEQEND
  0
POLYLINE
  8
LPF120_DRD
 66
1
 10
0.0000
 20
0.0000
 30
0.0000
 40
0.0100
 41
0.0100
  0
VERTEX
  8
LPF120_DRD
 10
10.2500
 20
2.6250
 30
0.0000
  0
VERTEX
  8
LPF120_DRD
 10
10.2250
 20
2.6500
 30
0.0000
  0
SEQEND
  0
POLYLINE
  8
LPF120_DRD
 66
1
 10
0.0000
 20
0.0000
 30
0.0000
 40
0.0100
 41
0.0100
  0
VERTEX
  8
LPF120_DRD
 10
10.2250
 20
2.6000
 30
0.0000
  0
VERTEX
  8
LPF120_DRD
 10
10.2500
 20
2.6250
 30
0.0000
  0
SEQEND
  0
POLYLINE
  8
LPF120_DRD
 66
1
 10
0.0000
 20
0.0000
 30
0.0000
 40
0.0100
 41
0.0100
  0
VERTEX
  8
LPF120_DRD
 10
10.2000
 20
2.6250
 30
0.0000
  0
VERTEX
  8
LPF120_DRD
 10
10.2250
 20
2.6000
 30
0.0000
  0
SEQEND
  0
POLYLINE
  8
LPF120_DRD
 66
1
 10
0.0000
 20
0.0000
 30
0.0000
 40
0.0100
 41
0.0100
  0
VERTEX
  8
LPF120_DRD
 10
10.5250
 20
2.6500
 30
0.0000
  0
VERTEX
  8
LPF120_DRD
 10
10.5000
 20
2.6250
 30
0.0000
  0
SEQEND
  0
POLYLINE
  8
LPF120_DRD
 66
1
 10
0.0000
 20
0.0000
 30
0.0000
 40
0.0100
 41
0.0100
  0
VERTEX
  8
LPF120_DRD
 10
10.5500
 20
2.6250
 30
0.0000
  0
VERTEX
  8
LPF120_DRD
 10
10.5250
 20
2.6500
 30
0.0000
  0
SEQEND
  0
POLYLINE
  8
LPF120_DRD
 66
1
 10
0.0000
 20
0.0000
 30
0.0000
 40
0.0100
 41
0.0100
  0
VERTEX
  8
LPF120_DRD
 10
10.5250
 20
2.6000
 30
0.0000
  0
VERTEX
  8
LPF120_DRD
 10
10.5500
 20
2.6250
 30
0.0000
  0
SEQEND
  0
POLYLINE
  8
LPF120_DRD
 66
1
 10
0.0000
 20
0.0000
 30
0.0000
 40
0.0100
 41
0.0100
  0
VERTEX
  8
LPF120_DRD
 10
10.5000
 20
2.6250
 30
0.0000
  0
VERTEX
  8
LPF120_DRD
 10
10.5250
 20
2.6000
 30
0.0000
  0
SEQEND
  0
POLYLINE
  8
LPF120_DRD
 66
1
 10
0.0000
 20
0.0000
 30
0.0000
 40
0.0100
 41
0.0100
  0
VERTEX
  8
LPF120_DRD
 10
10.8000
 20
2.6500
 30
0.0000
  0
VERTEX
  8
LPF120_DRD
 10
10.7750
 20
2.6250
 30
0.0000
  0
SEQEND
  0
POLYLINE
  8
LPF120_DRD
 66
1
 10
0.0000
 20
0.0000
 30
0.0000
 40
0.0100
 41
0.0100
  0
VERTEX
  8
LPF120_DRD
 10
10.8250
 20
2.6250
 30
0.0000
  0
VERTEX
  8
LPF120_DRD
 10
10.8000
 20
2.6500
 30
0.0000
  0
SEQEND
  0
POLYLINE
  8
LPF120_DRD
 66
1
 10
0.0000
 20
0.0000
 30
0.0000
 40
0.0100
 41
0.0100
  0
VERTEX
  8
LPF120_DRD
 10
10.8000
 20
2.6000
 30
0.0000
  0
VERTEX
  8
LPF120_DRD
 10
10.8250
 20
2.6250
 30
0.0000
  0
SEQEND
  0
POLYLINE
  8
LPF120_DRD
 66
1
 10
0.0000
 20
0.0000
 30
0.0000
 40
0.0100
 41
0.0100
  0
VERTEX
  8
LPF120_DRD
 10
10.7750
 20
2.6250
 30
0.0000
  0
VERTEX
  8
LPF120_DRD
 10
10.8000
 20
2.6000
 30
0.0000
  0
SEQEND
  0
POLYLINE
  8
LPF120_DRD
 66
1
 10
0.0000
 20
0.0000
 30
0.0000
 40
0.0100
 41
0.0100
  0
VERTEX
  8
LPF120_DRD
 10
10.9750
 20
2.6500
 30
0.0000
  0
VERTEX
  8
LPF120_DRD
 10
10.9500
 20
2.6250
 30
0.0000
  0
SEQEND
  0
POLYLINE
  8
LPF120_DRD
 66
1
 10
0.0000
 20
0.0000
 30
0.0000
 40
0.0100
 41
0.0100
  0
VERTEX
  8
LPF120_DRD
 10
11.0000
 20
2.6250
 30
0.0000
  0
VERTEX
  8
LPF120_DRD
 10
10.9750
 20
2.6500
 30
0.0000
  0
SEQEND
  0
POLYLINE
  8
LPF120_DRD
 66
1
 10
0.0000
 20
0.0000
 30
0.0000
 40
0.0100
 41
0.0100
  0
VERTEX
  8
LPF120_DRD
 10
10.9750
 20
2.6000
 30
0.0000
  0
VERTEX
  8
LPF120_DRD
 10
11.0000
 20
2.6250
 30
0.0000
  0
SEQEND
  0
POLYLINE
  8
LPF120_DRD
 66
1
 10
0.0000
 20
0.0000
 30
0.0000
 40
0.0100
 41
0.0100
  0
VERTEX
  8
LPF120_DRD
 10
10.9500
 20
2.6250
 30
0.0000
  0
VERTEX
  8
LPF120_DRD
 10
10.9750
 20
2.6000
 30
0.0000
  0
SEQEND
  0
POLYLINE
  8
LPF120_DRD
 66
1
 10
0.0000
 20
0.0000
 30
0.0000
 40
0.0100
 41
0.0100
  0
VERTEX
  8
LPF120_DRD
 10
10.7250
 20
0.5500
 30
0.0000
  0
VERTEX
  8
LPF120_DRD
 10
10.7000
 20
0.5250
 30
0.0000
  0
SEQEND
  0
POLYLINE
  8
LPF120_DRD
 66
1
 10
0.0000
 20
0.0000
 30
0.0000
 40
0.0100
 41
0.0100
  0
VERTEX
  8
LPF120_DRD
 10
10.7500
 20
0.5250
 30
0.0000
  0
VERTEX
  8
LPF120_DRD
 10
10.7250
 20
0.5500
 30
0.0000
  0
SEQEND
  0
POLYLINE
  8
LPF120_DRD
 66
1
 10
0.0000
 20
0.0000
 30
0.0000
 40
0.0100
 41
0.0100
  0
VERTEX
  8
LPF120_DRD
 10
10.7250
 20
0.5000
 30
0.0000
  0
VERTEX
  8
LPF120_DRD
 10
10.7500
 20
0.5250
 30
0.0000
  0
SEQEND
  0
POLYLINE
  8
LPF120_DRD
 66
1
 10
0.0000
 20
0.0000
 30
0.0000
 40
0.0100
 41
0.0100
  0
VERTEX
  8
LPF120_DRD
 10
10.7000
 20
0.5250
 30
0.0000
  0
VERTEX
  8
LPF120_DRD
 10
10.7250
 20
0.5000
 30
0.0000
  0
SEQEND
  0
POLYLINE
  8
LPF120_DRD
 66
1
 10
0.0000
 20
0.0000
 30
0.0000
 40
0.0100
 41
0.0100
  0
VERTEX
  8
LPF120_DRD
 10
10.9250
 20
0.5500
 30
0.0000
  0
VERTEX
  8
LPF120_DRD
 10
10.9000
 20
0.5250
 30
0.0000
  0
SEQEND
  0
POLYLINE
  8
LPF120_DRD
 66
1
 10
0.0000
 20
0.0000
 30
0.0000
 40
0.0100
 41
0.0100
  0
VERTEX
  8
LPF120_DRD
 10
10.9500
 20
0.5250
 30
0.0000
  0
VERTEX
  8
LPF120_DRD
 10
10.9250
 20
0.5500
 30
0.0000
  0
SEQEND
  0
POLYLINE
  8
LPF120_DRD
 66
1
 10
0.0000
 20
0.0000
 30
0.0000
 40
0.0100
 41
0.0100
  0
VERTEX
  8
LPF120_DRD
 10
10.9250
 20
0.5000
 30
0.0000
  0
VERTEX
  8
LPF120_DRD
 10
10.9500
 20
0.5250
 30
0.0000
  0
SEQEND
  0
POLYLINE
  8
LPF120_DRD
 66
1
 10
0.0000
 20
0.0000
 30
0.0000
 40
0.0100
 41
0.0100
  0
VERTEX
  8
LPF120_DRD
 10
10.9000
 20
0.5250
 30
0.0000
  0
VERTEX
  8
LPF120_DRD
 10
10.9250
 20
0.5000
 30
0.0000
  0
SEQEND
  0
POLYLINE
  8
LPF120_DRD
 66
1
 10
0.0000
 20
0.0000
 30
0.0000
 40
0.0100
 41
0.0100
  0
VERTEX
  8
LPF120_DRD
 10
10.5000
 20
0.1000
 30
0.0000
  0
VERTEX
  8
LPF120_DRD
 10
10.4750
 20
0.0750
 30
0.0000
  0
SEQEND
  0
POLYLINE
  8
LPF120_DRD
 66
1
 10
0.0000
 20
0.0000
 30
0.0000
 40
0.0100
 41
0.0100
  0
VERTEX
  8
LPF120_DRD
 10
10.5250
 20
0.0750
 30
0.0000
  0
VERTEX
  8
LPF120_DRD
 10
10.5000
 20
0.1000
 30
0.0000
  0
SEQEND
  0
POLYLINE
  8
LPF120_DRD
 66
1
 10
0.0000
 20
0.0000
 30
0.0000
 40
0.0100
 41
0.0100
  0
VERTEX
  8
LPF120_DRD
 10
10.5000
 20
0.0500
 30
0.0000
  0
VERTEX
  8
LPF120_DRD
 10
10.5250
 20
0.0750
 30
0.0000
  0
SEQEND
  0
POLYLINE
  8
LPF120_DRD
 66
1
 10
0.0000
 20
0.0000
 30
0.0000
 40
0.0100
 41
0.0100
  0
VERTEX
  8
LPF120_DRD
 10
10.4750
 20
0.0750
 30
0.0000
  0
VERTEX
  8
LPF120_DRD
 10
10.5000
 20
0.0500
 30
0.0000
  0
SEQEND
  0
POLYLINE
  8
LPF120_DRD
 66
1
 10
0.0000
 20
0.0000
 30
0.0000
 40
0.0100
 41
0.0100
  0
VERTEX
  8
LPF120_DRD
 10
10.5000
 20
0.3250
 30
0.0000
  0
VERTEX
  8
LPF120_DRD
 10
10.4750
 20
0.3000
 30
0.0000
  0
SEQEND
  0
POLYLINE
  8
LPF120_DRD
 66
1
 10
0.0000
 20
0.0000
 30
0.0000
 40
0.0100
 41
0.0100
  0
VERTEX
  8
LPF120_DRD
 10
10.5250
 20
0.3000
 30
0.0000
  0
VERTEX
  8
LPF120_DRD
 10
10.5000
 20
0.3250
 30
0.0000
  0
SEQEND
  0
POLYLINE
  8
LPF120_DRD
 66
1
 10
0.0000
 20
0.0000
 30
0.0000
 40
0.0100
 41
0.0100
  0
VERTEX
  8
LPF120_DRD
 10
10.5000
 20
0.2750
 30
0.0000
  0
VERTEX
  8
LPF120_DRD
 10
10.5250
 20
0.3000
 30
0.0000
  0
SEQEND
  0
POLYLINE
  8
LPF120_DRD
 66
1
 10
0.0000
 20
0.0000
 30
0.0000
 40
0.0100
 41
0.0100
  0
VERTEX
  8
LPF120_DRD
 10
10.4750
 20
0.3000
 30
0.0000
  0
VERTEX
  8
LPF120_DRD
 10
10.5000
 20
0.2750
 30
0.0000
  0
SEQEND
  0
POLYLINE
  8
LPF120_DRD
 66
1
 10
0.0000
 20
0.0000
 30
0.0000
 40
0.0100
 41
0.0100
  0
VERTEX
  8
LPF120_DRD
 10
10.5000
 20
0.5500
 30
0.0000
  0
VERTEX
  8
LPF120_DRD
 10
10.4750
 20
0.5250
 30
0.0000
  0
SEQEND
  0
POLYLINE
  8
LPF120_DRD
 66
1
 10
0.0000
 20
0.0000
 30
0.0000
 40
0.0100
 41
0.0100
  0
VERTEX
  8
LPF120_DRD
 10
10.5250
 20
0.5250
 30
0.0000
  0
VERTEX
  8
LPF120_DRD
 10
10.5000
 20
0.5500
 30
0.0000
  0
SEQEND
  0
POLYLINE
  8
LPF120_DRD
 66
1
 10
0.0000
 20
0.0000
 30
0.0000
 40
0.0100
 41
0.0100
  0
VERTEX
  8
LPF120_DRD
 10
10.5000
 20
0.5000
 30
0.0000
  0
VERTEX
  8
LPF120_DRD
 10
10.5250
 20
0.5250
 30
0.0000
  0
SEQEND
  0
POLYLINE
  8
LPF120_DRD
 66
1
 10
0.0000
 20
0.0000
 30
0.0000
 40
0.0100
 41
0.0100
  0
VERTEX
  8
LPF120_DRD
 10
10.4750
 20
0.5250
 30
0.0000
  0
VERTEX
  8
LPF120_DRD
 10
10.5000
 20
0.5000
 30
0.0000
  0
SEQEND
  0
POLYLINE
  8
LPF120_DRD
 66
1
 10
0.0000
 20
0.0000
 30
0.0000
 40
0.0100
 41
0.0100
  0
VERTEX
  8
LPF120_DRD
 10
10.2250
 20
0.3250
 30
0.0000
  0
VERTEX
  8
LPF120_DRD
 10
10.2000
 20
0.3000
 30
0.0000
  0
SEQEND
  0
POLYLINE
  8
LPF120_DRD
 66
1
 10
0.0000
 20
0.0000
 30
0.0000
 40
0.0100
 41
0.0100
  0
VERTEX
  8
LPF120_DRD
 10
10.2500
 20
0.3000
 30
0.0000
  0
VERTEX
  8
LPF120_DRD
 10
10.2250
 20
0.3250
 30
0.0000
  0
SEQEND
  0
POLYLINE
  8
LPF120_DRD
 66
1
 10
0.0000
 20
0.0000
 30
0.0000
 40
0.0100
 41
0.0100
  0
VERTEX
  8
LPF120_DRD
 10
10.2250
 20
0.2750
 30
0.0000
  0
VERTEX
  8
LPF120_DRD
 10
10.2500
 20
0.3000
 30
0.0000
  0
SEQEND
  0
POLYLINE
  8
LPF120_DRD
 66
1
 10
0.0000
 20
0.0000
 30
0.0000
 40
0.0100
 41
0.0100
  0
VERTEX
  8
LPF120_DRD
 10
10.2000
 20
0.3000
 30
0.0000
  0
VERTEX
  8
LPF120_DRD
 10
10.2250
 20
0.2750
 30
0.0000
  0
SEQEND
  0
POLYLINE
  8
LPF120_DRD
 66
1
 10
0.0000
 20
0.0000
 30
0.0000
 40
0.0100
 41
0.0100
  0
VERTEX
  8
LPF120_DRD
 10
10.2250
 20
0.1000
 30
0.0000
  0
VERTEX
  8
LPF120_DRD
 10
10.2000
 20
0.0750
 30
0.0000
  0
SEQEND
  0
POLYLINE
  8
LPF120_DRD
 66
1
 10
0.0000
 20
0.0000
 30
0.0000
 40
0.0100
 41
0.0100
  0
VERTEX
  8
LPF120_DRD
 10
10.2500
 20
0.0750
 30
0.0000
  0
VERTEX
  8
LPF120_DRD
 10
10.2250
 20
0.1000
 30
0.0000
  0
SEQEND
  0
POLYLINE
  8
LPF120_DRD
 66
1
 10
0.0000
 20
0.0000
 30
0.0000
 40
0.0100
 41
0.0100
  0
VERTEX
  8
LPF120_DRD
 10
10.2250
 20
0.0500
 30
0.0000
  0
VERTEX
  8
LPF120_DRD
 10
10.2500
 20
0.0750
 30
0.0000
  0
SEQEND
  0
POLYLINE
  8
LPF120_DRD
 66
1
 10
0.0000
 20
0.0000
 30
0.0000
 40
0.0100
 41
0.0100
  0
VERTEX
  8
LPF120_DRD
 10
10.2000
 20
0.0750
 30
0.0000
  0
VERTEX
  8
LPF120_DRD
 10
10.2250
 20
0.0500
 30
0.0000
  0
SEQEND
  0
POLYLINE
  8
LPF120_DRD
 66
1
 10
0.0000
 20
0.0000
 30
0.0000
 40
0.0100
 41
0.0100
  0
VERTEX
  8
LPF120_DRD
 10
10.2250
 20
0.5500
 30
0.0000
  0
VERTEX
  8
LPF120_DRD
 10
10.2000
 20
0.5250
 30
0.0000
  0
SEQEND
  0
POLYLINE
  8
LPF120_DRD
 66
1
 10
0.0000
 20
0.0000
 30
0.0000
 40
0.0100
 41
0.0100
  0
VERTEX
  8
LPF120_DRD
 10
10.2500
 20
0.5250
 30
0.0000
  0
VERTEX
  8
LPF120_DRD
 10
10.2250
 20
0.5500
 30
0.0000
  0
SEQEND
  0
POLYLINE
  8
LPF120_DRD
 66
1
 10
0.0000
 20
0.0000
 30
0.0000
 40
0.0100
 41
0.0100
  0
VERTEX
  8
LPF120_DRD
 10
10.2250
 20
0.5000
 30
0.0000
  0
VERTEX
  8
LPF120_DRD
 10
10.2500
 20
0.5250
 30
0.0000
  0
SEQEND
  0
POLYLINE
  8
LPF120_DRD
 66
1
 10
0.0000
 20
0.0000
 30
0.0000
 40
0.0100
 41
0.0100
  0
VERTEX
  8
LPF120_DRD
 10
10.2000
 20
0.5250
 30
0.0000
  0
VERTEX
  8
LPF120_DRD
 10
10.2250
 20
0.5000
 30
0.0000
  0
SEQEND
  0
POLYLINE
  8
LPF120_DRD
 66
1
 10
0.0000
 20
0.0000
 30
0.0000
 40
0.0100
 41
0.0100
  0
VERTEX
  8
LPF120_DRD
 10
0.4500
 20
0.3000
 30
0.0000
  0
VERTEX
  8
LPF120_DRD
 10
0.4250
 20
0.2750
 30
0.0000
  0
SEQEND
  0
POLYLINE
  8
LPF120_DRD
 66
1
 10
0.0000
 20
0.0000
 30
0.0000
 40
0.0100
 41
0.0100
  0
VERTEX
  8
LPF120_DRD
 10
0.4750
 20
0.2750
 30
0.0000
  0
VERTEX
  8
LPF120_DRD
 10
0.4500
 20
0.3000
 30
0.0000
  0
SEQEND
  0
POLYLINE
  8
LPF120_DRD
 66
1
 10
0.0000
 20
0.0000
 30
0.0000
 40
0.0100
 41
0.0100
  0
VERTEX
  8
LPF120_DRD
 10
0.4500
 20
0.2500
 30
0.0000
  0
VERTEX
  8
LPF120_DRD
 10
0.4750
 20
0.2750
 30
0.0000
  0
SEQEND
  0
POLYLINE
  8
LPF120_DRD
 66
1
 10
0.0000
 20
0.0000
 30
0.0000
 40
0.0100
 41
0.0100
  0
VERTEX
  8
LPF120_DRD
 10
0.4250
 20
0.2750
 30
0.0000
  0
VERTEX
  8
LPF120_DRD
 10
0.4500
 20
0.2500
 30
0.0000
  0
SEQEND
  0
POLYLINE
  8
LPF120_DRD
 66
1
 10
0.0000
 20
0.0000
 30
0.0000
 40
0.0100
 41
0.0100
  0
VERTEX
  8
LPF120_DRD
 10
0.4250
 20
0.1000
 30
0.0000
  0
VERTEX
  8
LPF120_DRD
 10
0.4000
 20
0.0750
 30
0.0000
  0
SEQEND
  0
POLYLINE
  8
LPF120_DRD
 66
1
 10
0.0000
 20
0.0000
 30
0.0000
 40
0.0100
 41
0.0100
  0
VERTEX
  8
LPF120_DRD
 10
0.4500
 20
0.0750
 30
0.0000
  0
VERTEX
  8
LPF120_DRD
 10
0.4250
 20
0.1000
 30
0.0000
  0
SEQEND
  0
POLYLINE
  8
LPF120_DRD
 66
1
 10
0.0000
 20
0.0000
 30
0.0000
 40
0.0100
 41
0.0100
  0
VERTEX
  8
LPF120_DRD
 10
0.4250
 20
0.0500
 30
0.0000
  0
VERTEX
  8
LPF120_DRD
 10
0.4500
 20
0.0750
 30
0.0000
  0
SEQEND
  0
POLYLINE
  8
LPF120_DRD
 66
1
 10
0.0000
 20
0.0000
 30
0.0000
 40
0.0100
 41
0.0100
  0
VERTEX
  8
LPF120_DRD
 10
0.4000
 20
0.0750
 30
0.0000
  0
VERTEX
  8
LPF120_DRD
 10
0.4250
 20
0.0500
 30
0.0000
  0
SEQEND
  0
POLYLINE
  8
LPF120_DRD
 66
1
 10
0.0000
 20
0.0000
 30
0.0000
 40
0.0100
 41
0.0100
  0
VERTEX
  8
LPF120_DRD
 10
0.1000
 20
0.5000
 30
0.0000
  0
VERTEX
  8
LPF120_DRD
 10
0.0750
 20
0.4750
 30
0.0000
  0
SEQEND
  0
POLYLINE
  8
LPF120_DRD
 66
1
 10
0.0000
 20
0.0000
 30
0.0000
 40
0.0100
 41
0.0100
  0
VERTEX
  8
LPF120_DRD
 10
0.1250
 20
0.4750
 30
0.0000
  0
VERTEX
  8
LPF120_DRD
 10
0.1000
 20
0.5000
 30
0.0000
  0
SEQEND
  0
POLYLINE
  8
LPF120_DRD
 66
1
 10
0.0000
 20
0.0000
 30
0.0000
 40
0.0100
 41
0.0100
  0
VERTEX
  8
LPF120_DRD
 10
0.1000
 20
0.4500
 30
0.0000
  0
VERTEX
  8
LPF120_DRD
 10
0.1250
 20
0.4750
 30
0.0000
  0
SEQEND
  0
POLYLINE
  8
LPF120_DRD
 66
1
 10
0.0000
 20
0.0000
 30
0.0000
 40
0.0100
 41
0.0100
  0
VERTEX
  8
LPF120_DRD
 10
0.0750
 20
0.4750
 30
0.0000
  0
VERTEX
  8
LPF120_DRD
 10
0.1000
 20
0.4500
 30
0.0000
  0
SEQEND
  0
POLYLINE
  8
LPF120_DRD
 66
1
 10
0.0000
 20
0.0000
 30
0.0000
 40
0.0100
 41
0.0100
  0
VERTEX
  8
LPF120_DRD
 10
0.3250
 20
0.5000
 30
0.0000
  0
VERTEX
  8
LPF120_DRD
 10
0.3000
 20
0.4750
 30
0.0000
  0
SEQEND
  0
POLYLINE
  8
LPF120_DRD
 66
1
 10
0.0000
 20
0.0000
 30
0.0000
 40
0.0100
 41
0.0100
  0
VERTEX
  8
LPF120_DRD
 10
0.3500
 20
0.4750
 30
0.0000
  0
VERTEX
  8
LPF120_DRD
 10
0.3250
 20
0.5000
 30
0.0000
  0
SEQEND
  0
POLYLINE
  8
LPF120_DRD
 66
1
 10
0.0000
 20
0.0000
 30
0.0000
 40
0.0100
 41
0.0100
  0
VERTEX
  8
LPF120_DRD
 10
0.3250
 20
0.4500
 30
0.0000
  0
VERTEX
  8
LPF120_DRD
 10
0.3500
 20
0.4750
 30
0.0000
  0
SEQEND
  0
POLYLINE
  8
LPF120_DRD
 66
1
 10
0.0000
 20
0.0000
 30
0.0000
 40
0.0100
 41
0.0100
  0
VERTEX
  8
LPF120_DRD
 10
0.3000
 20
0.4750
 30
0.0000
  0
VERTEX
  8
LPF120_DRD
 10
0.3250
 20
0.4500
 30
0.0000
  0
SEQEND
  0
POLYLINE
  8
LPF120_DRD
 66
1
 10
0.0000
 20
0.0000
 30
0.0000
 40
0.0100
 41
0.0100
  0
VERTEX
  8
LPF120_DRD
 10
0.7250
 20
0.3000
 30
0.0000
  0
VERTEX
  8
LPF120_DRD
 10
0.7000
 20
0.2750
 30
0.0000
  0
SEQEND
  0
POLYLINE
  8
LPF120_DRD
 66
1
 10
0.0000
 20
0.0000
 30
0.0000
 40
0.0100
 41
0.0100
  0
VERTEX
  8
LPF120_DRD
 10
0.7500
 20
0.2750
 30
0.0000
  0
VERTEX
  8
LPF120_DRD
 10
0.7250
 20
0.3000
 30
0.0000
  0
SEQEND
  0
POLYLINE
  8
LPF120_DRD
 66
1
 10
0.0000
 20
0.0000
 30
0.0000
 40
0.0100
 41
0.0100
  0
VERTEX
  8
LPF120_DRD
 10
0.7250
 20
0.2500
 30
0.0000
  0
VERTEX
  8
LPF120_DRD
 10
0.7500
 20
0.2750
 30
0.0000
  0
SEQEND
  0
POLYLINE
  8
LPF120_DRD
 66
1
 10
0.0000
 20
0.0000
 30
0.0000
 40
0.0100
 41
0.0100
  0
VERTEX
  8
LPF120_DRD
 10
0.7000
 20
0.2750
 30
0.0000
  0
VERTEX
  8
LPF120_DRD
 10
0.7250
 20
0.2500
 30
0.0000
  0
SEQEND
  0
POLYLINE
  8
LPF120_DRD
 66
1
 10
0.0000
 20
0.0000
 30
0.0000
 40
0.0100
 41
0.0100
  0
VERTEX
  8
LPF120_DRD
 10
0.6000
 20
0.1000
 30
0.0000
  0
VERTEX
  8
LPF120_DRD
 10
0.5750
 20
0.0750
 30
0.0000
  0
SEQEND
  0
POLYLINE
  8
LPF120_DRD
 66
1
 10
0.0000
 20
0.0000
 30
0.0000
 40
0.0100
 41
0.0100
  0
VERTEX
  8
LPF120_DRD
 10
0.6250
 20
0.0750
 30
0.0000
  0
VERTEX
  8
LPF120_DRD
 10
0.6000
 20
0.1000
 30
0.0000
  0
SEQEND
  0
POLYLINE
  8
LPF120_DRD
 66
1
 10
0.0000
 20
0.0000
 30
0.0000
 40
0.0100
 41
0.0100
  0
VERTEX
  8
LPF120_DRD
 10
0.6000
 20
0.0500
 30
0.0000
  0
VERTEX
  8
LPF120_DRD
 10
0.6250
 20
0.0750
 30
0.0000
  0
SEQEND
  0
POLYLINE
  8
LPF120_DRD
 66
1
 10
0.0000
 20
0.0000
 30
0.0000
 40
0.0100
 41
0.0100
  0
VERTEX
  8
LPF120_DRD
 10
0.5750
 20
0.0750
 30
0.0000
  0
VERTEX
  8
LPF120_DRD
 10
0.6000
 20
0.0500
 30
0.0000
  0
SEQEND
  0
POLYLINE
  8
LPF120_DRD
 66
1
 10
0.0000
 20
0.0000
 30
0.0000
 40
0.0100
 41
0.0100
  0
VERTEX
  8
LPF120_DRD
 10
0.8500
 20
0.1000
 30
0.0000
  0
VERTEX
  8
LPF120_DRD
 10
0.8250
 20
0.0750
 30
0.0000
  0
SEQEND
  0
POLYLINE
  8
LPF120_DRD
 66
1
 10
0.0000
 20
0.0000
 30
0.0000
 40
0.0100
 41
0.0100
  0
VERTEX
  8
LPF120_DRD
 10
0.8750
 20
0.0750
 30
0.0000
  0
VERTEX
  8
LPF120_DRD
 10
0.8500
 20
0.1000
 30
0.0000
  0
SEQEND
  0
POLYLINE
  8
LPF120_DRD
 66
1
 10
0.0000
 20
0.0000
 30
0.0000
 40
0.0100
 41
0.0100
  0
VERTEX
  8
LPF120_DRD
 10
0.8500
 20
0.0500
 30
0.0000
  0
VERTEX
  8
LPF120_DRD
 10
0.8750
 20
0.0750
 30
0.0000
  0
SEQEND
  0
POLYLINE
  8
LPF120_DRD
 66
1
 10
0.0000
 20
0.0000
 30
0.0000
 40
0.0100
 41
0.0100
  0
VERTEX
  8
LPF120_DRD
 10
0.8250
 20
0.0750
 30
0.0000
  0
VERTEX
  8
LPF120_DRD
 10
0.8500
 20
0.0500
 30
0.0000
  0
SEQEND
  0
POLYLINE
  8
LPF120_DRD
 66
1
 10
0.0000
 20
0.0000
 30
0.0000
 40
0.0100
 41
0.0100
  0
VERTEX
  8
LPF120_DRD
 10
0.8500
 20
0.5000
 30
0.0000
  0
VERTEX
  8
LPF120_DRD
 10
0.8250
 20
0.4750
 30
0.0000
  0
SEQEND
  0
POLYLINE
  8
LPF120_DRD
 66
1
 10
0.0000
 20
0.0000
 30
0.0000
 40
0.0100
 41
0.0100
  0
VERTEX
  8
LPF120_DRD
 10
0.8750
 20
0.4750
 30
0.0000
  0
VERTEX
  8
LPF120_DRD
 10
0.8500
 20
0.5000
 30
0.0000
  0
SEQEND
  0
POLYLINE
  8
LPF120_DRD
 66
1
 10
0.0000
 20
0.0000
 30
0.0000
 40
0.0100
 41
0.0100
  0
VERTEX
  8
LPF120_DRD
 10
0.8500
 20
0.4500
 30
0.0000
  0
VERTEX
  8
LPF120_DRD
 10
0.8750
 20
0.4750
 30
0.0000
  0
SEQEND
  0
POLYLINE
  8
LPF120_DRD
 66
1
 10
0.0000
 20
0.0000
 30
0.0000
 40
0.0100
 41
0.0100
  0
VERTEX
  8
LPF120_DRD
 10
0.8250
 20
0.4750
 30
0.0000
  0
VERTEX
  8
LPF120_DRD
 10
0.8500
 20
0.4500
 30
0.0000
  0
SEQEND
  0
POLYLINE
  8
LPF120_DRD
 66
1
 10
0.0000
 20
0.0000
 30
0.0000
 40
0.0100
 41
0.0100
  0
VERTEX
  8
LPF120_DRD
 10
0.5500
 20
0.5000
 30
0.0000
  0
VERTEX
  8
LPF120_DRD
 10
0.5250
 20
0.4750
 30
0.0000
  0
SEQEND
  0
POLYLINE
  8
LPF120_DRD
 66
1
 10
0.0000
 20
0.0000
 30
0.0000
 40
0.0100
 41
0.0100
  0
VERTEX
  8
LPF120_DRD
 10
0.5750
 20
0.4750
 30
0.0000
  0
VERTEX
  8
LPF120_DRD
 10
0.5500
 20
0.5000
 30
0.0000
  0
SEQEND
  0
POLYLINE
  8
LPF120_DRD
 66
1
 10
0.0000
 20
0.0000
 30
0.0000
 40
0.0100
 41
0.0100
  0
VERTEX
  8
LPF120_DRD
 10
0.5500
 20
0.4500
 30
0.0000
  0
VERTEX
  8
LPF120_DRD
 10
0.5750
 20
0.4750
 30
0.0000
  0
SEQEND
  0
POLYLINE
  8
LPF120_DRD
 66
1
 10
0.0000
 20
0.0000
 30
0.0000
 40
0.0100
 41
0.0100
  0
VERTEX
  8
LPF120_DRD
 10
0.5250
 20
0.4750
 30
0.0000
  0
VERTEX
  8
LPF120_DRD
 10
0.5500
 20
0.4500
 30
0.0000
  0
SEQEND
  0
POLYLINE
  8
LPF120_DRD
 66
1
 10
0.0000
 20
0.0000
 30
0.0000
 40
0.0100
 41
0.0100
  0
VERTEX
  8
LPF120_DRD
 10
0.6500
 20
2.7750
 30
0.0000
  0
VERTEX
  8
LPF120_DRD
 10
0.6250
 20
2.7500
 30
0.0000
  0
SEQEND
  0
POLYLINE
  8
LPF120_DRD
 66
1
 10
0.0000
 20
0.0000
 30
0.0000
 40
0.0100
 41
0.0100
  0
VERTEX
  8
LPF120_DRD
 10
0.6750
 20
2.7500
 30
0.0000
  0
VERTEX
  8
LPF120_DRD
 10
0.6500
 20
2.7750
 30
0.0000
  0
SEQEND
  0
POLYLINE
  8
LPF120_DRD
 66
1
 10
0.0000
 20
0.0000
 30
0.0000
 40
0.0100
 41
0.0100
  0
VERTEX
  8
LPF120_DRD
 10
0.6500
 20
2.7250
 30
0.0000
  0
VERTEX
  8
LPF120_DRD
 10
0.6750
 20
2.7500
 30
0.0000
  0
SEQEND
  0
POLYLINE
  8
LPF120_DRD
 66
1
 10
0.0000
 20
0.0000
 30
0.0000
 40
0.0100
 41
0.0100
  0
VERTEX
  8
LPF120_DRD
 10
0.6250
 20
2.7500
 30
0.0000
  0
VERTEX
  8
LPF120_DRD
 10
0.6500
 20
2.7250
 30
0.0000
  0
SEQEND
  0
POLYLINE
  8
LPF120_DRD
 66
1
 10
0.0000
 20
0.0000
 30
0.0000
 40
0.0100
 41
0.0100
  0
VERTEX
  8
LPF120_DRD
 10
0.6500
 20
2.9750
 30
0.0000
  0
VERTEX
  8
LPF120_DRD
 10
0.6250
 20
2.9500
 30
0.0000
  0
SEQEND
  0
POLYLINE
  8
LPF120_DRD
 66
1
 10
0.0000
 20
0.0000
 30
0.0000
 40
0.0100
 41
0.0100
  0
VERTEX
  8
LPF120_DRD
 10
0.6750
 20
2.9500
 30
0.0000
  0
VERTEX
  8
LPF120_DRD
 10
0.6500
 20
2.9750
 30
0.0000
  0
SEQEND
  0
POLYLINE
  8
LPF120_DRD
 66
1
 10
0.0000
 20
0.0000
 30
0.0000
 40
0.0100
 41
0.0100
  0
VERTEX
  8
LPF120_DRD
 10
0.6500
 20
2.9250
 30
0.0000
  0
VERTEX
  8
LPF120_DRD
 10
0.6750
 20
2.9500
 30
0.0000
  0
SEQEND
  0
POLYLINE
  8
LPF120_DRD
 66
1
 10
0.0000
 20
0.0000
 30
0.0000
 40
0.0100
 41
0.0100
  0
VERTEX
  8
LPF120_DRD
 10
0.6250
 20
2.9500
 30
0.0000
  0
VERTEX
  8
LPF120_DRD
 10
0.6500
 20
2.9250
 30
0.0000
  0
SEQEND
  0
POLYLINE
  8
LPF120_DRD
 66
1
 10
0.0000
 20
0.0000
 30
0.0000
 40
0.0100
 41
0.0100
  0
VERTEX
  8
LPF120_DRD
 10
0.4750
 20
2.9000
 30
0.0000
  0
VERTEX
  8
LPF120_DRD
 10
0.4500
 20
2.8750
 30
0.0000
  0
SEQEND
  0
POLYLINE
  8
LPF120_DRD
 66
1
 10
0.0000
 20
0.0000
 30
0.0000
 40
0.0100
 41
0.0100
  0
VERTEX
  8
LPF120_DRD
 10
0.5000
 20
2.8750
 30
0.0000
  0
VERTEX
  8
LPF120_DRD
 10
0.4750
 20
2.9000
 30
0.0000
  0
SEQEND
  0
POLYLINE
  8
LPF120_DRD
 66
1
 10
0.0000
 20
0.0000
 30
0.0000
 40
0.0100
 41
0.0100
  0
VERTEX
  8
LPF120_DRD
 10
0.4750
 20
2.8500
 30
0.0000
  0
VERTEX
  8
LPF120_DRD
 10
0.5000
 20
2.8750
 30
0.0000
  0
SEQEND
  0
POLYLINE
  8
LPF120_DRD
 66
1
 10
0.0000
 20
0.0000
 30
0.0000
 40
0.0100
 41
0.0100
  0
VERTEX
  8
LPF120_DRD
 10
0.4500
 20
2.8750
 30
0.0000
  0
VERTEX
  8
LPF120_DRD
 10
0.4750
 20
2.8500
 30
0.0000
  0
SEQEND
  0
POLYLINE
  8
LPF120_DRD
 66
1
 10
0.0000
 20
0.0000
 30
0.0000
 40
0.0100
 41
0.0100
  0
VERTEX
  8
LPF120_DRD
 10
0.4750
 20
2.6750
 30
0.0000
  0
VERTEX
  8
LPF120_DRD
 10
0.4500
 20
2.6500
 30
0.0000
  0
SEQEND
  0
POLYLINE
  8
LPF120_DRD
 66
1
 10
0.0000
 20
0.0000
 30
0.0000
 40
0.0100
 41
0.0100
  0
VERTEX
  8
LPF120_DRD
 10
0.5000
 20
2.6500
 30
0.0000
  0
VERTEX
  8
LPF120_DRD
 10
0.4750
 20
2.6750
 30
0.0000
  0
SEQEND
  0
POLYLINE
  8
LPF120_DRD
 66
1
 10
0.0000
 20
0.0000
 30
0.0000
 40
0.0100
 41
0.0100
  0
VERTEX
  8
LPF120_DRD
 10
0.4750
 20
2.6250
 30
0.0000
  0
VERTEX
  8
LPF120_DRD
 10
0.5000
 20
2.6500
 30
0.0000
  0
SEQEND
  0
POLYLINE
  8
LPF120_DRD
 66
1
 10
0.0000
 20
0.0000
 30
0.0000
 40
0.0100
 41
0.0100
  0
VERTEX
  8
LPF120_DRD
 10
0.4500
 20
2.6500
 30
0.0000
  0
VERTEX
  8
LPF120_DRD
 10
0.4750
 20
2.6250
 30
0.0000
  0
SEQEND
  0
POLYLINE
  8
LPF120_DRD
 66
1
 10
0.0000
 20
0.0000
 30
0.0000
 40
0.0100
 41
0.0100
  0
VERTEX
  8
LPF120_DRD
 10
0.1500
 20
2.6750
 30
0.0000
  0
VERTEX
  8
LPF120_DRD
 10
0.1250
 20
2.6500
 30
0.0000
  0
SEQEND
  0
POLYLINE
  8
LPF120_DRD
 66
1
 10
0.0000
 20
0.0000
 30
0.0000
 40
0.0100
 41
0.0100
  0
VERTEX
  8
LPF120_DRD
 10
0.1750
 20
2.6500
 30
0.0000
  0
VERTEX
  8
LPF120_DRD
 10
0.1500
 20
2.6750
 30
0.0000
  0
SEQEND
  0
POLYLINE
  8
LPF120_DRD
 66
1
 10
0.0000
 20
0.0000
 30
0.0000
 40
0.0100
 41
0.0100
  0
VERTEX
  8
LPF120_DRD
 10
0.1500
 20
2.6250
 30
0.0000
  0
VERTEX
  8
LPF120_DRD
 10
0.1750
 20
2.6500
 30
0.0000
  0
SEQEND
  0
POLYLINE
  8
LPF120_DRD
 66
1
 10
0.0000
 20
0.0000
 30
0.0000
 40
0.0100
 41
0.0100
  0
VERTEX
  8
LPF120_DRD
 10
0.1250
 20
2.6500
 30
0.0000
  0
VERTEX
  8
LPF120_DRD
 10
0.1500
 20
2.6250
 30
0.0000
  0
SEQEND
  0
POLYLINE
  8
LPF120_DRD
 66
1
 10
0.0000
 20
0.0000
 30
0.0000
 40
0.0100
 41
0.0100
  0
VERTEX
  8
LPF120_DRD
 10
0.8000
 20
2.6750
 30
0.0000
  0
VERTEX
  8
LPF120_DRD
 10
0.7750
 20
2.6500
 30
0.0000
  0
SEQEND
  0
POLYLINE
  8
LPF120_DRD
 66
1
 10
0.0000
 20
0.0000
 30
0.0000
 40
0.0100
 41
0.0100
  0
VERTEX
  8
LPF120_DRD
 10
0.8250
 20
2.6500
 30
0.0000
  0
VERTEX
  8
LPF120_DRD
 10
0.8000
 20
2.6750
 30
0.0000
  0
SEQEND
  0
POLYLINE
  8
LPF120_DRD
 66
1
 10
0.0000
 20
0.0000
 30
0.0000
 40
0.0100
 41
0.0100
  0
VERTEX
  8
LPF120_DRD
 10
0.8000
 20
2.6250
 30
0.0000
  0
VERTEX
  8
LPF120_DRD
 10
0.8250
 20
2.6500
 30
0.0000
  0
SEQEND
  0
POLYLINE
  8
LPF120_DRD
 66
1
 10
0.0000
 20
0.0000
 30
0.0000
 40
0.0100
 41
0.0100
  0
VERTEX
  8
LPF120_DRD
 10
0.7750
 20
2.6500
 30
0.0000
  0
VERTEX
  8
LPF120_DRD
 10
0.8000
 20
2.6250
 30
0.0000
  0
SEQEND
  0
POLYLINE
  8
LPF120_DRD
 66
1
 10
0.0000
 20
0.0000
 30
0.0000
 40
0.0100
 41
0.0100
  0
VERTEX
  8
LPF120_DRD
 10
0.8000
 20
2.9250
 30
0.0000
  0
VERTEX
  8
LPF120_DRD
 10
0.7750
 20
2.9000
 30
0.0000
  0
SEQEND
  0
POLYLINE
  8
LPF120_DRD
 66
1
 10
0.0000
 20
0.0000
 30
0.0000
 40
0.0100
 41
0.0100
  0
VERTEX
  8
LPF120_DRD
 10
0.8250
 20
2.9000
 30
0.0000
  0
VERTEX
  8
LPF120_DRD
 10
0.8000
 20
2.9250
 30
0.0000
  0
SEQEND
  0
POLYLINE
  8
LPF120_DRD
 66
1
 10
0.0000
 20
0.0000
 30
0.0000
 40
0.0100
 41
0.0100
  0
VERTEX
  8
LPF120_DRD
 10
0.8000
 20
2.8750
 30
0.0000
  0
VERTEX
  8
LPF120_DRD
 10
0.8250
 20
2.9000
 30
0.0000
  0
SEQEND
  0
POLYLINE
  8
LPF120_DRD
 66
1
 10
0.0000
 20
0.0000
 30
0.0000
 40
0.0100
 41
0.0100
  0
VERTEX
  8
LPF120_DRD
 10
0.7750
 20
2.9000
 30
0.0000
  0
VERTEX
  8
LPF120_DRD
 10
0.8000
 20
2.8750
 30
0.0000
  0
SEQEND
  0
POLYLINE
  8
LPF120_DRD
 66
1
 10
0.0000
 20
0.0000
 30
0.0000
 40
0.0100
 41
0.0100
  0
VERTEX
  8
LPF120_DRD
 10
0.8000
 20
3.0750
 30
0.0000
  0
VERTEX
  8
LPF120_DRD
 10
0.7750
 20
3.0500
 30
0.0000
  0
SEQEND
  0
POLYLINE
  8
LPF120_DRD
 66
1
 10
0.0000
 20
0.0000
 30
0.0000
 40
0.0100
 41
0.0100
  0
VERTEX
  8
LPF120_DRD
 10
0.8250
 20
3.0500
 30
0.0000
  0
VERTEX
  8
LPF120_DRD
 10
0.8000
 20
3.0750
 30
0.0000
  0
SEQEND
  0
POLYLINE
  8
LPF120_DRD
 66
1
 10
0.0000
 20
0.0000
 30
0.0000
 40
0.0100
 41
0.0100
  0
VERTEX
  8
LPF120_DRD
 10
0.8000
 20
3.0250
 30
0.0000
  0
VERTEX
  8
LPF120_DRD
 10
0.8250
 20
3.0500
 30
0.0000
  0
SEQEND
  0
POLYLINE
  8
LPF120_DRD
 66
1
 10
0.0000
 20
0.0000
 30
0.0000
 40
0.0100
 41
0.0100
  0
VERTEX
  8
LPF120_DRD
 10
0.7750
 20
3.0500
 30
0.0000
  0
VERTEX
  8
LPF120_DRD
 10
0.8000
 20
3.0250
 30
0.0000
  0
SEQEND
  0
POLYLINE
  8
LPF120_DRD
 66
1
 10
0.0000
 20
0.0000
 30
0.0000
 40
0.0100
 41
0.0100
  0
VERTEX
  8
LPF120_DRD
 10
0.4750
 20
3.0750
 30
0.0000
  0
VERTEX
  8
LPF120_DRD
 10
0.4500
 20
3.0500
 30
0.0000
  0
SEQEND
  0
POLYLINE
  8
LPF120_DRD
 66
1
 10
0.0000
 20
0.0000
 30
0.0000
 40
0.0100
 41
0.0100
  0
VERTEX
  8
LPF120_DRD
 10
0.5000
 20
3.0500
 30
0.0000
  0
VERTEX
  8
LPF120_DRD
 10
0.4750
 20
3.0750
 30
0.0000
  0
SEQEND
  0
POLYLINE
  8
LPF120_DRD
 66
1
 10
0.0000
 20
0.0000
 30
0.0000
 40
0.0100
 41
0.0100
  0
VERTEX
  8
LPF120_DRD
 10
0.4750
 20
3.0250
 30
0.0000
  0
VERTEX
  8
LPF120_DRD
 10
0.5000
 20
3.0500
 30
0.0000
  0
SEQEND
  0
POLYLINE
  8
LPF120_DRD
 66
1
 10
0.0000
 20
0.0000
 30
0.0000
 40
0.0100
 41
0.0100
  0
VERTEX
  8
LPF120_DRD
 10
0.4500
 20
3.0500
 30
0.0000
  0
VERTEX
  8
LPF120_DRD
 10
0.4750
 20
3.0250
 30
0.0000
  0
SEQEND
  0
POLYLINE
  8
LPF120_DRD
 66
1
 10
0.0000
 20
0.0000
 30
0.0000
 40
0.0100
 41
0.0100
  0
VERTEX
  8
LPF120_DRD
 10
5.5625
 20
0.2000
 30
0.0000
  0
VERTEX
  8
LPF120_DRD
 10
5.5125
 20
0.2000
 30
0.0000
  0
SEQEND
  0
POLYLINE
  8
LPF120_DRD
 66
1
 10
0.0000
 20
0.0000
 30
0.0000
 40
0.0100
 41
0.0100
  0
VERTEX
  8
LPF120_DRD
 10
5.5375
 20
0.2250
 30
0.0000
  0
VERTEX
  8
LPF120_DRD
 10
5.5375
 20
0.1750
 30
0.0000
  0
SEQEND
  0
POLYLINE
  8
LPF120_DRD
 66
1
 10
0.0000
 20
0.0000
 30
0.0000
 40
0.0100
 41
0.0100
  0
VERTEX
  8
LPF120_DRD
 10
5.5625
 20
2.9500
 30
0.0000
  0
VERTEX
  8
LPF120_DRD
 10
5.5125
 20
2.9500
 30
0.0000
  0
SEQEND
  0
POLYLINE
  8
LPF120_DRD
 66
1
 10
0.0000
 20
0.0000
 30
0.0000
 40
0.0100
 41
0.0100
  0
VERTEX
  8
LPF120_DRD
 10
5.5375
 20
2.9750
 30
0.0000
  0
VERTEX
  8
LPF120_DRD
 10
5.5375
 20
2.9250
 30
0.0000
  0
SEQEND
  0
POLYLINE
  8
LPF120_DRD
 66
1
 10
0.0000
 20
0.0000
 30
0.0000
 40
0.0100
 41
0.0100
  0
VERTEX
  8
LPF120_DRD
 10
9.8800
 20
0.2000
 30
0.0000
  0
VERTEX
  8
LPF120_DRD
 10
9.8300
 20
0.2000
 30
0.0000
  0
SEQEND
  0
POLYLINE
  8
LPF120_DRD
 66
1
 10
0.0000
 20
0.0000
 30
0.0000
 40
0.0100
 41
0.0100
  0
VERTEX
  8
LPF120_DRD
 10
9.8550
 20
0.2250
 30
0.0000
  0
VERTEX
  8
LPF120_DRD
 10
9.8550
 20
0.1750
 30
0.0000
  0
SEQEND
  0
POLYLINE
  8
LPF120_DRD
 66
1
 10
0.0000
 20
0.0000
 30
0.0000
 40
0.0100
 41
0.0100
  0
VERTEX
  8
LPF120_DRD
 10
9.8800
 20
2.9500
 30
0.0000
  0
VERTEX
  8
LPF120_DRD
 10
9.8300
 20
2.9500
 30
0.0000
  0
SEQEND
  0
POLYLINE
  8
LPF120_DRD
 66
1
 10
0.0000
 20
0.0000
 30
0.0000
 40
0.0100
 41
0.0100
  0
VERTEX
  8
LPF120_DRD
 10
9.8550
 20
2.9750
 30
0.0000
  0
VERTEX
  8
LPF120_DRD
 10
9.8550
 20
2.9250
 30
0.0000
  0
SEQEND
  0
POLYLINE
  8
LPF120_DRD
 66
1
 10
0.0000
 20
0.0000
 30
0.0000
 40
0.0100
 41
0.0100
  0
VERTEX
  8
LPF120_DRD
 10
1.2250
 20
0.2000
 30
0.0000
  0
VERTEX
  8
LPF120_DRD
 10
1.1750
 20
0.2000
 30
0.0000
  0
SEQEND
  0
POLYLINE
  8
LPF120_DRD
 66
1
 10
0.0000
 20
0.0000
 30
0.0000
 40
0.0100
 41
0.0100
  0
VERTEX
  8
LPF120_DRD
 10
1.2000
 20
0.2250
 30
0.0000
  0
VERTEX
  8
LPF120_DRD
 10
1.2000
 20
0.1750
 30
0.0000
  0
SEQEND
  0
POLYLINE
  8
LPF120_DRD
 66
1
 10
0.0000
 20
0.0000
 30
0.0000
 40
0.0100
 41
0.0100
  0
VERTEX
  8
LPF120_DRD
 10
1.2250
 20
2.9500
 30
0.0000
  0
VERTEX
  8
LPF120_DRD
 10
1.1750
 20
2.9500
 30
0.0000
  0
SEQEND
  0
POLYLINE
  8
LPF120_DRD
 66
1
 10
0.0000
 20
0.0000
 30
0.0000
 40
0.0100
 41
0.0100
  0
VERTEX
  8
LPF120_DRD
 10
1.2000
 20
2.9750
 30
0.0000
  0
VERTEX
  8
LPF120_DRD
 10
1.2000
 20
2.9250
 30
0.0000
  0
SEQEND
  0
POLYLINE
  8
LPF120_DRD
 66
1
 10
0.0000
 20
0.0000
 30
0.0000
 40
0.0100
 41
0.0100
  0
VERTEX
  8
LPF120_DRD
 10
8.1125
 20
0.2000
 30
0.0000
  0
VERTEX
  8
LPF120_DRD
 10
8.0625
 20
0.2000
 30
0.0000
  0
SEQEND
  0
POLYLINE
  8
LPF120_DRD
 66
1
 10
0.0000
 20
0.0000
 30
0.0000
 40
0.0100
 41
0.0100
  0
VERTEX
  8
LPF120_DRD
 10
8.0875
 20
0.2250
 30
0.0000
  0
VERTEX
  8
LPF120_DRD
 10
8.0875
 20
0.1750
 30
0.0000
  0
SEQEND
  0
POLYLINE
  8
LPF120_DRD
 66
1
 10
0.0000
 20
0.0000
 30
0.0000
 40
0.0100
 41
0.0100
  0
VERTEX
  8
LPF120_DRD
 10
8.1125
 20
2.9500
 30
0.0000
  0
VERTEX
  8
LPF120_DRD
 10
8.0625
 20
2.9500
 30
0.0000
  0
SEQEND
  0
POLYLINE
  8
LPF120_DRD
 66
1
 10
0.0000
 20
0.0000
 30
0.0000
 40
0.0100
 41
0.0100
  0
VERTEX
  8
LPF120_DRD
 10
8.0875
 20
2.9750
 30
0.0000
  0
VERTEX
  8
LPF120_DRD
 10
8.0875
 20
2.9250
 30
0.0000
  0
SEQEND
  0
POLYLINE
  8
LPF120_DRD
 66
1
 10
0.0000
 20
0.0000
 30
0.0000
 40
0.0100
 41
0.0100
  0
VERTEX
  8
LPF120_DRD
 10
3.0500
 20
0.2000
 30
0.0000
  0
VERTEX
  8
LPF120_DRD
 10
3.0000
 20
0.2000
 30
0.0000
  0
SEQEND
  0
POLYLINE
  8
LPF120_DRD
 66
1
 10
0.0000
 20
0.0000
 30
0.0000
 40
0.0100
 41
0.0100
  0
VERTEX
  8
LPF120_DRD
 10
3.0250
 20
0.2250
 30
0.0000
  0
VERTEX
  8
LPF120_DRD
 10
3.0250
 20
0.1750
 30
0.0000
  0
SEQEND
  0
POLYLINE
  8
LPF120_DRD
 66
1
 10
0.0000
 20
0.0000
 30
0.0000
 40
0.0100
 41
0.0100
  0
VERTEX
  8
LPF120_DRD
 10
3.0500
 20
2.9500
 30
0.0000
  0
VERTEX
  8
LPF120_DRD
 10
3.0000
 20
2.9500
 30
0.0000
  0
SEQEND
  0
POLYLINE
  8
LPF120_DRD
 66
1
 10
0.0000
 20
0.0000
 30
0.0000
 40
0.0100
 41
0.0100
  0
VERTEX
  8
LPF120_DRD
 10
3.0250
 20
2.9750
 30
0.0000
  0
VERTEX
  8
LPF120_DRD
 10
3.0250
 20
2.9250
 30
0.0000
  0
SEQEND
  0
POLYLINE
  8
LPF120_DRD
 66
1
 10
0.0000
 20
0.0000
 30
0.0000
 40
0.0100
 41
0.0100
  0
VERTEX
  8
LPF120_DRD
 10
10.9000
 20
3.0000
 30
0.0000
  0
VERTEX
  8
LPF120_DRD
 10
10.8500
 20
2.9500
 30
0.0000
  0
SEQEND
  0
POLYLINE
  8
LPF120_DRD
 66
1
 10
0.0000
 20
0.0000
 30
0.0000
 40
0.0100
 41
0.0100
  0
VERTEX
  8
LPF120_DRD
 10
10.9000
 20
2.9500
 30
0.0000
  0
VERTEX
  8
LPF120_DRD
 10
10.8500
 20
3.0000
 30
0.0000
  0
SEQEND
  0
POLYLINE
  8
LPF120_DRD
 66
1
 10
0.0000
 20
0.0000
 30
0.0000
 40
0.0100
 41
0.0100
  0
VERTEX
  8
LPF120_DRD
 10
10.9000
 20
0.2000
 30
0.0000
  0
VERTEX
  8
LPF120_DRD
 10
10.8500
 20
0.1500
 30
0.0000
  0
SEQEND
  0
POLYLINE
  8
LPF120_DRD
 66
1
 10
0.0000
 20
0.0000
 30
0.0000
 40
0.0100
 41
0.0100
  0
VERTEX
  8
LPF120_DRD
 10
10.9000
 20
0.1500
 30
0.0000
  0
VERTEX
  8
LPF120_DRD
 10
10.8500
 20
0.2000
 30
0.0000
  0
SEQEND
  0
POLYLINE
  8
LPF120_DRD
 66
1
 10
0.0000
 20
0.0000
 30
0.0000
 40
0.0100
 41
0.0100
  0
VERTEX
  8
LPF120_DRD
 10
9.4000
 20
0.2000
 30
0.0000
  0
VERTEX
  8
LPF120_DRD
 10
9.3500
 20
0.1500
 30
0.0000
  0
SEQEND
  0
POLYLINE
  8
LPF120_DRD
 66
1
 10
0.0000
 20
0.0000
 30
0.0000
 40
0.0100
 41
0.0100
  0
VERTEX
  8
LPF120_DRD
 10
9.4000
 20
0.1500
 30
0.0000
  0
VERTEX
  8
LPF120_DRD
 10
9.3500
 20
0.2000
 30
0.0000
  0
SEQEND
  0
POLYLINE
  8
LPF120_DRD
 66
1
 10
0.0000
 20
0.0000
 30
0.0000
 40
0.0100
 41
0.0100
  0
VERTEX
  8
LPF120_DRD
 10
6.8250
 20
0.2000
 30
0.0000
  0
VERTEX
  8
LPF120_DRD
 10
6.7750
 20
0.1500
 30
0.0000
  0
SEQEND
  0
POLYLINE
  8
LPF120_DRD
 66
1
 10
0.0000
 20
0.0000
 30
0.0000
 40
0.0100
 41
0.0100
  0
VERTEX
  8
LPF120_DRD
 10
6.8250
 20
0.1500
 30
0.0000
  0
VERTEX
  8
LPF120_DRD
 10
6.7750
 20
0.2000
 30
0.0000
  0
SEQEND
  0
POLYLINE
  8
LPF120_DRD
 66
1
 10
0.0000
 20
0.0000
 30
0.0000
 40
0.0100
 41
0.0100
  0
VERTEX
  8
LPF120_DRD
 10
0.2000
 20
0.2000
 30
0.0000
  0
VERTEX
  8
LPF120_DRD
 10
0.1500
 20
0.1500
 30
0.0000
  0
SEQEND
  0
POLYLINE
  8
LPF120_DRD
 66
1
 10
0.0000
 20
0.0000
 30
0.0000
 40
0.0100
 41
0.0100
  0
VERTEX
  8
LPF120_DRD
 10
0.2000
 20
0.1500
 30
0.0000
  0
VERTEX
  8
LPF120_DRD
 10
0.1500
 20
0.2000
 30
0.0000
  0
SEQEND
  0
POLYLINE
  8
LPF120_DRD
 66
1
 10
0.0000
 20
0.0000
 30
0.0000
 40
0.0100
 41
0.0100
  0
VERTEX
  8
LPF120_DRD
 10
1.8000
 20
0.2000
 30
0.0000
  0
VERTEX
  8
LPF120_DRD
 10
1.7500
 20
0.1500
 30
0.0000
  0
SEQEND
  0
POLYLINE
  8
LPF120_DRD
 66
1
 10
0.0000
 20
0.0000
 30
0.0000
 40
0.0100
 41
0.0100
  0
VERTEX
  8
LPF120_DRD
 10
1.8000
 20
0.1500
 30
0.0000
  0
VERTEX
  8
LPF120_DRD
 10
1.7500
 20
0.2000
 30
0.0000
  0
SEQEND
  0
POLYLINE
  8
LPF120_DRD
 66
1
 10
0.0000
 20
0.0000
 30
0.0000
 40
0.0100
 41
0.0100
  0
VERTEX
  8
LPF120_DRD
 10
4.3000
 20
0.2000
 30
0.0000
  0
VERTEX
  8
LPF120_DRD
 10
4.2500
 20
0.1500
 30
0.0000
  0
SEQEND
  0
POLYLINE
  8
LPF120_DRD
 66
1
 10
0.0000
 20
0.0000
 30
0.0000
 40
0.0100
 41
0.0100
  0
VERTEX
  8
LPF120_DRD
 10
4.3000
 20
0.1500
 30
0.0000
  0
VERTEX
  8
LPF120_DRD
 10
4.2500
 20
0.2000
 30
0.0000
  0
SEQEND
  0
POLYLINE
  8
LPF120_DRD
 66
1
 10
0.0000
 20
0.0000
 30
0.0000
 40
0.0100
 41
0.0100
  0
VERTEX
  8
LPF120_DRD
 10
9.4000
 20
3.0000
 30
0.0000
  0
VERTEX
  8
LPF120_DRD
 10
9.3500
 20
2.9500
 30
0.0000
  0
SEQEND
  0
POLYLINE
  8
LPF120_DRD
 66
1
 10
0.0000
 20
0.0000
 30
0.0000
 40
0.0100
 41
0.0100
  0
VERTEX
  8
LPF120_DRD
 10
9.4000
 20
2.9500
 30
0.0000
  0
VERTEX
  8
LPF120_DRD
 10
9.3500
 20
3.0000
 30
0.0000
  0
SEQEND
  0
POLYLINE
  8
LPF120_DRD
 66
1
 10
0.0000
 20
0.0000
 30
0.0000
 40
0.0100
 41
0.0100
  0
VERTEX
  8
LPF120_DRD
 10
6.8250
 20
3.0000
 30
0.0000
  0
VERTEX
  8
LPF120_DRD
 10
6.7750
 20
2.9500
 30
0.0000
  0
SEQEND
  0
POLYLINE
  8
LPF120_DRD
 66
1
 10
0.0000
 20
0.0000
 30
0.0000
 40
0.0100
 41
0.0100
  0
VERTEX
  8
LPF120_DRD
 10
6.8250
 20
2.9500
 30
0.0000
  0
VERTEX
  8
LPF120_DRD
 10
6.7750
 20
3.0000
 30
0.0000
  0
SEQEND
  0
POLYLINE
  8
LPF120_DRD
 66
1
 10
0.0000
 20
0.0000
 30
0.0000
 40
0.0100
 41
0.0100
  0
VERTEX
  8
LPF120_DRD
 10
4.3000
 20
3.0000
 30
0.0000
  0
VERTEX
  8
LPF120_DRD
 10
4.2500
 20
2.9500
 30
0.0000
  0
SEQEND
  0
POLYLINE
  8
LPF120_DRD
 66
1
 10
0.0000
 20
0.0000
 30
0.0000
 40
0.0100
 41
0.0100
  0
VERTEX
  8
LPF120_DRD
 10
4.3000
 20
2.9500
 30
0.0000
  0
VERTEX
  8
LPF120_DRD
 10
4.2500
 20
3.0000
 30
0.0000
  0
SEQEND
  0
POLYLINE
  8
LPF120_DRD
 66
1
 10
0.0000
 20
0.0000
 30
0.0000
 40
0.0100
 41
0.0100
  0
VERTEX
  8
LPF120_DRD
 10
1.8000
 20
3.0000
 30
0.0000
  0
VERTEX
  8
LPF120_DRD
 10
1.7500
 20
2.9500
 30
0.0000
  0
SEQEND
  0
POLYLINE
  8
LPF120_DRD
 66
1
 10
0.0000
 20
0.0000
 30
0.0000
 40
0.0100
 41
0.0100
  0
VERTEX
  8
LPF120_DRD
 10
1.8000
 20
2.9500
 30
0.0000
  0
VERTEX
  8
LPF120_DRD
 10
1.7500
 20
3.0000
 30
0.0000
  0
SEQEND
  0
POLYLINE
  8
LPF120_DRD
 66
1
 10
0.0000
 20
0.0000
 30
0.0000
 40
0.0100
 41
0.0100
  0
VERTEX
  8
LPF120_DRD
 10
0.2000
 20
3.0000
 30
0.0000
  0
VERTEX
  8
LPF120_DRD
 10
0.1500
 20
2.9500
 30
0.0000
  0
SEQEND
  0
POLYLINE
  8
LPF120_DRD
 66
1
 10
0.0000
 20
0.0000
 30
0.0000
 40
0.0100
 41
0.0100
  0
VERTEX
  8
LPF120_DRD
 10
0.2000
 20
2.9500
 30
0.0000
  0
VERTEX
  8
LPF120_DRD
 10
0.1500
 20
3.0000
 30
0.0000
  0
SEQEND
  0
POLYLINE
  8
LPF120_DRD
 66
1
 10
0.0000
 20
0.0000
 30
0.0000
 40
0.0080
 41
0.0080
  0
VERTEX
  8
LPF120_DRD
 10
9.2632
 20
-1.8222
 30
0.0000
  0
VERTEX
  8
LPF120_DRD
 10
9.2409
 20
-1.8222
 30
0.0000
  0
SEQEND
  0
POLYLINE
  8
LPF120_DRD
 66
1
 10
0.0000
 20
0.0000
 30
0.0000
 40
0.0080
 41
0.0080
  0
VERTEX
  8
LPF120_DRD
 10
9.2520
 20
-1.8222
 30
0.0000
  0
VERTEX
  8
LPF120_DRD
 10
9.2520
 20
-1.7556
 30
0.0000
  0
VERTEX
  8
LPF120_DRD
 10
9.2409
 20
-1.7667
 30
0.0000
  0
SEQEND
  0
POLYLINE
  8
LPF120_DRD
 66
1
 10
0.0000
 20
0.0000
 30
0.0000
 40
0.0080
 41
0.0080
  0
VERTEX
  8
LPF120_DRD
 10
9.2083
 20
-1.8000
 30
0.0000
  0
VERTEX
  8
LPF120_DRD
 10
9.1638
 20
-1.8000
 30
0.0000
  0
VERTEX
  8
LPF120_DRD
 10
9.1860
 20
-1.7556
 30
0.0000
  0
VERTEX
  8
LPF120_DRD
 10
9.1972
 20
-1.7556
 30
0.0000
  0
VERTEX
  8
LPF120_DRD
 10
9.1972
 20
-1.8222
 30
0.0000
  0
SEQEND
  0
POLYLINE
  8
LPF120_DRD
 66
1
 10
0.0000
 20
0.0000
 30
0.0000
 40
0.0080
 41
0.0080
  0
VERTEX
  8
LPF120_DRD
 10
9.0978
 20
-1.8111
 30
0.0000
  0
VERTEX
  8
LPF120_DRD
 10
9.1034
 20
-1.8222
 30
0.0000
  0
VERTEX
  8
LPF120_DRD
 10
9.1367
 20
-1.8222
 30
0.0000
  0
VERTEX
  8
LPF120_DRD
 10
9.1423
 20
-1.8111
 30
0.0000
  0
VERTEX
  8
LPF120_DRD
 10
9.1423
 20
-1.7889
 30
0.0000
  0
VERTEX
  8
LPF120_DRD
 10
9.1312
 20
-1.7778
 30
0.0000
  0
VERTEX
  8
LPF120_DRD
 10
9.0978
 20
-1.7778
 30
0.0000
  0
VERTEX
  8
LPF120_DRD
 10
9.0978
 20
-1.7556
 30
0.0000
  0
VERTEX
  8
LPF120_DRD
 10
9.1423
 20
-1.7556
 30
0.0000
  0
SEQEND
  0
POLYLINE
  8
LPF120_DRD
 66
1
 10
0.0000
 20
0.0000
 30
0.0000
 40
0.0080
 41
0.0080
  0
VERTEX
  8
LPF120_DRD
 10
9.0485
 20
-1.8222
 30
0.0000
  0
VERTEX
  8
LPF120_DRD
 10
9.0374
 20
-1.8111
 30
0.0000
  0
VERTEX
  8
LPF120_DRD
 10
9.0318
 20
-1.8000
 30
0.0000
  0
VERTEX
  8
LPF120_DRD
 10
9.0318
 20
-1.7778
 30
0.0000
  0
VERTEX
  8
LPF120_DRD
 10
9.0374
 20
-1.7667
 30
0.0000
  0
VERTEX
  8
LPF120_DRD
 10
9.0485
 20
-1.7556
 30
0.0000
  0
VERTEX
  8
LPF120_DRD
 10
9.0596
 20
-1.7556
 30
0.0000
  0
VERTEX
  8
LPF120_DRD
 10
9.0707
 20
-1.7667
 30
0.0000
  0
VERTEX
  8
LPF120_DRD
 10
9.0763
 20
-1.7778
 30
0.0000
  0
VERTEX
  8
LPF120_DRD
 10
9.0763
 20
-1.8000
 30
0.0000
  0
VERTEX
  8
LPF120_DRD
 10
9.0707
 20
-1.8111
 30
0.0000
  0
VERTEX
  8
LPF120_DRD
 10
9.0596
 20
-1.8222
 30
0.0000
  0
VERTEX
  8
LPF120_DRD
 10
9.0485
 20
-1.8222
 30
0.0000
  0
SEQEND
  0
POLYLINE
  8
LPF120_DRD
 66
1
 10
0.0000
 20
0.0000
 30
0.0000
 40
0.0080
 41
0.0080
  0
VERTEX
  8
LPF120_DRD
 10
9.0103
 20
-1.7889
 30
0.0000
  0
VERTEX
  8
LPF120_DRD
 10
8.9658
 20
-1.7889
 30
0.0000
  0
SEQEND
  0
POLYLINE
  8
LPF120_DRD
 66
1
 10
0.0000
 20
0.0000
 30
0.0000
 40
0.0080
 41
0.0080
  0
VERTEX
  8
LPF120_DRD
 10
8.8998
 20
-1.8111
 30
0.0000
  0
VERTEX
  8
LPF120_DRD
 10
8.9109
 20
-1.8222
 30
0.0000
  0
VERTEX
  8
LPF120_DRD
 10
8.9332
 20
-1.8222
 30
0.0000
  0
VERTEX
  8
LPF120_DRD
 10
8.9443
 20
-1.8111
 30
0.0000
  0
VERTEX
  8
LPF120_DRD
 10
8.9443
 20
-1.8000
 30
0.0000
  0
VERTEX
  8
LPF120_DRD
 10
8.9220
 20
-1.7778
 30
0.0000
  0
VERTEX
  8
LPF120_DRD
 10
8.9443
 20
-1.7556
 30
0.0000
  0
VERTEX
  8
LPF120_DRD
 10
8.8998
 20
-1.7556
 30
0.0000
  0
SEQEND
  0
POLYLINE
  8
LPF120_DRD
 66
1
 10
0.0000
 20
0.0000
 30
0.0000
 40
0.0080
 41
0.0080
  0
VERTEX
  8
LPF120_DRD
 10
8.8783
 20
-1.8222
 30
0.0000
  0
VERTEX
  8
LPF120_DRD
 10
8.8561
 20
-1.8222
 30
0.0000
  0
SEQEND
  0
POLYLINE
  8
LPF120_DRD
 66
1
 10
0.0000
 20
0.0000
 30
0.0000
 40
0.0080
 41
0.0080
  0
VERTEX
  8
LPF120_DRD
 10
8.8672
 20
-1.8222
 30
0.0000
  0
VERTEX
  8
LPF120_DRD
 10
8.8672
 20
-1.7556
 30
0.0000
  0
VERTEX
  8
LPF120_DRD
 10
8.8561
 20
-1.7667
 30
0.0000
  0
SEQEND
  0
POLYLINE
  8
LPF120_DRD
 66
1
 10
0.0000
 20
0.0000
 30
0.0000
 40
0.0080
 41
0.0080
  0
VERTEX
  8
LPF120_DRD
 10
8.7789
 20
-1.8111
 30
0.0000
  0
VERTEX
  8
LPF120_DRD
 10
8.7845
 20
-1.8222
 30
0.0000
  0
VERTEX
  8
LPF120_DRD
 10
8.8178
 20
-1.8222
 30
0.0000
  0
VERTEX
  8
LPF120_DRD
 10
8.8234
 20
-1.8111
 30
0.0000
  0
VERTEX
  8
LPF120_DRD
 10
8.8234
 20
-1.7889
 30
0.0000
  0
VERTEX
  8
LPF120_DRD
 10
8.8123
 20
-1.7778
 30
0.0000
  0
VERTEX
  8
LPF120_DRD
 10
8.7789
 20
-1.7778
 30
0.0000
  0
VERTEX
  8
LPF120_DRD
 10
8.7789
 20
-1.7556
 30
0.0000
  0
VERTEX
  8
LPF120_DRD
 10
8.8234
 20
-1.7556
 30
0.0000
  0
SEQEND
  0
POLYLINE
  8
LPF120_DRD
 66
1
 10
0.0000
 20
0.0000
 30
0.0000
 40
0.0080
 41
0.0080
  0
VERTEX
  8
LPF120_DRD
 10
8.7574
 20
-1.7889
 30
0.0000
  0
VERTEX
  8
LPF120_DRD
 10
8.7129
 20
-1.7889
 30
0.0000
  0
SEQEND
  0
POLYLINE
  8
LPF120_DRD
 66
1
 10
0.0000
 20
0.0000
 30
0.0000
 40
0.0080
 41
0.0080
  0
VERTEX
  8
LPF120_DRD
 10
8.6469
 20
-1.8111
 30
0.0000
  0
VERTEX
  8
LPF120_DRD
 10
8.6525
 20
-1.8222
 30
0.0000
  0
VERTEX
  8
LPF120_DRD
 10
8.6858
 20
-1.8222
 30
0.0000
  0
VERTEX
  8
LPF120_DRD
 10
8.6914
 20
-1.8111
 30
0.0000
  0
VERTEX
  8
LPF120_DRD
 10
8.6914
 20
-1.7889
 30
0.0000
  0
VERTEX
  8
LPF120_DRD
 10
8.6803
 20
-1.7778
 30
0.0000
  0
VERTEX
  8
LPF120_DRD
 10
8.6469
 20
-1.7778
 30
0.0000
  0
VERTEX
  8
LPF120_DRD
 10
8.6469
 20
-1.7556
 30
0.0000
  0
VERTEX
  8
LPF120_DRD
 10
8.6914
 20
-1.7556
 30
0.0000
  0
SEQEND
  0
POLYLINE
  8
LPF120_DRD
 66
1
 10
0.0000
 20
0.0000
 30
0.0000
 40
0.0080
 41
0.0080
  0
VERTEX
  8
LPF120_DRD
 10
8.5976
 20
-1.8222
 30
0.0000
  0
VERTEX
  8
LPF120_DRD
 10
8.5865
 20
-1.8111
 30
0.0000
  0
VERTEX
  8
LPF120_DRD
 10
8.5809
 20
-1.8000
 30
0.0000
  0
VERTEX
  8
LPF120_DRD
 10
8.5809
 20
-1.7778
 30
0.0000
  0
VERTEX
  8
LPF120_DRD
 10
8.5865
 20
-1.7667
 30
0.0000
  0
VERTEX
  8
LPF120_DRD
 10
8.5976
 20
-1.7556
 30
0.0000
  0
VERTEX
  8
LPF120_DRD
 10
8.6087
 20
-1.7556
 30
0.0000
  0
VERTEX
  8
LPF120_DRD
 10
8.6198
 20
-1.7667
 30
0.0000
  0
VERTEX
  8
LPF120_DRD
 10
8.6254
 20
-1.7778
 30
0.0000
  0
VERTEX
  8
LPF120_DRD
 10
8.6254
 20
-1.8000
 30
0.0000
  0
VERTEX
  8
LPF120_DRD
 10
8.6198
 20
-1.8111
 30
0.0000
  0
VERTEX
  8
LPF120_DRD
 10
8.6087
 20
-1.8222
 30
0.0000
  0
VERTEX
  8
LPF120_DRD
 10
8.5976
 20
-1.8222
 30
0.0000
  0
SEQEND
  0
POLYLINE
  8
LPF120_DRD
 66
1
 10
0.0000
 20
0.0000
 30
0.0000
 40
0.0080
 41
0.0080
  0
VERTEX
  8
LPF120_DRD
 10
8.5149
 20
-1.8111
 30
0.0000
  0
VERTEX
  8
LPF120_DRD
 10
8.5261
 20
-1.8222
 30
0.0000
  0
SEQEND
  0
POLYLINE
  8
LPF120_DRD
 66
1
 10
0.0000
 20
0.0000
 30
0.0000
 40
0.0080
 41
0.0080
  0
VERTEX
  8
LPF120_DRD
 10
8.5260
 20
-1.8222
 30
0.0000
  0
VERTEX
  8
LPF120_DRD
 10
8.5483
 20
-1.8222
 30
0.0000
  0
VERTEX
  8
LPF120_DRD
 10
8.5594
 20
-1.8111
 30
0.0000
  0
VERTEX
  8
LPF120_DRD
 10
8.5594
 20
-1.8000
 30
0.0000
  0
VERTEX
  8
LPF120_DRD
 10
8.5372
 20
-1.7778
 30
0.0000
  0
VERTEX
  8
LPF120_DRD
 10
8.5594
 20
-1.7556
 30
0.0000
  0
VERTEX
  8
LPF120_DRD
 10
8.5149
 20
-1.7556
 30
0.0000
  0
SEQEND
  0
POLYLINE
  8
LPF120_DRD
 66
1
 10
0.0000
 20
0.0000
 30
0.0000
 40
0.0080
 41
0.0080
  0
VERTEX
  8
LPF120_DRD
 10
8.3913
 20
-1.7889
 30
0.0000
  0
VERTEX
  8
LPF120_DRD
 10
8.3913
 20
-1.7778
 30
0.0000
  0
VERTEX
  8
LPF120_DRD
 10
8.4024
 20
-1.7778
 30
0.0000
  0
VERTEX
  8
LPF120_DRD
 10
8.4024
 20
-1.7889
 30
0.0000
  0
VERTEX
  8
LPF120_DRD
 10
8.3913
 20
-1.7889
 30
0.0000
  0
SEQEND
  0
POLYLINE
  8
LPF120_DRD
 66
1
 10
0.0000
 20
0.0000
 30
0.0000
 40
0.0080
 41
0.0080
  0
VERTEX
  8
LPF120_DRD
 10
8.3913
 20
-1.8222
 30
0.0000
  0
VERTEX
  8
LPF120_DRD
 10
8.3913
 20
-1.8111
 30
0.0000
  0
VERTEX
  8
LPF120_DRD
 10
8.4024
 20
-1.8111
 30
0.0000
  0
VERTEX
  8
LPF120_DRD
 10
8.4024
 20
-1.8222
 30
0.0000
  0
VERTEX
  8
LPF120_DRD
 10
8.3913
 20
-1.8222
 30
0.0000
  0
SEQEND
  0
POLYLINE
  8
LPF120_DRD
 66
1
 10
0.0000
 20
0.0000
 30
0.0000
 40
0.0080
 41
0.0080
  0
VERTEX
  8
LPF120_DRD
 10
8.3586
 20
-1.7778
 30
0.0000
  0
VERTEX
  8
LPF120_DRD
 10
8.3364
 20
-1.8222
 30
0.0000
  0
SEQEND
  0
POLYLINE
  8
LPF120_DRD
 66
1
 10
0.0000
 20
0.0000
 30
0.0000
 40
0.0080
 41
0.0080
  0
VERTEX
  8
LPF120_DRD
 10
8.3253
 20
-1.8444
 30
0.0000
  0
VERTEX
  8
LPF120_DRD
 10
8.3364
 20
-1.8222
 30
0.0000
  0
VERTEX
  8
LPF120_DRD
 10
8.3142
 20
-1.7778
 30
0.0000
  0
SEQEND
  0
POLYLINE
  8
LPF120_DRD
 66
1
 10
0.0000
 20
0.0000
 30
0.0000
 40
0.0080
 41
0.0080
  0
VERTEX
  8
LPF120_DRD
 10
8.2926
 20
-1.8222
 30
0.0000
  0
VERTEX
  8
LPF120_DRD
 10
8.2704
 20
-1.8222
 30
0.0000
  0
SEQEND
  0
POLYLINE
  8
LPF120_DRD
 66
1
 10
0.0000
 20
0.0000
 30
0.0000
 40
0.0080
 41
0.0080
  0
VERTEX
  8
LPF120_DRD
 10
8.2815
 20
-1.8222
 30
0.0000
  0
VERTEX
  8
LPF120_DRD
 10
8.2815
 20
-1.7556
 30
0.0000
  0
VERTEX
  8
LPF120_DRD
 10
8.2704
 20
-1.7556
 30
0.0000
  0
SEQEND
  0
POLYLINE
  8
LPF120_DRD
 66
1
 10
0.0000
 20
0.0000
 30
0.0000
 40
0.0080
 41
0.0080
  0
VERTEX
  8
LPF120_DRD
 10
8.2433
 20
-1.8222
 30
0.0000
  0
VERTEX
  8
LPF120_DRD
 10
8.2433
 20
-1.7889
 30
0.0000
  0
VERTEX
  8
LPF120_DRD
 10
8.2378
 20
-1.7778
 30
0.0000
  0
VERTEX
  8
LPF120_DRD
 10
8.2044
 20
-1.7778
 30
0.0000
  0
VERTEX
  8
LPF120_DRD
 10
8.2044
 20
-1.8222
 30
0.0000
  0
SEQEND
  0
POLYLINE
  8
LPF120_DRD
 66
1
 10
0.0000
 20
0.0000
 30
0.0000
 40
0.0080
 41
0.0080
  0
VERTEX
  8
LPF120_DRD
 10
8.1440
 20
-1.8222
 30
0.0000
  0
VERTEX
  8
LPF120_DRD
 10
8.1384
 20
-1.8111
 30
0.0000
  0
VERTEX
  8
LPF120_DRD
 10
8.1384
 20
-1.7889
 30
0.0000
  0
VERTEX
  8
LPF120_DRD
 10
8.1440
 20
-1.7778
 30
0.0000
  0
VERTEX
  8
LPF120_DRD
 10
8.1773
 20
-1.7778
 30
0.0000
  0
VERTEX
  8
LPF120_DRD
 10
8.1829
 20
-1.7889
 30
0.0000
  0
VERTEX
  8
LPF120_DRD
 10
8.1829
 20
-1.8111
 30
0.0000
  0
VERTEX
  8
LPF120_DRD
 10
8.1773
 20
-1.8222
 30
0.0000
  0
VERTEX
  8
LPF120_DRD
 10
8.1440
 20
-1.8222
 30
0.0000
  0
SEQEND
  0
POLYLINE
  8
LPF120_DRD
 66
1
 10
0.0000
 20
0.0000
 30
0.0000
 40
0.0080
 41
0.0080
  0
VERTEX
  8
LPF120_DRD
 10
8.0259
 20
-1.7778
 30
0.0000
  0
VERTEX
  8
LPF120_DRD
 10
8.0203
 20
-1.7889
 30
0.0000
  0
VERTEX
  8
LPF120_DRD
 10
7.9981
 20
-1.8111
 30
0.0000
  0
VERTEX
  8
LPF120_DRD
 10
7.9925
 20
-1.8222
 30
0.0000
  0
SEQEND
  0
POLYLINE
  8
LPF120_DRD
 66
1
 10
0.0000
 20
0.0000
 30
0.0000
 40
0.0080
 41
0.0080
  0
VERTEX
  8
LPF120_DRD
 10
8.0259
 20
-1.8222
 30
0.0000
  0
VERTEX
  8
LPF120_DRD
 10
8.0203
 20
-1.8111
 30
0.0000
  0
VERTEX
  8
LPF120_DRD
 10
7.9981
 20
-1.7889
 30
0.0000
  0
VERTEX
  8
LPF120_DRD
 10
7.9925
 20
-1.7778
 30
0.0000
  0
SEQEND
  0
POLYLINE
  8
LPF120_DRD
 66
1
 10
0.0000
 20
0.0000
 30
0.0000
 40
0.0080
 41
0.0080
  0
VERTEX
  8
LPF120_DRD
 10
7.9376
 20
-1.7778
 30
0.0000
  0
VERTEX
  8
LPF120_DRD
 10
7.9599
 20
-1.7778
 30
0.0000
  0
VERTEX
  8
LPF120_DRD
 10
7.9654
 20
-1.7889
 30
0.0000
  0
VERTEX
  8
LPF120_DRD
 10
7.9654
 20
-1.8111
 30
0.0000
  0
VERTEX
  8
LPF120_DRD
 10
7.9710
 20
-1.8222
 30
0.0000
  0
VERTEX
  8
LPF120_DRD
 10
7.9321
 20
-1.8222
 30
0.0000
  0
VERTEX
  8
LPF120_DRD
 10
7.9265
 20
-1.8111
 30
0.0000
  0
VERTEX
  8
LPF120_DRD
 10
7.9321
 20
-1.8000
 30
0.0000
  0
VERTEX
  8
LPF120_DRD
 10
7.9654
 20
-1.8000
 30
0.0000
  0
SEQEND
  0
POLYLINE
  8
LPF120_DRD
 66
1
 10
0.0000
 20
0.0000
 30
0.0000
 40
0.0080
 41
0.0080
  0
VERTEX
  8
LPF120_DRD
 10
7.8939
 20
-1.7889
 30
0.0000
  0
VERTEX
  8
LPF120_DRD
 10
7.8605
 20
-1.7889
 30
0.0000
  0
SEQEND
  0
POLYLINE
  8
LPF120_DRD
 66
1
 10
0.0000
 20
0.0000
 30
0.0000
 40
0.0080
 41
0.0080
  0
VERTEX
  8
LPF120_DRD
 10
7.8605
 20
-1.8222
 30
0.0000
  0
VERTEX
  8
LPF120_DRD
 10
7.8605
 20
-1.7556
 30
0.0000
  0
VERTEX
  8
LPF120_DRD
 10
7.9050
 20
-1.7556
 30
0.0000
  0
SEQEND
  0
POLYLINE
  8
LPF120_DRD
 66
1
 10
0.0000
 20
0.0000
 30
0.0000
 40
0.0080
 41
0.0080
  0
VERTEX
  8
LPF120_DRD
 10
9.7057
 20
-1.6961
 30
0.0000
  0
VERTEX
  8
LPF120_DRD
 10
9.7168
 20
-1.7072
 30
0.0000
  0
VERTEX
  8
LPF120_DRD
 10
9.7390
 20
-1.7072
 30
0.0000
  0
VERTEX
  8
LPF120_DRD
 10
9.7501
 20
-1.6961
 30
0.0000
  0
VERTEX
  8
LPF120_DRD
 10
9.7501
 20
-1.6850
 30
0.0000
  0
VERTEX
  8
LPF120_DRD
 10
9.7279
 20
-1.6628
 30
0.0000
  0
VERTEX
  8
LPF120_DRD
 10
9.7501
 20
-1.6406
 30
0.0000
  0
VERTEX
  8
LPF120_DRD
 10
9.7057
 20
-1.6406
 30
0.0000
  0
SEQEND
  0
POLYLINE
  8
LPF120_DRD
 66
1
 10
0.0000
 20
0.0000
 30
0.0000
 40
0.0080
 41
0.0080
  0
VERTEX
  8
LPF120_DRD
 10
9.6397
 20
-1.6961
 30
0.0000
  0
VERTEX
  8
LPF120_DRD
 10
9.6508
 20
-1.7072
 30
0.0000
  0
VERTEX
  8
LPF120_DRD
 10
9.6730
 20
-1.7072
 30
0.0000
  0
VERTEX
  8
LPF120_DRD
 10
9.6841
 20
-1.6961
 30
0.0000
  0
VERTEX
  8
LPF120_DRD
 10
9.6841
 20
-1.6850
 30
0.0000
  0
VERTEX
  8
LPF120_DRD
 10
9.6619
 20
-1.6628
 30
0.0000
  0
VERTEX
  8
LPF120_DRD
 10
9.6841
 20
-1.6406
 30
0.0000
  0
VERTEX
  8
LPF120_DRD
 10
9.6397
 20
-1.6406
 30
0.0000
  0
SEQEND
  0
POLYLINE
  8
LPF120_DRD
 66
1
 10
0.0000
 20
0.0000
 30
0.0000
 40
0.0080
 41
0.0080
  0
VERTEX
  8
LPF120_DRD
 10
9.6126
 20
-1.6739
 30
0.0000
  0
VERTEX
  8
LPF120_DRD
 10
9.5792
 20
-1.6739
 30
0.0000
  0
VERTEX
  8
LPF120_DRD
 10
9.5737
 20
-1.6628
 30
0.0000
  0
VERTEX
  8
LPF120_DRD
 10
9.5737
 20
-1.6517
 30
0.0000
  0
VERTEX
  8
LPF120_DRD
 10
9.5792
 20
-1.6406
 30
0.0000
  0
VERTEX
  8
LPF120_DRD
 10
9.6126
 20
-1.6406
 30
0.0000
  0
VERTEX
  8
LPF120_DRD
 10
9.6181
 20
-1.6517
 30
0.0000
  0
VERTEX
  8
LPF120_DRD
 10
9.6181
 20
-1.6628
 30
0.0000
  0
VERTEX
  8
LPF120_DRD
 10
9.5959
 20
-1.7072
 30
0.0000
  0
SEQEND
  0
POLYLINE
  8
LPF120_DRD
 66
1
 10
0.0000
 20
0.0000
 30
0.0000
 40
0.0080
 41
0.0080
  0
VERTEX
  8
LPF120_DRD
 10
9.5077
 20
-1.6961
 30
0.0000
  0
VERTEX
  8
LPF120_DRD
 10
9.5132
 20
-1.7072
 30
0.0000
  0
VERTEX
  8
LPF120_DRD
 10
9.5466
 20
-1.7072
 30
0.0000
  0
VERTEX
  8
LPF120_DRD
 10
9.5521
 20
-1.6961
 30
0.0000
  0
VERTEX
  8
LPF120_DRD
 10
9.5521
 20
-1.6739
 30
0.0000
  0
VERTEX
  8
LPF120_DRD
 10
9.5410
 20
-1.6628
 30
0.0000
  0
VERTEX
  8
LPF120_DRD
 10
9.5077
 20
-1.6628
 30
0.0000
  0
VERTEX
  8
LPF120_DRD
 10
9.5077
 20
-1.6406
 30
0.0000
  0
VERTEX
  8
LPF120_DRD
 10
9.5521
 20
-1.6406
 30
0.0000
  0
SEQEND
  0
POLYLINE
  8
LPF120_DRD
 66
1
 10
0.0000
 20
0.0000
 30
0.0000
 40
0.0080
 41
0.0080
  0
VERTEX
  8
LPF120_DRD
 10
9.4861
 20
-1.6739
 30
0.0000
  0
VERTEX
  8
LPF120_DRD
 10
9.4417
 20
-1.6739
 30
0.0000
  0
SEQEND
  0
POLYLINE
  8
LPF120_DRD
 66
1
 10
0.0000
 20
0.0000
 30
0.0000
 40
0.0080
 41
0.0080
  0
VERTEX
  8
LPF120_DRD
 10
9.4201
 20
-1.7072
 30
0.0000
  0
VERTEX
  8
LPF120_DRD
 10
9.3979
 20
-1.7072
 30
0.0000
  0
SEQEND
  0
POLYLINE
  8
LPF120_DRD
 66
1
 10
0.0000
 20
0.0000
 30
0.0000
 40
0.0080
 41
0.0080
  0
VERTEX
  8
LPF120_DRD
 10
9.4090
 20
-1.7072
 30
0.0000
  0
VERTEX
  8
LPF120_DRD
 10
9.4090
 20
-1.6406
 30
0.0000
  0
VERTEX
  8
LPF120_DRD
 10
9.3979
 20
-1.6517
 30
0.0000
  0
SEQEND
  0
POLYLINE
  8
LPF120_DRD
 66
1
 10
0.0000
 20
0.0000
 30
0.0000
 40
0.0080
 41
0.0080
  0
VERTEX
  8
LPF120_DRD
 10
9.3597
 20
-1.6739
 30
0.0000
  0
VERTEX
  8
LPF120_DRD
 10
9.3264
 20
-1.6739
 30
0.0000
  0
VERTEX
  8
LPF120_DRD
 10
9.3208
 20
-1.6628
 30
0.0000
  0
VERTEX
  8
LPF120_DRD
 10
9.3208
 20
-1.6517
 30
0.0000
  0
VERTEX
  8
LPF120_DRD
 10
9.3264
 20
-1.6406
 30
0.0000
  0
VERTEX
  8
LPF120_DRD
 10
9.3597
 20
-1.6406
 30
0.0000
  0
VERTEX
  8
LPF120_DRD
 10
9.3653
 20
-1.6517
 30
0.0000
  0
VERTEX
  8
LPF120_DRD
 10
9.3653
 20
-1.6628
 30
0.0000
  0
VERTEX
  8
LPF120_DRD
 10
9.3430
 20
-1.7072
 30
0.0000
  0
SEQEND
  0
POLYLINE
  8
LPF120_DRD
 66
1
 10
0.0000
 20
0.0000
 30
0.0000
 40
0.0080
 41
0.0080
  0
VERTEX
  8
LPF120_DRD
 10
9.2548
 20
-1.6961
 30
0.0000
  0
VERTEX
  8
LPF120_DRD
 10
9.2604
 20
-1.7072
 30
0.0000
  0
VERTEX
  8
LPF120_DRD
 10
9.2937
 20
-1.7072
 30
0.0000
  0
VERTEX
  8
LPF120_DRD
 10
9.2993
 20
-1.6961
 30
0.0000
  0
VERTEX
  8
LPF120_DRD
 10
9.2993
 20
-1.6739
 30
0.0000
  0
VERTEX
  8
LPF120_DRD
 10
9.2881
 20
-1.6628
 30
0.0000
  0
VERTEX
  8
LPF120_DRD
 10
9.2548
 20
-1.6628
 30
0.0000
  0
VERTEX
  8
LPF120_DRD
 10
9.2548
 20
-1.6406
 30
0.0000
  0
VERTEX
  8
LPF120_DRD
 10
9.2993
 20
-1.6406
 30
0.0000
  0
SEQEND
  0
POLYLINE
  8
LPF120_DRD
 66
1
 10
0.0000
 20
0.0000
 30
0.0000
 40
0.0080
 41
0.0080
  0
VERTEX
  8
LPF120_DRD
 10
9.2333
 20
-1.6739
 30
0.0000
  0
VERTEX
  8
LPF120_DRD
 10
9.1888
 20
-1.6739
 30
0.0000
  0
SEQEND
  0
POLYLINE
  8
LPF120_DRD
 66
1
 10
0.0000
 20
0.0000
 30
0.0000
 40
0.0080
 41
0.0080
  0
VERTEX
  8
LPF120_DRD
 10
9.1228
 20
-1.6961
 30
0.0000
  0
VERTEX
  8
LPF120_DRD
 10
9.1284
 20
-1.7072
 30
0.0000
  0
VERTEX
  8
LPF120_DRD
 10
9.1617
 20
-1.7072
 30
0.0000
  0
VERTEX
  8
LPF120_DRD
 10
9.1673
 20
-1.6961
 30
0.0000
  0
VERTEX
  8
LPF120_DRD
 10
9.1673
 20
-1.6739
 30
0.0000
  0
VERTEX
  8
LPF120_DRD
 10
9.1561
 20
-1.6628
 30
0.0000
  0
VERTEX
  8
LPF120_DRD
 10
9.1228
 20
-1.6628
 30
0.0000
  0
VERTEX
  8
LPF120_DRD
 10
9.1228
 20
-1.6406
 30
0.0000
  0
VERTEX
  8
LPF120_DRD
 10
9.1673
 20
-1.6406
 30
0.0000
  0
SEQEND
  0
POLYLINE
  8
LPF120_DRD
 66
1
 10
0.0000
 20
0.0000
 30
0.0000
 40
0.0080
 41
0.0080
  0
VERTEX
  8
LPF120_DRD
 10
9.0735
 20
-1.7072
 30
0.0000
  0
VERTEX
  8
LPF120_DRD
 10
9.0624
 20
-1.6961
 30
0.0000
  0
VERTEX
  8
LPF120_DRD
 10
9.0568
 20
-1.6850
 30
0.0000
  0
VERTEX
  8
LPF120_DRD
 10
9.0568
 20
-1.6628
 30
0.0000
  0
VERTEX
  8
LPF120_DRD
 10
9.0624
 20
-1.6517
 30
0.0000
  0
VERTEX
  8
LPF120_DRD
 10
9.0735
 20
-1.6406
 30
0.0000
  0
VERTEX
  8
LPF120_DRD
 10
9.0846
 20
-1.6406
 30
0.0000
  0
VERTEX
  8
LPF120_DRD
 10
9.0957
 20
-1.6517
 30
0.0000
  0
VERTEX
  8
LPF120_DRD
 10
9.1013
 20
-1.6628
 30
0.0000
  0
VERTEX
  8
LPF120_DRD
 10
9.1013
 20
-1.6850
 30
0.0000
  0
VERTEX
  8
LPF120_DRD
 10
9.0957
 20
-1.6961
 30
0.0000
  0
VERTEX
  8
LPF120_DRD
 10
9.0846
 20
-1.7072
 30
0.0000
  0
VERTEX
  8
LPF120_DRD
 10
9.0735
 20
-1.7072
 30
0.0000
  0
SEQEND
  0
POLYLINE
  8
LPF120_DRD
 66
1
 10
0.0000
 20
0.0000
 30
0.0000
 40
0.0080
 41
0.0080
  0
VERTEX
  8
LPF120_DRD
 10
8.9908
 20
-1.6961
 30
0.0000
  0
VERTEX
  8
LPF120_DRD
 10
9.0019
 20
-1.7072
 30
0.0000
  0
VERTEX
  8
LPF120_DRD
 10
9.0241
 20
-1.7072
 30
0.0000
  0
VERTEX
  8
LPF120_DRD
 10
9.0353
 20
-1.6961
 30
0.0000
  0
VERTEX
  8
LPF120_DRD
 10
9.0353
 20
-1.6850
 30
0.0000
  0
VERTEX
  8
LPF120_DRD
 10
9.0130
 20
-1.6628
 30
0.0000
  0
VERTEX
  8
LPF120_DRD
 10
9.0353
 20
-1.6406
 30
0.0000
  0
VERTEX
  8
LPF120_DRD
 10
8.9908
 20
-1.6406
 30
0.0000
  0
SEQEND
  0
POLYLINE
  8
LPF120_DRD
 66
1
 10
0.0000
 20
0.0000
 30
0.0000
 40
0.0080
 41
0.0080
  0
VERTEX
  8
LPF120_DRD
 10
8.8671
 20
-1.6739
 30
0.0000
  0
VERTEX
  8
LPF120_DRD
 10
8.8672
 20
-1.6628
 30
0.0000
  0
SEQEND
  0
POLYLINE
  8
LPF120_DRD
 66
1
 10
0.0000
 20
0.0000
 30
0.0000
 40
0.0080
 41
0.0080
  0
VERTEX
  8
LPF120_DRD
 10
8.8671
 20
-1.6628
 30
0.0000
  0
VERTEX
  8
LPF120_DRD
 10
8.8783
 20
-1.6628
 30
0.0000
  0
VERTEX
  8
LPF120_DRD
 10
8.8783
 20
-1.6739
 30
0.0000
  0
VERTEX
  8
LPF120_DRD
 10
8.8672
 20
-1.6739
 30
0.0000
  0
SEQEND
  0
POLYLINE
  8
LPF120_DRD
 66
1
 10
0.0000
 20
0.0000
 30
0.0000
 40
0.0080
 41
0.0080
  0
VERTEX
  8
LPF120_DRD
 10
8.8671
 20
-1.7072
 30
0.0000
  0
VERTEX
  8
LPF120_DRD
 10
8.8672
 20
-1.6961
 30
0.0000
  0
SEQEND
  0
POLYLINE
  8
LPF120_DRD
 66
1
 10
0.0000
 20
0.0000
 30
0.0000
 40
0.0080
 41
0.0080
  0
VERTEX
  8
LPF120_DRD
 10
8.8671
 20
-1.6961
 30
0.0000
  0
VERTEX
  8
LPF120_DRD
 10
8.8783
 20
-1.6961
 30
0.0000
  0
VERTEX
  8
LPF120_DRD
 10
8.8783
 20
-1.7072
 30
0.0000
  0
VERTEX
  8
LPF120_DRD
 10
8.8672
 20
-1.7072
 30
0.0000
  0
SEQEND
  0
POLYLINE
  8
LPF120_DRD
 66
1
 10
0.0000
 20
0.0000
 30
0.0000
 40
0.0080
 41
0.0080
  0
VERTEX
  8
LPF120_DRD
 10
8.8345
 20
-1.7072
 30
0.0000
  0
VERTEX
  8
LPF120_DRD
 10
8.8123
 20
-1.7072
 30
0.0000
  0
SEQEND
  0
POLYLINE
  8
LPF120_DRD
 66
1
 10
0.0000
 20
0.0000
 30
0.0000
 40
0.0080
 41
0.0080
  0
VERTEX
  8
LPF120_DRD
 10
8.8234
 20
-1.7072
 30
0.0000
  0
VERTEX
  8
LPF120_DRD
 10
8.8234
 20
-1.6406
 30
0.0000
  0
VERTEX
  8
LPF120_DRD
 10
8.8123
 20
-1.6406
 30
0.0000
  0
SEQEND
  0
POLYLINE
  8
LPF120_DRD
 66
1
 10
0.0000
 20
0.0000
 30
0.0000
 40
0.0080
 41
0.0080
  0
VERTEX
  8
LPF120_DRD
 10
8.7796
 20
-1.7072
 30
0.0000
  0
VERTEX
  8
LPF120_DRD
 10
8.7463
 20
-1.7072
 30
0.0000
  0
VERTEX
  8
LPF120_DRD
 10
8.7407
 20
-1.6961
 30
0.0000
  0
VERTEX
  8
LPF120_DRD
 10
8.7407
 20
-1.6739
 30
0.0000
  0
VERTEX
  8
LPF120_DRD
 10
8.7463
 20
-1.6628
 30
0.0000
  0
VERTEX
  8
LPF120_DRD
 10
8.7796
 20
-1.6628
 30
0.0000
  0
VERTEX
  8
LPF120_DRD
 10
8.7852
 20
-1.6739
 30
0.0000
  0
VERTEX
  8
LPF120_DRD
 10
8.7852
 20
-1.6850
 30
0.0000
  0
VERTEX
  8
LPF120_DRD
 10
8.7407
 20
-1.6850
 30
0.0000
  0
SEQEND
  0
POLYLINE
  8
LPF120_DRD
 66
1
 10
0.0000
 20
0.0000
 30
0.0000
 40
0.0080
 41
0.0080
  0
VERTEX
  8
LPF120_DRD
 10
8.6969
 20
-1.7072
 30
0.0000
  0
VERTEX
  8
LPF120_DRD
 10
8.6969
 20
-1.6406
 30
0.0000
  0
SEQEND
  0
POLYLINE
  8
LPF120_DRD
 66
1
 10
0.0000
 20
0.0000
 30
0.0000
 40
0.0080
 41
0.0080
  0
VERTEX
  8
LPF120_DRD
 10
8.7192
 20
-1.6406
 30
0.0000
  0
VERTEX
  8
LPF120_DRD
 10
8.6747
 20
-1.6406
 30
0.0000
  0
SEQEND
  0
POLYLINE
  8
LPF120_DRD
 66
1
 10
0.0000
 20
0.0000
 30
0.0000
 40
0.0080
 41
0.0080
  0
VERTEX
  8
LPF120_DRD
 10
8.5566
 20
-1.6628
 30
0.0000
  0
VERTEX
  8
LPF120_DRD
 10
8.5233
 20
-1.6628
 30
0.0000
  0
VERTEX
  8
LPF120_DRD
 10
8.5177
 20
-1.6739
 30
0.0000
  0
VERTEX
  8
LPF120_DRD
 10
8.5233
 20
-1.6850
 30
0.0000
  0
VERTEX
  8
LPF120_DRD
 10
8.5566
 20
-1.6850
 30
0.0000
  0
VERTEX
  8
LPF120_DRD
 10
8.5622
 20
-1.6961
 30
0.0000
  0
VERTEX
  8
LPF120_DRD
 10
8.5566
 20
-1.7072
 30
0.0000
  0
VERTEX
  8
LPF120_DRD
 10
8.5233
 20
-1.7072
 30
0.0000
  0
SEQEND
  0
POLYLINE
  8
LPF120_DRD
 66
1
 10
0.0000
 20
0.0000
 30
0.0000
 40
0.0080
 41
0.0080
  0
VERTEX
  8
LPF120_DRD
 10
8.4962
 20
-1.6628
 30
0.0000
  0
VERTEX
  8
LPF120_DRD
 10
8.4740
 20
-1.6628
 30
0.0000
  0
VERTEX
  8
LPF120_DRD
 10
8.4684
 20
-1.6739
 30
0.0000
  0
VERTEX
  8
LPF120_DRD
 10
8.4573
 20
-1.6739
 30
0.0000
  0
SEQEND
  0
POLYLINE
  8
LPF120_DRD
 66
1
 10
0.0000
 20
0.0000
 30
0.0000
 40
0.0080
 41
0.0080
  0
VERTEX
  8
LPF120_DRD
 10
8.4573
 20
-1.6628
 30
0.0000
  0
VERTEX
  8
LPF120_DRD
 10
8.4573
 20
-1.7072
 30
0.0000
  0
SEQEND
  0
POLYLINE
  8
LPF120_DRD
 66
1
 10
0.0000
 20
0.0000
 30
0.0000
 40
0.0080
 41
0.0080
  0
VERTEX
  8
LPF120_DRD
 10
8.4302
 20
-1.6628
 30
0.0000
  0
VERTEX
  8
LPF120_DRD
 10
8.4302
 20
-1.7072
 30
0.0000
  0
SEQEND
  0
POLYLINE
  8
LPF120_DRD
 66
1
 10
0.0000
 20
0.0000
 30
0.0000
 40
0.0080
 41
0.0080
  0
VERTEX
  8
LPF120_DRD
 10
8.4357
 20
-1.7072
 30
0.0000
  0
VERTEX
  8
LPF120_DRD
 10
8.3968
 20
-1.7072
 30
0.0000
  0
VERTEX
  8
LPF120_DRD
 10
8.3913
 20
-1.6961
 30
0.0000
  0
VERTEX
  8
LPF120_DRD
 10
8.3913
 20
-1.6628
 30
0.0000
  0
SEQEND
  0
POLYLINE
  8
LPF120_DRD
 66
1
 10
0.0000
 20
0.0000
 30
0.0000
 40
0.0080
 41
0.0080
  0
VERTEX
  8
LPF120_DRD
 10
8.3308
 20
-1.7072
 30
0.0000
  0
VERTEX
  8
LPF120_DRD
 10
8.3253
 20
-1.6961
 30
0.0000
  0
VERTEX
  8
LPF120_DRD
 10
8.3253
 20
-1.6739
 30
0.0000
  0
VERTEX
  8
LPF120_DRD
 10
8.3308
 20
-1.6628
 30
0.0000
  0
VERTEX
  8
LPF120_DRD
 10
8.3642
 20
-1.6628
 30
0.0000
  0
VERTEX
  8
LPF120_DRD
 10
8.3697
 20
-1.6739
 30
0.0000
  0
VERTEX
  8
LPF120_DRD
 10
8.3697
 20
-1.6961
 30
0.0000
  0
VERTEX
  8
LPF120_DRD
 10
8.3642
 20
-1.7072
 30
0.0000
  0
VERTEX
  8
LPF120_DRD
 10
8.3308
 20
-1.7072
 30
0.0000
  0
SEQEND
  0
POLYLINE
  8
LPF120_DRD
 66
1
 10
0.0000
 20
0.0000
 30
0.0000
 40
0.0080
 41
0.0080
  0
VERTEX
  8
LPF120_DRD
 10
8.3037
 20
-1.6739
 30
0.0000
  0
VERTEX
  8
LPF120_DRD
 10
8.2593
 20
-1.6739
 30
0.0000
  0
SEQEND
  0
POLYLINE
  8
LPF120_DRD
 66
1
 10
0.0000
 20
0.0000
 30
0.0000
 40
0.0080
 41
0.0080
  0
VERTEX
  8
LPF120_DRD
 10
8.3037
 20
-1.7072
 30
0.0000
  0
VERTEX
  8
LPF120_DRD
 10
8.3037
 20
-1.6406
 30
0.0000
  0
SEQEND
  0
POLYLINE
  8
LPF120_DRD
 66
1
 10
0.0000
 20
0.0000
 30
0.0000
 40
0.0080
 41
0.0080
  0
VERTEX
  8
LPF120_DRD
 10
8.2593
 20
-1.7072
 30
0.0000
  0
VERTEX
  8
LPF120_DRD
 10
8.2593
 20
-1.6406
 30
0.0000
  0
SEQEND
  0
POLYLINE
  8
LPF120_DRD
 66
1
 10
0.0000
 20
0.0000
 30
0.0000
 40
0.0080
 41
0.0080
  0
VERTEX
  8
LPF120_DRD
 10
8.1467
 20
-1.6628
 30
0.0000
  0
VERTEX
  8
LPF120_DRD
 10
8.1245
 20
-1.6628
 30
0.0000
  0
VERTEX
  8
LPF120_DRD
 10
8.1190
 20
-1.6739
 30
0.0000
  0
VERTEX
  8
LPF120_DRD
 10
8.1079
 20
-1.6739
 30
0.0000
  0
SEQEND
  0
POLYLINE
  8
LPF120_DRD
 66
1
 10
0.0000
 20
0.0000
 30
0.0000
 40
0.0080
 41
0.0080
  0
VERTEX
  8
LPF120_DRD
 10
8.1079
 20
-1.6628
 30
0.0000
  0
VERTEX
  8
LPF120_DRD
 10
8.1079
 20
-1.7072
 30
0.0000
  0
SEQEND
  0
POLYLINE
  8
LPF120_DRD
 66
1
 10
0.0000
 20
0.0000
 30
0.0000
 40
0.0080
 41
0.0080
  0
VERTEX
  8
LPF120_DRD
 10
8.0807
 20
-1.7072
 30
0.0000
  0
VERTEX
  8
LPF120_DRD
 10
8.0474
 20
-1.7072
 30
0.0000
  0
VERTEX
  8
LPF120_DRD
 10
8.0419
 20
-1.6961
 30
0.0000
  0
VERTEX
  8
LPF120_DRD
 10
8.0419
 20
-1.6739
 30
0.0000
  0
VERTEX
  8
LPF120_DRD
 10
8.0474
 20
-1.6628
 30
0.0000
  0
VERTEX
  8
LPF120_DRD
 10
8.0807
 20
-1.6628
 30
0.0000
  0
VERTEX
  8
LPF120_DRD
 10
8.0863
 20
-1.6739
 30
0.0000
  0
VERTEX
  8
LPF120_DRD
 10
8.0863
 20
-1.6850
 30
0.0000
  0
VERTEX
  8
LPF120_DRD
 10
8.0419
 20
-1.6850
 30
0.0000
  0
SEQEND
  0
POLYLINE
  8
LPF120_DRD
 66
1
 10
0.0000
 20
0.0000
 30
0.0000
 40
0.0080
 41
0.0080
  0
VERTEX
  8
LPF120_DRD
 10
8.0148
 20
-1.6628
 30
0.0000
  0
VERTEX
  8
LPF120_DRD
 10
7.9814
 20
-1.6628
 30
0.0000
  0
SEQEND
  0
POLYLINE
  8
LPF120_DRD
 66
1
 10
0.0000
 20
0.0000
 30
0.0000
 40
0.0080
 41
0.0080
  0
VERTEX
  8
LPF120_DRD
 10
8.0203
 20
-1.7072
 30
0.0000
  0
VERTEX
  8
LPF120_DRD
 10
7.9981
 20
-1.7072
 30
0.0000
  0
VERTEX
  8
LPF120_DRD
 10
7.9925
 20
-1.6961
 30
0.0000
  0
VERTEX
  8
LPF120_DRD
 10
7.9925
 20
-1.6406
 30
0.0000
  0
SEQEND
  0
POLYLINE
  8
LPF120_DRD
 66
1
 10
0.0000
 20
0.0000
 30
0.0000
 40
0.0080
 41
0.0080
  0
VERTEX
  8
LPF120_DRD
 10
7.9599
 20
-1.6739
 30
0.0000
  0
VERTEX
  8
LPF120_DRD
 10
7.9265
 20
-1.6739
 30
0.0000
  0
SEQEND
  0
POLYLINE
  8
LPF120_DRD
 66
1
 10
0.0000
 20
0.0000
 30
0.0000
 40
0.0080
 41
0.0080
  0
VERTEX
  8
LPF120_DRD
 10
7.9432
 20
-1.7072
 30
0.0000
  0
VERTEX
  8
LPF120_DRD
 10
7.9432
 20
-1.6517
 30
0.0000
  0
VERTEX
  8
LPF120_DRD
 10
7.9488
 20
-1.6406
 30
0.0000
  0
VERTEX
  8
LPF120_DRD
 10
7.9599
 20
-1.6406
 30
0.0000
  0
SEQEND
  0
POLYLINE
  8
LPF120_DRD
 66
1
 10
0.0000
 20
0.0000
 30
0.0000
 40
0.0080
 41
0.0080
  0
VERTEX
  8
LPF120_DRD
 10
7.9050
 20
-1.6850
 30
0.0000
  0
VERTEX
  8
LPF120_DRD
 10
7.8605
 20
-1.6850
 30
0.0000
  0
SEQEND
  0
POLYLINE
  8
LPF120_DRD
 66
1
 10
0.0000
 20
0.0000
 30
0.0000
 40
0.0080
 41
0.0080
  0
VERTEX
  8
LPF120_DRD
 10
7.9050
 20
-1.7072
 30
0.0000
  0
VERTEX
  8
LPF120_DRD
 10
7.9050
 20
-1.6739
 30
0.0000
  0
VERTEX
  8
LPF120_DRD
 10
7.8883
 20
-1.6406
 30
0.0000
  0
VERTEX
  8
LPF120_DRD
 10
7.8772
 20
-1.6406
 30
0.0000
  0
VERTEX
  8
LPF120_DRD
 10
7.8605
 20
-1.6739
 30
0.0000
  0
VERTEX
  8
LPF120_DRD
 10
7.8605
 20
-1.7072
 30
0.0000
  0
SEQEND
  0
POLYLINE
  8
LPF120_DRD
 66
1
 10
0.0000
 20
0.0000
 30
0.0000
 40
0.0080
 41
0.0080
  0
VERTEX
  8
LPF120_DRD
 10
8.9415
 20
-1.5589
 30
0.0000
  0
VERTEX
  8
LPF120_DRD
 10
8.9471
 20
-1.5478
 30
0.0000
  0
VERTEX
  8
LPF120_DRD
 10
8.9471
 20
-1.5367
 30
0.0000
  0
VERTEX
  8
LPF120_DRD
 10
8.9415
 20
-1.5256
 30
0.0000
  0
VERTEX
  8
LPF120_DRD
 10
8.9082
 20
-1.5256
 30
0.0000
  0
VERTEX
  8
LPF120_DRD
 10
8.9026
 20
-1.5367
 30
0.0000
  0
VERTEX
  8
LPF120_DRD
 10
8.9026
 20
-1.5478
 30
0.0000
  0
VERTEX
  8
LPF120_DRD
 10
8.9082
 20
-1.5589
 30
0.0000
  0
VERTEX
  8
LPF120_DRD
 10
8.9415
 20
-1.5589
 30
0.0000
  0
VERTEX
  8
LPF120_DRD
 10
8.9471
 20
-1.5700
 30
0.0000
  0
VERTEX
  8
LPF120_DRD
 10
8.9471
 20
-1.5811
 30
0.0000
  0
VERTEX
  8
LPF120_DRD
 10
8.9415
 20
-1.5922
 30
0.0000
  0
VERTEX
  8
LPF120_DRD
 10
8.9082
 20
-1.5922
 30
0.0000
  0
VERTEX
  8
LPF120_DRD
 10
8.9026
 20
-1.5811
 30
0.0000
  0
VERTEX
  8
LPF120_DRD
 10
8.9026
 20
-1.5700
 30
0.0000
  0
VERTEX
  8
LPF120_DRD
 10
8.9082
 20
-1.5589
 30
0.0000
  0
SEQEND
  0
POLYLINE
  8
LPF120_DRD
 66
1
 10
0.0000
 20
0.0000
 30
0.0000
 40
0.0080
 41
0.0080
  0
VERTEX
  8
LPF120_DRD
 10
8.8533
 20
-1.5922
 30
0.0000
  0
VERTEX
  8
LPF120_DRD
 10
8.8422
 20
-1.5811
 30
0.0000
  0
VERTEX
  8
LPF120_DRD
 10
8.8366
 20
-1.5700
 30
0.0000
  0
VERTEX
  8
LPF120_DRD
 10
8.8366
 20
-1.5478
 30
0.0000
  0
VERTEX
  8
LPF120_DRD
 10
8.8422
 20
-1.5367
 30
0.0000
  0
VERTEX
  8
LPF120_DRD
 10
8.8533
 20
-1.5256
 30
0.0000
  0
VERTEX
  8
LPF120_DRD
 10
8.8644
 20
-1.5256
 30
0.0000
  0
VERTEX
  8
LPF120_DRD
 10
8.8755
 20
-1.5367
 30
0.0000
  0
VERTEX
  8
LPF120_DRD
 10
8.8811
 20
-1.5478
 30
0.0000
  0
VERTEX
  8
LPF120_DRD
 10
8.8811
 20
-1.5700
 30
0.0000
  0
VERTEX
  8
LPF120_DRD
 10
8.8755
 20
-1.5811
 30
0.0000
  0
VERTEX
  8
LPF120_DRD
 10
8.8644
 20
-1.5922
 30
0.0000
  0
VERTEX
  8
LPF120_DRD
 10
8.8533
 20
-1.5922
 30
0.0000
  0
SEQEND
  0
POLYLINE
  8
LPF120_DRD
 66
1
 10
0.0000
 20
0.0000
 30
0.0000
 40
0.0080
 41
0.0080
  0
VERTEX
  8
LPF120_DRD
 10
8.8095
 20
-1.5589
 30
0.0000
  0
VERTEX
  8
LPF120_DRD
 10
8.7762
 20
-1.5589
 30
0.0000
  0
VERTEX
  8
LPF120_DRD
 10
8.7706
 20
-1.5478
 30
0.0000
  0
VERTEX
  8
LPF120_DRD
 10
8.7706
 20
-1.5367
 30
0.0000
  0
VERTEX
  8
LPF120_DRD
 10
8.7762
 20
-1.5256
 30
0.0000
  0
VERTEX
  8
LPF120_DRD
 10
8.8095
 20
-1.5256
 30
0.0000
  0
VERTEX
  8
LPF120_DRD
 10
8.8151
 20
-1.5367
 30
0.0000
  0
VERTEX
  8
LPF120_DRD
 10
8.8151
 20
-1.5478
 30
0.0000
  0
VERTEX
  8
LPF120_DRD
 10
8.7928
 20
-1.5922
 30
0.0000
  0
SEQEND
  0
POLYLINE
  8
LPF120_DRD
 66
1
 10
0.0000
 20
0.0000
 30
0.0000
 40
0.0080
 41
0.0080
  0
VERTEX
  8
LPF120_DRD
 10
8.7435
 20
-1.5589
 30
0.0000
  0
VERTEX
  8
LPF120_DRD
 10
8.7102
 20
-1.5589
 30
0.0000
  0
VERTEX
  8
LPF120_DRD
 10
8.7046
 20
-1.5478
 30
0.0000
  0
VERTEX
  8
LPF120_DRD
 10
8.7046
 20
-1.5367
 30
0.0000
  0
VERTEX
  8
LPF120_DRD
 10
8.7102
 20
-1.5256
 30
0.0000
  0
VERTEX
  8
LPF120_DRD
 10
8.7435
 20
-1.5256
 30
0.0000
  0
VERTEX
  8
LPF120_DRD
 10
8.7491
 20
-1.5367
 30
0.0000
  0
VERTEX
  8
LPF120_DRD
 10
8.7491
 20
-1.5478
 30
0.0000
  0
VERTEX
  8
LPF120_DRD
 10
8.7268
 20
-1.5922
 30
0.0000
  0
SEQEND
  0
POLYLINE
  8
LPF120_DRD
 66
1
 10
0.0000
 20
0.0000
 30
0.0000
 40
0.0080
 41
0.0080
  0
VERTEX
  8
LPF120_DRD
 10
8.6831
 20
-1.5589
 30
0.0000
  0
VERTEX
  8
LPF120_DRD
 10
8.6386
 20
-1.5589
 30
0.0000
  0
SEQEND
  0
POLYLINE
  8
LPF120_DRD
 66
1
 10
0.0000
 20
0.0000
 30
0.0000
 40
0.0080
 41
0.0080
  0
VERTEX
  8
LPF120_DRD
 10
8.5726
 20
-1.5811
 30
0.0000
  0
VERTEX
  8
LPF120_DRD
 10
8.5837
 20
-1.5922
 30
0.0000
  0
VERTEX
  8
LPF120_DRD
 10
8.6060
 20
-1.5922
 30
0.0000
  0
VERTEX
  8
LPF120_DRD
 10
8.6171
 20
-1.5811
 30
0.0000
  0
VERTEX
  8
LPF120_DRD
 10
8.6171
 20
-1.5700
 30
0.0000
  0
VERTEX
  8
LPF120_DRD
 10
8.5948
 20
-1.5478
 30
0.0000
  0
VERTEX
  8
LPF120_DRD
 10
8.6171
 20
-1.5256
 30
0.0000
  0
VERTEX
  8
LPF120_DRD
 10
8.5726
 20
-1.5256
 30
0.0000
  0
SEQEND
  0
POLYLINE
  8
LPF120_DRD
 66
1
 10
0.0000
 20
0.0000
 30
0.0000
 40
0.0080
 41
0.0080
  0
VERTEX
  8
LPF120_DRD
 10
8.5511
 20
-1.5922
 30
0.0000
  0
VERTEX
  8
LPF120_DRD
 10
8.5066
 20
-1.5922
 30
0.0000
  0
VERTEX
  8
LPF120_DRD
 10
8.5511
 20
-1.5478
 30
0.0000
  0
VERTEX
  8
LPF120_DRD
 10
8.5511
 20
-1.5367
 30
0.0000
  0
VERTEX
  8
LPF120_DRD
 10
8.5455
 20
-1.5256
 30
0.0000
  0
VERTEX
  8
LPF120_DRD
 10
8.5122
 20
-1.5256
 30
0.0000
  0
VERTEX
  8
LPF120_DRD
 10
8.5066
 20
-1.5367
 30
0.0000
  0
SEQEND
  0
POLYLINE
  8
LPF120_DRD
 66
1
 10
0.0000
 20
0.0000
 30
0.0000
 40
0.0080
 41
0.0080
  0
VERTEX
  8
LPF120_DRD
 10
8.4795
 20
-1.5589
 30
0.0000
  0
VERTEX
  8
LPF120_DRD
 10
8.4851
 20
-1.5478
 30
0.0000
  0
VERTEX
  8
LPF120_DRD
 10
8.4851
 20
-1.5367
 30
0.0000
  0
VERTEX
  8
LPF120_DRD
 10
8.4795
 20
-1.5256
 30
0.0000
  0
VERTEX
  8
LPF120_DRD
 10
8.4462
 20
-1.5256
 30
0.0000
  0
VERTEX
  8
LPF120_DRD
 10
8.4406
 20
-1.5367
 30
0.0000
  0
VERTEX
  8
LPF120_DRD
 10
8.4406
 20
-1.5478
 30
0.0000
  0
VERTEX
  8
LPF120_DRD
 10
8.4462
 20
-1.5589
 30
0.0000
  0
VERTEX
  8
LPF120_DRD
 10
8.4795
 20
-1.5589
 30
0.0000
  0
VERTEX
  8
LPF120_DRD
 10
8.4851
 20
-1.5700
 30
0.0000
  0
VERTEX
  8
LPF120_DRD
 10
8.4851
 20
-1.5811
 30
0.0000
  0
VERTEX
  8
LPF120_DRD
 10
8.4795
 20
-1.5922
 30
0.0000
  0
VERTEX
  8
LPF120_DRD
 10
8.4462
 20
-1.5922
 30
0.0000
  0
VERTEX
  8
LPF120_DRD
 10
8.4406
 20
-1.5811
 30
0.0000
  0
VERTEX
  8
LPF120_DRD
 10
8.4406
 20
-1.5700
 30
0.0000
  0
VERTEX
  8
LPF120_DRD
 10
8.4462
 20
-1.5589
 30
0.0000
  0
SEQEND
  0
POLYLINE
  8
LPF120_DRD
 66
1
 10
0.0000
 20
0.0000
 30
0.0000
 40
0.0080
 41
0.0080
  0
VERTEX
  8
LPF120_DRD
 10
8.4191
 20
-1.5589
 30
0.0000
  0
VERTEX
  8
LPF120_DRD
 10
8.3746
 20
-1.5589
 30
0.0000
  0
SEQEND
  0
POLYLINE
  8
LPF120_DRD
 66
1
 10
0.0000
 20
0.0000
 30
0.0000
 40
0.0080
 41
0.0080
  0
VERTEX
  8
LPF120_DRD
 10
8.3253
 20
-1.5922
 30
0.0000
  0
VERTEX
  8
LPF120_DRD
 10
8.3142
 20
-1.5811
 30
0.0000
  0
VERTEX
  8
LPF120_DRD
 10
8.3086
 20
-1.5700
 30
0.0000
  0
VERTEX
  8
LPF120_DRD
 10
8.3086
 20
-1.5478
 30
0.0000
  0
VERTEX
  8
LPF120_DRD
 10
8.3142
 20
-1.5367
 30
0.0000
  0
VERTEX
  8
LPF120_DRD
 10
8.3253
 20
-1.5256
 30
0.0000
  0
VERTEX
  8
LPF120_DRD
 10
8.3364
 20
-1.5256
 30
0.0000
  0
VERTEX
  8
LPF120_DRD
 10
8.3475
 20
-1.5367
 30
0.0000
  0
VERTEX
  8
LPF120_DRD
 10
8.3531
 20
-1.5478
 30
0.0000
  0
VERTEX
  8
LPF120_DRD
 10
8.3531
 20
-1.5700
 30
0.0000
  0
VERTEX
  8
LPF120_DRD
 10
8.3475
 20
-1.5811
 30
0.0000
  0
VERTEX
  8
LPF120_DRD
 10
8.3364
 20
-1.5922
 30
0.0000
  0
VERTEX
  8
LPF120_DRD
 10
8.3253
 20
-1.5922
 30
0.0000
  0
SEQEND
  0
POLYLINE
  8
LPF120_DRD
 66
1
 10
0.0000
 20
0.0000
 30
0.0000
 40
0.0080
 41
0.0080
  0
VERTEX
  8
LPF120_DRD
 10
8.2537
 20
-1.5922
 30
0.0000
  0
VERTEX
  8
LPF120_DRD
 10
8.2871
 20
-1.5256
 30
0.0000
  0
VERTEX
  8
LPF120_DRD
 10
8.2426
 20
-1.5256
 30
0.0000
  0
SEQEND
  0
POLYLINE
  8
LPF120_DRD
 66
1
 10
0.0000
 20
0.0000
 30
0.0000
 40
0.0080
 41
0.0080
  0
VERTEX
  8
LPF120_DRD
 10
8.1877
 20
-1.5922
 30
0.0000
  0
VERTEX
  8
LPF120_DRD
 10
8.2211
 20
-1.5256
 30
0.0000
  0
VERTEX
  8
LPF120_DRD
 10
8.1766
 20
-1.5256
 30
0.0000
  0
SEQEND
  0
POLYLINE
  8
LPF120_DRD
 66
1
 10
0.0000
 20
0.0000
 30
0.0000
 40
0.0080
 41
0.0080
  0
VERTEX
  8
LPF120_DRD
 10
8.0530
 20
-1.5589
 30
0.0000
  0
VERTEX
  8
LPF120_DRD
 10
8.0530
 20
-1.5478
 30
0.0000
  0
VERTEX
  8
LPF120_DRD
 10
8.0641
 20
-1.5478
 30
0.0000
  0
VERTEX
  8
LPF120_DRD
 10
8.0641
 20
-1.5589
 30
0.0000
  0
VERTEX
  8
LPF120_DRD
 10
8.0530
 20
-1.5589
 30
0.0000
  0
SEQEND
  0
POLYLINE
  8
LPF120_DRD
 66
1
 10
0.0000
 20
0.0000
 30
0.0000
 40
0.0080
 41
0.0080
  0
VERTEX
  8
LPF120_DRD
 10
8.0530
 20
-1.5922
 30
0.0000
  0
VERTEX
  8
LPF120_DRD
 10
8.0530
 20
-1.5811
 30
0.0000
  0
VERTEX
  8
LPF120_DRD
 10
8.0641
 20
-1.5811
 30
0.0000
  0
VERTEX
  8
LPF120_DRD
 10
8.0641
 20
-1.5922
 30
0.0000
  0
VERTEX
  8
LPF120_DRD
 10
8.0530
 20
-1.5922
 30
0.0000
  0
SEQEND
  0
POLYLINE
  8
LPF120_DRD
 66
1
 10
0.0000
 20
0.0000
 30
0.0000
 40
0.0080
 41
0.0080
  0
VERTEX
  8
LPF120_DRD
 10
8.0203
 20
-1.5922
 30
0.0000
  0
VERTEX
  8
LPF120_DRD
 10
7.9981
 20
-1.5922
 30
0.0000
  0
SEQEND
  0
POLYLINE
  8
LPF120_DRD
 66
1
 10
0.0000
 20
0.0000
 30
0.0000
 40
0.0080
 41
0.0080
  0
VERTEX
  8
LPF120_DRD
 10
8.0092
 20
-1.5922
 30
0.0000
  0
VERTEX
  8
LPF120_DRD
 10
8.0092
 20
-1.5256
 30
0.0000
  0
VERTEX
  8
LPF120_DRD
 10
7.9981
 20
-1.5256
 30
0.0000
  0
SEQEND
  0
POLYLINE
  8
LPF120_DRD
 66
1
 10
0.0000
 20
0.0000
 30
0.0000
 40
0.0080
 41
0.0080
  0
VERTEX
  8
LPF120_DRD
 10
7.9654
 20
-1.5922
 30
0.0000
  0
VERTEX
  8
LPF120_DRD
 10
7.9321
 20
-1.5922
 30
0.0000
  0
VERTEX
  8
LPF120_DRD
 10
7.9265
 20
-1.5811
 30
0.0000
  0
VERTEX
  8
LPF120_DRD
 10
7.9265
 20
-1.5589
 30
0.0000
  0
VERTEX
  8
LPF120_DRD
 10
7.9321
 20
-1.5478
 30
0.0000
  0
VERTEX
  8
LPF120_DRD
 10
7.9654
 20
-1.5478
 30
0.0000
  0
VERTEX
  8
LPF120_DRD
 10
7.9710
 20
-1.5589
 30
0.0000
  0
VERTEX
  8
LPF120_DRD
 10
7.9710
 20
-1.5700
 30
0.0000
  0
VERTEX
  8
LPF120_DRD
 10
7.9265
 20
-1.5700
 30
0.0000
  0
SEQEND
  0
POLYLINE
  8
LPF120_DRD
 66
1
 10
0.0000
 20
0.0000
 30
0.0000
 40
0.0080
 41
0.0080
  0
VERTEX
  8
LPF120_DRD
 10
7.8828
 20
-1.5922
 30
0.0000
  0
VERTEX
  8
LPF120_DRD
 10
7.8828
 20
-1.5256
 30
0.0000
  0
SEQEND
  0
POLYLINE
  8
LPF120_DRD
 66
1
 10
0.0000
 20
0.0000
 30
0.0000
 40
0.0080
 41
0.0080
  0
VERTEX
  8
LPF120_DRD
 10
7.9050
 20
-1.5256
 30
0.0000
  0
VERTEX
  8
LPF120_DRD
 10
7.8605
 20
-1.5256
 30
0.0000
  0
SEQEND
  0
POLYLINE
  8
LPF120_DRD
 66
1
 10
0.0000
 20
0.0000
 30
0.0000
 40
0.0080
 41
0.0080
  0
VERTEX
  8
LPF120_DRD
 10
8.7724
 20
-1.4339
 30
0.0000
  0
VERTEX
  8
LPF120_DRD
 10
8.7779
 20
-1.4228
 30
0.0000
  0
VERTEX
  8
LPF120_DRD
 10
8.7779
 20
-1.4117
 30
0.0000
  0
VERTEX
  8
LPF120_DRD
 10
8.7724
 20
-1.4006
 30
0.0000
  0
VERTEX
  8
LPF120_DRD
 10
8.7390
 20
-1.4006
 30
0.0000
  0
VERTEX
  8
LPF120_DRD
 10
8.7335
 20
-1.4117
 30
0.0000
  0
VERTEX
  8
LPF120_DRD
 10
8.7335
 20
-1.4228
 30
0.0000
  0
VERTEX
  8
LPF120_DRD
 10
8.7390
 20
-1.4339
 30
0.0000
  0
VERTEX
  8
LPF120_DRD
 10
8.7724
 20
-1.4339
 30
0.0000
  0
VERTEX
  8
LPF120_DRD
 10
8.7779
 20
-1.4450
 30
0.0000
  0
VERTEX
  8
LPF120_DRD
 10
8.7779
 20
-1.4561
 30
0.0000
  0
VERTEX
  8
LPF120_DRD
 10
8.7724
 20
-1.4672
 30
0.0000
  0
VERTEX
  8
LPF120_DRD
 10
8.7390
 20
-1.4672
 30
0.0000
  0
VERTEX
  8
LPF120_DRD
 10
8.7335
 20
-1.4561
 30
0.0000
  0
VERTEX
  8
LPF120_DRD
 10
8.7335
 20
-1.4450
 30
0.0000
  0
VERTEX
  8
LPF120_DRD
 10
8.7390
 20
-1.4339
 30
0.0000
  0
SEQEND
  0
POLYLINE
  8
LPF120_DRD
 66
1
 10
0.0000
 20
0.0000
 30
0.0000
 40
0.0080
 41
0.0080
  0
VERTEX
  8
LPF120_DRD
 10
8.6786
 20
-1.4672
 30
0.0000
  0
VERTEX
  8
LPF120_DRD
 10
8.7119
 20
-1.4006
 30
0.0000
  0
VERTEX
  8
LPF120_DRD
 10
8.6675
 20
-1.4006
 30
0.0000
  0
SEQEND
  0
POLYLINE
  8
LPF120_DRD
 66
1
 10
0.0000
 20
0.0000
 30
0.0000
 40
0.0080
 41
0.0080
  0
VERTEX
  8
LPF120_DRD
 10
8.6459
 20
-1.4672
 30
0.0000
  0
VERTEX
  8
LPF120_DRD
 10
8.6237
 20
-1.4672
 30
0.0000
  0
SEQEND
  0
POLYLINE
  8
LPF120_DRD
 66
1
 10
0.0000
 20
0.0000
 30
0.0000
 40
0.0080
 41
0.0080
  0
VERTEX
  8
LPF120_DRD
 10
8.6348
 20
-1.4672
 30
0.0000
  0
VERTEX
  8
LPF120_DRD
 10
8.6348
 20
-1.4006
 30
0.0000
  0
VERTEX
  8
LPF120_DRD
 10
8.6237
 20
-1.4117
 30
0.0000
  0
SEQEND
  0
POLYLINE
  8
LPF120_DRD
 66
1
 10
0.0000
 20
0.0000
 30
0.0000
 40
0.0080
 41
0.0080
  0
VERTEX
  8
LPF120_DRD
 10
8.5466
 20
-1.4561
 30
0.0000
  0
VERTEX
  8
LPF120_DRD
 10
8.5577
 20
-1.4672
 30
0.0000
  0
VERTEX
  8
LPF120_DRD
 10
8.5799
 20
-1.4672
 30
0.0000
  0
VERTEX
  8
LPF120_DRD
 10
8.5911
 20
-1.4561
 30
0.0000
  0
VERTEX
  8
LPF120_DRD
 10
8.5911
 20
-1.4450
 30
0.0000
  0
VERTEX
  8
LPF120_DRD
 10
8.5688
 20
-1.4228
 30
0.0000
  0
VERTEX
  8
LPF120_DRD
 10
8.5911
 20
-1.4006
 30
0.0000
  0
VERTEX
  8
LPF120_DRD
 10
8.5466
 20
-1.4006
 30
0.0000
  0
SEQEND
  0
POLYLINE
  8
LPF120_DRD
 66
1
 10
0.0000
 20
0.0000
 30
0.0000
 40
0.0080
 41
0.0080
  0
VERTEX
  8
LPF120_DRD
 10
8.4806
 20
-1.4561
 30
0.0000
  0
VERTEX
  8
LPF120_DRD
 10
8.4917
 20
-1.4672
 30
0.0000
  0
VERTEX
  8
LPF120_DRD
 10
8.5139
 20
-1.4672
 30
0.0000
  0
VERTEX
  8
LPF120_DRD
 10
8.5251
 20
-1.4561
 30
0.0000
  0
VERTEX
  8
LPF120_DRD
 10
8.5251
 20
-1.4450
 30
0.0000
  0
VERTEX
  8
LPF120_DRD
 10
8.5028
 20
-1.4228
 30
0.0000
  0
VERTEX
  8
LPF120_DRD
 10
8.5251
 20
-1.4006
 30
0.0000
  0
VERTEX
  8
LPF120_DRD
 10
8.4806
 20
-1.4006
 30
0.0000
  0
SEQEND
  0
POLYLINE
  8
LPF120_DRD
 66
1
 10
0.0000
 20
0.0000
 30
0.0000
 40
0.0080
 41
0.0080
  0
VERTEX
  8
LPF120_DRD
 10
8.3681
 20
-1.4672
 30
0.0000
  0
VERTEX
  8
LPF120_DRD
 10
8.3292
 20
-1.4672
 30
0.0000
  0
VERTEX
  8
LPF120_DRD
 10
8.3292
 20
-1.4006
 30
0.0000
  0
SEQEND
  0
POLYLINE
  8
LPF120_DRD
 66
1
 10
0.0000
 20
0.0000
 30
0.0000
 40
0.0080
 41
0.0080
  0
VERTEX
  8
LPF120_DRD
 10
8.2965
 20
-1.4339
 30
0.0000
  0
VERTEX
  8
LPF120_DRD
 10
8.2632
 20
-1.4339
 30
0.0000
  0
SEQEND
  0
POLYLINE
  8
LPF120_DRD
 66
1
 10
0.0000
 20
0.0000
 30
0.0000
 40
0.0080
 41
0.0080
  0
VERTEX
  8
LPF120_DRD
 10
8.2632
 20
-1.4672
 30
0.0000
  0
VERTEX
  8
LPF120_DRD
 10
8.2632
 20
-1.4006
 30
0.0000
  0
VERTEX
  8
LPF120_DRD
 10
8.3076
 20
-1.4006
 30
0.0000
  0
SEQEND
  0
POLYLINE
  8
LPF120_DRD
 66
1
 10
0.0000
 20
0.0000
 30
0.0000
 40
0.0080
 41
0.0080
  0
VERTEX
  8
LPF120_DRD
 10
8.1395
 20
-1.4006
 30
0.0000
  0
VERTEX
  8
LPF120_DRD
 10
8.1395
 20
-1.4005
 30
0.0000
  0
VERTEX
  8
LPF120_DRD
 10
8.1396
 20
-1.4005
 30
0.0000
  0
VERTEX
  8
LPF120_DRD
 10
8.1396
 20
-1.4006
 30
0.0000
  0
VERTEX
  8
LPF120_DRD
 10
8.1395
 20
-1.4006
 30
0.0000
  0
SEQEND
  0
POLYLINE
  8
LPF120_DRD
 66
1
 10
0.0000
 20
0.0000
 30
0.0000
 40
0.0080
 41
0.0080
  0
VERTEX
  8
LPF120_DRD
 10
8.1506
 20
-1.4672
 30
0.0000
  0
VERTEX
  8
LPF120_DRD
 10
8.1284
 20
-1.4672
 30
0.0000
  0
SEQEND
  0
POLYLINE
  8
LPF120_DRD
 66
1
 10
0.0000
 20
0.0000
 30
0.0000
 40
0.0080
 41
0.0080
  0
VERTEX
  8
LPF120_DRD
 10
8.1395
 20
-1.4672
 30
0.0000
  0
VERTEX
  8
LPF120_DRD
 10
8.1395
 20
-1.4228
 30
0.0000
  0
VERTEX
  8
LPF120_DRD
 10
8.1284
 20
-1.4228
 30
0.0000
  0
SEQEND
  0
POLYLINE
  8
LPF120_DRD
 66
1
 10
0.0000
 20
0.0000
 30
0.0000
 40
0.0080
 41
0.0080
  0
VERTEX
  8
LPF120_DRD
 10
8.0791
 20
-1.4672
 30
0.0000
  0
VERTEX
  8
LPF120_DRD
 10
8.0791
 20
-1.4339
 30
0.0000
  0
SEQEND
  0
POLYLINE
  8
LPF120_DRD
 66
1
 10
0.0000
 20
0.0000
 30
0.0000
 40
0.0080
 41
0.0080
  0
VERTEX
  8
LPF120_DRD
 10
8.1013
 20
-1.4672
 30
0.0000
  0
VERTEX
  8
LPF120_DRD
 10
8.1013
 20
-1.4339
 30
0.0000
  0
VERTEX
  8
LPF120_DRD
 10
8.0957
 20
-1.4228
 30
0.0000
  0
VERTEX
  8
LPF120_DRD
 10
8.0846
 20
-1.4228
 30
0.0000
  0
VERTEX
  8
LPF120_DRD
 10
8.0791
 20
-1.4339
 30
0.0000
  0
VERTEX
  8
LPF120_DRD
 10
8.0735
 20
-1.4228
 30
0.0000
  0
VERTEX
  8
LPF120_DRD
 10
8.0624
 20
-1.4228
 30
0.0000
  0
VERTEX
  8
LPF120_DRD
 10
8.0569
 20
-1.4339
 30
0.0000
  0
VERTEX
  8
LPF120_DRD
 10
8.0569
 20
-1.4672
 30
0.0000
  0
SEQEND
  0
POLYLINE
  8
LPF120_DRD
 66
1
 10
0.0000
 20
0.0000
 30
0.0000
 40
0.0080
 41
0.0080
  0
VERTEX
  8
LPF120_DRD
 10
8.0020
 20
-1.4228
 30
0.0000
  0
VERTEX
  8
LPF120_DRD
 10
8.0242
 20
-1.4228
 30
0.0000
  0
VERTEX
  8
LPF120_DRD
 10
8.0297
 20
-1.4339
 30
0.0000
  0
VERTEX
  8
LPF120_DRD
 10
8.0297
 20
-1.4561
 30
0.0000
  0
VERTEX
  8
LPF120_DRD
 10
8.0353
 20
-1.4672
 30
0.0000
  0
VERTEX
  8
LPF120_DRD
 10
7.9964
 20
-1.4672
 30
0.0000
  0
VERTEX
  8
LPF120_DRD
 10
7.9909
 20
-1.4561
 30
0.0000
  0
VERTEX
  8
LPF120_DRD
 10
7.9964
 20
-1.4450
 30
0.0000
  0
VERTEX
  8
LPF120_DRD
 10
8.0297
 20
-1.4450
 30
0.0000
  0
SEQEND
  0
POLYLINE
  8
LPF120_DRD
 66
1
 10
0.0000
 20
0.0000
 30
0.0000
 40
0.0080
 41
0.0080
  0
VERTEX
  8
LPF120_DRD
 10
7.9581
 20
-1.4006
 30
0.0000
  0
VERTEX
  8
LPF120_DRD
 10
7.9582
 20
-1.4005
 30
0.0000
  0
SEQEND
  0
POLYLINE
  8
LPF120_DRD
 66
1
 10
0.0000
 20
0.0000
 30
0.0000
 40
0.0080
 41
0.0080
  0
VERTEX
  8
LPF120_DRD
 10
7.9581
 20
-1.4005
 30
0.0000
  0
VERTEX
  8
LPF120_DRD
 10
7.9583
 20
-1.4005
 30
0.0000
  0
VERTEX
  8
LPF120_DRD
 10
7.9583
 20
-1.4006
 30
0.0000
  0
VERTEX
  8
LPF120_DRD
 10
7.9582
 20
-1.4006
 30
0.0000
  0
SEQEND
  0
POLYLINE
  8
LPF120_DRD
 66
1
 10
0.0000
 20
0.0000
 30
0.0000
 40
0.0080
 41
0.0080
  0
VERTEX
  8
LPF120_DRD
 10
7.9693
 20
-1.4672
 30
0.0000
  0
VERTEX
  8
LPF120_DRD
 10
7.9471
 20
-1.4672
 30
0.0000
  0
SEQEND
  0
POLYLINE
  8
LPF120_DRD
 66
1
 10
0.0000
 20
0.0000
 30
0.0000
 40
0.0080
 41
0.0080
  0
VERTEX
  8
LPF120_DRD
 10
7.9582
 20
-1.4672
 30
0.0000
  0
VERTEX
  8
LPF120_DRD
 10
7.9582
 20
-1.4228
 30
0.0000
  0
VERTEX
  8
LPF120_DRD
 10
7.9471
 20
-1.4228
 30
0.0000
  0
SEQEND
  0
POLYLINE
  8
LPF120_DRD
 66
1
 10
0.0000
 20
0.0000
 30
0.0000
 40
0.0080
 41
0.0080
  0
VERTEX
  8
LPF120_DRD
 10
7.9200
 20
-1.4672
 30
0.0000
  0
VERTEX
  8
LPF120_DRD
 10
7.9200
 20
-1.4006
 30
0.0000
  0
VERTEX
  8
LPF120_DRD
 10
7.9089
 20
-1.4117
 30
0.0000
  0
VERTEX
  8
LPF120_DRD
 10
7.8978
 20
-1.4339
 30
0.0000
  0
VERTEX
  8
LPF120_DRD
 10
7.8867
 20
-1.4117
 30
0.0000
  0
SEQEND
  0
POLYLINE
  8
LPF120_DRD
 66
1
 10
0.0000
 20
0.0000
 30
0.0000
 40
0.0080
 41
0.0080
  0
VERTEX
  8
LPF120_DRD
 10
7.8866
 20
-1.4117
 30
0.0000
  0
VERTEX
  8
LPF120_DRD
 10
7.8755
 20
-1.4006
 30
0.0000
  0
VERTEX
  8
LPF120_DRD
 10
7.8755
 20
-1.4672
 30
0.0000
  0
SEQEND
  0
POLYLINE
  8
LPF120_DRD
 66
1
 10
0.0000
 20
0.0000
 30
0.0000
 40
0.0080
 41
0.0080
  0
VERTEX
  8
LPF120_DRD
 10
9.4613
 20
-1.3372
 30
0.0000
  0
VERTEX
  8
LPF120_DRD
 10
9.4946
 20
-1.2706
 30
0.0000
  0
VERTEX
  8
LPF120_DRD
 10
9.4502
 20
-1.2706
 30
0.0000
  0
SEQEND
  0
POLYLINE
  8
LPF120_DRD
 66
1
 10
0.0000
 20
0.0000
 30
0.0000
 40
0.0080
 41
0.0080
  0
VERTEX
  8
LPF120_DRD
 10
9.4286
 20
-1.3372
 30
0.0000
  0
VERTEX
  8
LPF120_DRD
 10
9.3842
 20
-1.3372
 30
0.0000
  0
VERTEX
  8
LPF120_DRD
 10
9.4286
 20
-1.2928
 30
0.0000
  0
VERTEX
  8
LPF120_DRD
 10
9.4286
 20
-1.2817
 30
0.0000
  0
VERTEX
  8
LPF120_DRD
 10
9.4230
 20
-1.2706
 30
0.0000
  0
VERTEX
  8
LPF120_DRD
 10
9.3897
 20
-1.2706
 30
0.0000
  0
VERTEX
  8
LPF120_DRD
 10
9.3842
 20
-1.2817
 30
0.0000
  0
SEQEND
  0
POLYLINE
  8
LPF120_DRD
 66
1
 10
0.0000
 20
0.0000
 30
0.0000
 40
0.0080
 41
0.0080
  0
VERTEX
  8
LPF120_DRD
 10
9.3182
 20
-1.3261
 30
0.0000
  0
VERTEX
  8
LPF120_DRD
 10
9.3237
 20
-1.3372
 30
0.0000
  0
VERTEX
  8
LPF120_DRD
 10
9.3570
 20
-1.3372
 30
0.0000
  0
VERTEX
  8
LPF120_DRD
 10
9.3626
 20
-1.3261
 30
0.0000
  0
VERTEX
  8
LPF120_DRD
 10
9.3626
 20
-1.3039
 30
0.0000
  0
VERTEX
  8
LPF120_DRD
 10
9.3515
 20
-1.2928
 30
0.0000
  0
VERTEX
  8
LPF120_DRD
 10
9.3182
 20
-1.2928
 30
0.0000
  0
VERTEX
  8
LPF120_DRD
 10
9.3182
 20
-1.2706
 30
0.0000
  0
VERTEX
  8
LPF120_DRD
 10
9.3626
 20
-1.2706
 30
0.0000
  0
SEQEND
  0
POLYLINE
  8
LPF120_DRD
 66
1
 10
0.0000
 20
0.0000
 30
0.0000
 40
0.0080
 41
0.0080
  0
VERTEX
  8
LPF120_DRD
 10
9.2966
 20
-1.3150
 30
0.0000
  0
VERTEX
  8
LPF120_DRD
 10
9.2522
 20
-1.3150
 30
0.0000
  0
SEQEND
  0
POLYLINE
  8
LPF120_DRD
 66
1
 10
0.0000
 20
0.0000
 30
0.0000
 40
0.0080
 41
0.0080
  0
VERTEX
  8
LPF120_DRD
 10
9.2966
 20
-1.2928
 30
0.0000
  0
VERTEX
  8
LPF120_DRD
 10
9.2522
 20
-1.2928
 30
0.0000
  0
SEQEND
  0
POLYLINE
  8
LPF120_DRD
 66
1
 10
0.0000
 20
0.0000
 30
0.0000
 40
0.0080
 41
0.0080
  0
VERTEX
  8
LPF120_DRD
 10
9.2855
 20
-1.3372
 30
0.0000
  0
VERTEX
  8
LPF120_DRD
 10
9.2855
 20
-1.2706
 30
0.0000
  0
SEQEND
  0
POLYLINE
  8
LPF120_DRD
 66
1
 10
0.0000
 20
0.0000
 30
0.0000
 40
0.0080
 41
0.0080
  0
VERTEX
  8
LPF120_DRD
 10
9.2633
 20
-1.3372
 30
0.0000
  0
VERTEX
  8
LPF120_DRD
 10
9.2633
 20
-1.2706
 30
0.0000
  0
SEQEND
  0
POLYLINE
  8
LPF120_DRD
 66
1
 10
0.0000
 20
0.0000
 30
0.0000
 40
0.0080
 41
0.0080
  0
VERTEX
  8
LPF120_DRD
 10
9.1341
 20
-1.2928
 30
0.0000
  0
VERTEX
  8
LPF120_DRD
 10
9.1007
 20
-1.2928
 30
0.0000
  0
SEQEND
  0
POLYLINE
  8
LPF120_DRD
 66
1
 10
0.0000
 20
0.0000
 30
0.0000
 40
0.0080
 41
0.0080
  0
VERTEX
  8
LPF120_DRD
 10
9.1396
 20
-1.3372
 30
0.0000
  0
VERTEX
  8
LPF120_DRD
 10
9.1174
 20
-1.3372
 30
0.0000
  0
VERTEX
  8
LPF120_DRD
 10
9.1118
 20
-1.3261
 30
0.0000
  0
VERTEX
  8
LPF120_DRD
 10
9.1118
 20
-1.2706
 30
0.0000
  0
SEQEND
  0
POLYLINE
  8
LPF120_DRD
 66
1
 10
0.0000
 20
0.0000
 30
0.0000
 40
0.0080
 41
0.0080
  0
VERTEX
  8
LPF120_DRD
 10
9.0736
 20
-1.3372
 30
0.0000
  0
VERTEX
  8
LPF120_DRD
 10
9.0403
 20
-1.3372
 30
0.0000
  0
VERTEX
  8
LPF120_DRD
 10
9.0347
 20
-1.3261
 30
0.0000
  0
VERTEX
  8
LPF120_DRD
 10
9.0347
 20
-1.3039
 30
0.0000
  0
VERTEX
  8
LPF120_DRD
 10
9.0403
 20
-1.2928
 30
0.0000
  0
VERTEX
  8
LPF120_DRD
 10
9.0736
 20
-1.2928
 30
0.0000
  0
VERTEX
  8
LPF120_DRD
 10
9.0792
 20
-1.3039
 30
0.0000
  0
VERTEX
  8
LPF120_DRD
 10
9.0792
 20
-1.3150
 30
0.0000
  0
VERTEX
  8
LPF120_DRD
 10
9.0347
 20
-1.3150
 30
0.0000
  0
SEQEND
  0
POLYLINE
  8
LPF120_DRD
 66
1
 10
0.0000
 20
0.0000
 30
0.0000
 40
0.0080
 41
0.0080
  0
VERTEX
  8
LPF120_DRD
 10
9.0076
 20
-1.3372
 30
0.0000
  0
VERTEX
  8
LPF120_DRD
 10
8.9743
 20
-1.3372
 30
0.0000
  0
VERTEX
  8
LPF120_DRD
 10
8.9687
 20
-1.3261
 30
0.0000
  0
VERTEX
  8
LPF120_DRD
 10
8.9687
 20
-1.3039
 30
0.0000
  0
VERTEX
  8
LPF120_DRD
 10
8.9743
 20
-1.2928
 30
0.0000
  0
VERTEX
  8
LPF120_DRD
 10
9.0076
 20
-1.2928
 30
0.0000
  0
VERTEX
  8
LPF120_DRD
 10
9.0132
 20
-1.3039
 30
0.0000
  0
VERTEX
  8
LPF120_DRD
 10
9.0132
 20
-1.3150
 30
0.0000
  0
VERTEX
  8
LPF120_DRD
 10
8.9687
 20
-1.3150
 30
0.0000
  0
SEQEND
  0
POLYLINE
  8
LPF120_DRD
 66
1
 10
0.0000
 20
0.0000
 30
0.0000
 40
0.0080
 41
0.0080
  0
VERTEX
  8
LPF120_DRD
 10
8.9472
 20
-1.2928
 30
0.0000
  0
VERTEX
  8
LPF120_DRD
 10
8.9250
 20
-1.2928
 30
0.0000
  0
VERTEX
  8
LPF120_DRD
 10
8.9194
 20
-1.3039
 30
0.0000
  0
VERTEX
  8
LPF120_DRD
 10
8.9083
 20
-1.3039
 30
0.0000
  0
SEQEND
  0
POLYLINE
  8
LPF120_DRD
 66
1
 10
0.0000
 20
0.0000
 30
0.0000
 40
0.0080
 41
0.0080
  0
VERTEX
  8
LPF120_DRD
 10
8.9083
 20
-1.2928
 30
0.0000
  0
VERTEX
  8
LPF120_DRD
 10
8.9083
 20
-1.3372
 30
0.0000
  0
SEQEND
  0
POLYLINE
  8
LPF120_DRD
 66
1
 10
0.0000
 20
0.0000
 30
0.0000
 40
0.0080
 41
0.0080
  0
VERTEX
  8
LPF120_DRD
 10
8.8812
 20
-1.2928
 30
0.0000
  0
VERTEX
  8
LPF120_DRD
 10
8.8479
 20
-1.2928
 30
0.0000
  0
SEQEND
  0
POLYLINE
  8
LPF120_DRD
 66
1
 10
0.0000
 20
0.0000
 30
0.0000
 40
0.0080
 41
0.0080
  0
VERTEX
  8
LPF120_DRD
 10
8.8867
 20
-1.3372
 30
0.0000
  0
VERTEX
  8
LPF120_DRD
 10
8.8645
 20
-1.3372
 30
0.0000
  0
VERTEX
  8
LPF120_DRD
 10
8.8590
 20
-1.3261
 30
0.0000
  0
VERTEX
  8
LPF120_DRD
 10
8.8590
 20
-1.2706
 30
0.0000
  0
SEQEND
  0
POLYLINE
  8
LPF120_DRD
 66
1
 10
0.0000
 20
0.0000
 30
0.0000
 40
0.0080
 41
0.0080
  0
VERTEX
  8
LPF120_DRD
 10
8.8263
 20
-1.2817
 30
0.0000
  0
VERTEX
  8
LPF120_DRD
 10
8.8207
 20
-1.2706
 30
0.0000
  0
VERTEX
  8
LPF120_DRD
 10
8.7874
 20
-1.2706
 30
0.0000
  0
VERTEX
  8
LPF120_DRD
 10
8.7819
 20
-1.2817
 30
0.0000
  0
VERTEX
  8
LPF120_DRD
 10
8.7819
 20
-1.2928
 30
0.0000
  0
VERTEX
  8
LPF120_DRD
 10
8.7874
 20
-1.3039
 30
0.0000
  0
VERTEX
  8
LPF120_DRD
 10
8.8207
 20
-1.3039
 30
0.0000
  0
VERTEX
  8
LPF120_DRD
 10
8.8263
 20
-1.3150
 30
0.0000
  0
VERTEX
  8
LPF120_DRD
 10
8.8263
 20
-1.3261
 30
0.0000
  0
VERTEX
  8
LPF120_DRD
 10
8.8207
 20
-1.3372
 30
0.0000
  0
VERTEX
  8
LPF120_DRD
 10
8.7874
 20
-1.3372
 30
0.0000
  0
VERTEX
  8
LPF120_DRD
 10
8.7819
 20
-1.3261
 30
0.0000
  0
SEQEND
  0
POLYLINE
  8
LPF120_DRD
 66
1
 10
0.0000
 20
0.0000
 30
0.0000
 40
0.0080
 41
0.0080
  0
VERTEX
  8
LPF120_DRD
 10
8.6638
 20
-1.2928
 30
0.0000
  0
VERTEX
  8
LPF120_DRD
 10
8.6304
 20
-1.2928
 30
0.0000
  0
SEQEND
  0
POLYLINE
  8
LPF120_DRD
 66
1
 10
0.0000
 20
0.0000
 30
0.0000
 40
0.0080
 41
0.0080
  0
VERTEX
  8
LPF120_DRD
 10
8.6693
 20
-1.3372
 30
0.0000
  0
VERTEX
  8
LPF120_DRD
 10
8.6471
 20
-1.3372
 30
0.0000
  0
VERTEX
  8
LPF120_DRD
 10
8.6415
 20
-1.3261
 30
0.0000
  0
VERTEX
  8
LPF120_DRD
 10
8.6415
 20
-1.2706
 30
0.0000
  0
SEQEND
  0
POLYLINE
  8
LPF120_DRD
 66
1
 10
0.0000
 20
0.0000
 30
0.0000
 40
0.0080
 41
0.0080
  0
VERTEX
  8
LPF120_DRD
 10
8.6033
 20
-1.2928
 30
0.0000
  0
VERTEX
  8
LPF120_DRD
 10
8.5700
 20
-1.2928
 30
0.0000
  0
VERTEX
  8
LPF120_DRD
 10
8.5644
 20
-1.3039
 30
0.0000
  0
VERTEX
  8
LPF120_DRD
 10
8.5700
 20
-1.3150
 30
0.0000
  0
VERTEX
  8
LPF120_DRD
 10
8.6033
 20
-1.3150
 30
0.0000
  0
VERTEX
  8
LPF120_DRD
 10
8.6089
 20
-1.3261
 30
0.0000
  0
VERTEX
  8
LPF120_DRD
 10
8.6033
 20
-1.3372
 30
0.0000
  0
VERTEX
  8
LPF120_DRD
 10
8.5700
 20
-1.3372
 30
0.0000
  0
SEQEND
  0
POLYLINE
  8
LPF120_DRD
 66
1
 10
0.0000
 20
0.0000
 30
0.0000
 40
0.0080
 41
0.0080
  0
VERTEX
  8
LPF120_DRD
 10
8.5429
 20
-1.3372
 30
0.0000
  0
VERTEX
  8
LPF120_DRD
 10
8.5207
 20
-1.3372
 30
0.0000
  0
SEQEND
  0
POLYLINE
  8
LPF120_DRD
 66
1
 10
0.0000
 20
0.0000
 30
0.0000
 40
0.0080
 41
0.0080
  0
VERTEX
  8
LPF120_DRD
 10
8.5318
 20
-1.3372
 30
0.0000
  0
VERTEX
  8
LPF120_DRD
 10
8.5318
 20
-1.2706
 30
0.0000
  0
VERTEX
  8
LPF120_DRD
 10
8.5207
 20
-1.2817
 30
0.0000
  0
SEQEND
  0
POLYLINE
  8
LPF120_DRD
 66
1
 10
0.0000
 20
0.0000
 30
0.0000
 40
0.0080
 41
0.0080
  0
VERTEX
  8
LPF120_DRD
 10
8.4880
 20
-1.3150
 30
0.0000
  0
VERTEX
  8
LPF120_DRD
 10
8.4435
 20
-1.3150
 30
0.0000
  0
VERTEX
  8
LPF120_DRD
 10
8.4658
 20
-1.2706
 30
0.0000
  0
VERTEX
  8
LPF120_DRD
 10
8.4769
 20
-1.2706
 30
0.0000
  0
VERTEX
  8
LPF120_DRD
 10
8.4769
 20
-1.3372
 30
0.0000
  0
SEQEND
  0
POLYLINE
  8
LPF120_DRD
 66
1
 10
0.0000
 20
0.0000
 30
0.0000
 40
0.0080
 41
0.0080
  0
VERTEX
  8
LPF120_DRD
 10
8.3310
 20
-1.2706
 30
0.0000
  0
VERTEX
  8
LPF120_DRD
 10
8.3310
 20
-1.3261
 30
0.0000
  0
VERTEX
  8
LPF120_DRD
 10
8.3254
 20
-1.3372
 30
0.0000
  0
VERTEX
  8
LPF120_DRD
 10
8.3088
 20
-1.3039
 30
0.0000
  0
SEQEND
  0
POLYLINE
  8
LPF120_DRD
 66
1
 10
0.0000
 20
0.0000
 30
0.0000
 40
0.0080
 41
0.0080
  0
VERTEX
  8
LPF120_DRD
 10
8.3088
 20
-1.2928
 30
0.0000
  0
VERTEX
  8
LPF120_DRD
 10
8.3088
 20
-1.3039
 30
0.0000
  0
VERTEX
  8
LPF120_DRD
 10
8.2921
 20
-1.3372
 30
0.0000
  0
VERTEX
  8
LPF120_DRD
 10
8.2865
 20
-1.3261
 30
0.0000
  0
VERTEX
  8
LPF120_DRD
 10
8.2865
 20
-1.2706
 30
0.0000
  0
SEQEND
  0
POLYLINE
  8
LPF120_DRD
 66
1
 10
0.0000
 20
0.0000
 30
0.0000
 40
0.0080
 41
0.0080
  0
VERTEX
  8
LPF120_DRD
 10
8.2650
 20
-1.2706
 30
0.0000
  0
VERTEX
  8
LPF120_DRD
 10
8.2650
 20
-1.3372
 30
0.0000
  0
VERTEX
  8
LPF120_DRD
 10
8.2539
 20
-1.3261
 30
0.0000
  0
VERTEX
  8
LPF120_DRD
 10
8.2317
 20
-1.2817
 30
0.0000
  0
SEQEND
  0
POLYLINE
  8
LPF120_DRD
 66
1
 10
0.0000
 20
0.0000
 30
0.0000
 40
0.0080
 41
0.0080
  0
VERTEX
  8
LPF120_DRD
 10
8.2316
 20
-1.2817
 30
0.0000
  0
VERTEX
  8
LPF120_DRD
 10
8.2205
 20
-1.2706
 30
0.0000
  0
VERTEX
  8
LPF120_DRD
 10
8.2205
 20
-1.3372
 30
0.0000
  0
SEQEND
  0
POLYLINE
  8
LPF120_DRD
 66
1
 10
0.0000
 20
0.0000
 30
0.0000
 40
0.0080
 41
0.0080
  0
VERTEX
  8
LPF120_DRD
 10
8.0746
 20
-1.3372
 30
0.0000
  0
VERTEX
  8
LPF120_DRD
 10
8.1080
 20
-1.2706
 30
0.0000
  0
VERTEX
  8
LPF120_DRD
 10
8.0635
 20
-1.2706
 30
0.0000
  0
SEQEND
  0
POLYLINE
  8
LPF120_DRD
 66
1
 10
0.0000
 20
0.0000
 30
0.0000
 40
0.0080
 41
0.0080
  0
VERTEX
  8
LPF120_DRD
 10
7.9975
 20
-1.3261
 30
0.0000
  0
VERTEX
  8
LPF120_DRD
 10
8.0087
 20
-1.3372
 30
0.0000
  0
SEQEND
  0
POLYLINE
  8
LPF120_DRD
 66
1
 10
0.0000
 20
0.0000
 30
0.0000
 40
0.0080
 41
0.0080
  0
VERTEX
  8
LPF120_DRD
 10
8.0086
 20
-1.3372
 30
0.0000
  0
VERTEX
  8
LPF120_DRD
 10
8.0309
 20
-1.3372
 30
0.0000
  0
VERTEX
  8
LPF120_DRD
 10
8.0420
 20
-1.3261
 30
0.0000
  0
VERTEX
  8
LPF120_DRD
 10
8.0420
 20
-1.3150
 30
0.0000
  0
VERTEX
  8
LPF120_DRD
 10
8.0198
 20
-1.2928
 30
0.0000
  0
VERTEX
  8
LPF120_DRD
 10
8.0420
 20
-1.2706
 30
0.0000
  0
VERTEX
  8
LPF120_DRD
 10
7.9975
 20
-1.2706
 30
0.0000
  0
SEQEND
  0
POLYLINE
  8
LPF120_DRD
 66
1
 10
0.0000
 20
0.0000
 30
0.0000
 40
0.0080
 41
0.0080
  0
VERTEX
  8
LPF120_DRD
 10
7.9426
 20
-1.3372
 30
0.0000
  0
VERTEX
  8
LPF120_DRD
 10
7.9760
 20
-1.2706
 30
0.0000
  0
VERTEX
  8
LPF120_DRD
 10
7.9315
 20
-1.2706
 30
0.0000
  0
SEQEND
  0
POLYLINE
  8
LPF120_DRD
 66
1
 10
0.0000
 20
0.0000
 30
0.0000
 40
0.0080
 41
0.0080
  0
VERTEX
  8
LPF120_DRD
 10
7.9044
 20
-1.3039
 30
0.0000
  0
VERTEX
  8
LPF120_DRD
 10
7.8711
 20
-1.3039
 30
0.0000
  0
VERTEX
  8
LPF120_DRD
 10
7.8655
 20
-1.2928
 30
0.0000
  0
VERTEX
  8
LPF120_DRD
 10
7.8655
 20
-1.2817
 30
0.0000
  0
VERTEX
  8
LPF120_DRD
 10
7.8711
 20
-1.2706
 30
0.0000
  0
VERTEX
  8
LPF120_DRD
 10
7.9044
 20
-1.2706
 30
0.0000
  0
VERTEX
  8
LPF120_DRD
 10
7.9100
 20
-1.2817
 30
0.0000
  0
VERTEX
  8
LPF120_DRD
 10
7.9100
 20
-1.2928
 30
0.0000
  0
VERTEX
  8
LPF120_DRD
 10
7.8878
 20
-1.3372
 30
0.0000
  0
SEQEND
  0
POLYLINE
  8
LPF120_DRD
 66
1
 10
0.0000
 20
0.0000
 30
0.0000
 40
0.0080
 41
0.0080
  0
VERTEX
  8
LPF120_DRD
 10
9.2742
 20
-1.1678
 30
0.0000
  0
VERTEX
  8
LPF120_DRD
 10
9.2409
 20
-1.1678
 30
0.0000
  0
VERTEX
  8
LPF120_DRD
 10
9.2353
 20
-1.1789
 30
0.0000
  0
VERTEX
  8
LPF120_DRD
 10
9.2353
 20
-1.2011
 30
0.0000
  0
VERTEX
  8
LPF120_DRD
 10
9.2409
 20
-1.2122
 30
0.0000
  0
VERTEX
  8
LPF120_DRD
 10
9.2742
 20
-1.2122
 30
0.0000
  0
SEQEND
  0
POLYLINE
  8
LPF120_DRD
 66
1
 10
0.0000
 20
0.0000
 30
0.0000
 40
0.0080
 41
0.0080
  0
VERTEX
  8
LPF120_DRD
 10
9.2138
 20
-1.2122
 30
0.0000
  0
VERTEX
  8
LPF120_DRD
 10
9.2138
 20
-1.1789
 30
0.0000
  0
VERTEX
  8
LPF120_DRD
 10
9.2082
 20
-1.1678
 30
0.0000
  0
VERTEX
  8
LPF120_DRD
 10
9.1749
 20
-1.1678
 30
0.0000
  0
VERTEX
  8
LPF120_DRD
 10
9.1749
 20
-1.2122
 30
0.0000
  0
SEQEND
  0
POLYLINE
  8
LPF120_DRD
 66
1
 10
0.0000
 20
0.0000
 30
0.0000
 40
0.0080
 41
0.0080
  0
VERTEX
  8
LPF120_DRD
 10
9.1533
 20
-1.2122
 30
0.0000
  0
VERTEX
  8
LPF120_DRD
 10
9.1311
 20
-1.2122
 30
0.0000
  0
SEQEND
  0
POLYLINE
  8
LPF120_DRD
 66
1
 10
0.0000
 20
0.0000
 30
0.0000
 40
0.0080
 41
0.0080
  0
VERTEX
  8
LPF120_DRD
 10
9.1422
 20
-1.2122
 30
0.0000
  0
VERTEX
  8
LPF120_DRD
 10
9.1422
 20
-1.1456
 30
0.0000
  0
SEQEND
  0
POLYLINE
  8
LPF120_DRD
 66
1
 10
0.0000
 20
0.0000
 30
0.0000
 40
0.0080
 41
0.0080
  0
VERTEX
  8
LPF120_DRD
 10
9.1533
 20
-1.1456
 30
0.0000
  0
VERTEX
  8
LPF120_DRD
 10
9.1311
 20
-1.1456
 30
0.0000
  0
SEQEND
  0
POLYLINE
  8
LPF120_DRD
 66
1
 10
0.0000
 20
0.0000
 30
0.0000
 40
0.0080
 41
0.0080
  0
VERTEX
  8
LPF120_DRD
 10
9.0019
 20
-1.1678
 30
0.0000
  0
VERTEX
  8
LPF120_DRD
 10
8.9686
 20
-1.1678
 30
0.0000
  0
VERTEX
  8
LPF120_DRD
 10
8.9630
 20
-1.1789
 30
0.0000
  0
VERTEX
  8
LPF120_DRD
 10
8.9686
 20
-1.1900
 30
0.0000
  0
VERTEX
  8
LPF120_DRD
 10
9.0019
 20
-1.1900
 30
0.0000
  0
VERTEX
  8
LPF120_DRD
 10
9.0075
 20
-1.2011
 30
0.0000
  0
VERTEX
  8
LPF120_DRD
 10
9.0019
 20
-1.2122
 30
0.0000
  0
VERTEX
  8
LPF120_DRD
 10
8.9686
 20
-1.2122
 30
0.0000
  0
SEQEND
  0
POLYLINE
  8
LPF120_DRD
 66
1
 10
0.0000
 20
0.0000
 30
0.0000
 40
0.0080
 41
0.0080
  0
VERTEX
  8
LPF120_DRD
 10
8.9359
 20
-1.1678
 30
0.0000
  0
VERTEX
  8
LPF120_DRD
 10
8.9026
 20
-1.1678
 30
0.0000
  0
SEQEND
  0
POLYLINE
  8
LPF120_DRD
 66
1
 10
0.0000
 20
0.0000
 30
0.0000
 40
0.0080
 41
0.0080
  0
VERTEX
  8
LPF120_DRD
 10
8.9415
 20
-1.2122
 30
0.0000
  0
VERTEX
  8
LPF120_DRD
 10
8.9192
 20
-1.2122
 30
0.0000
  0
VERTEX
  8
LPF120_DRD
 10
8.9137
 20
-1.2011
 30
0.0000
  0
VERTEX
  8
LPF120_DRD
 10
8.9137
 20
-1.1456
 30
0.0000
  0
SEQEND
  0
POLYLINE
  8
LPF120_DRD
 66
1
 10
0.0000
 20
0.0000
 30
0.0000
 40
0.0080
 41
0.0080
  0
VERTEX
  8
LPF120_DRD
 10
8.8421
 20
-1.2344
 30
0.0000
  0
VERTEX
  8
LPF120_DRD
 10
8.8421
 20
-1.1678
 30
0.0000
  0
VERTEX
  8
LPF120_DRD
 10
8.8755
 20
-1.1678
 30
0.0000
  0
VERTEX
  8
LPF120_DRD
 10
8.8810
 20
-1.1789
 30
0.0000
  0
VERTEX
  8
LPF120_DRD
 10
8.8810
 20
-1.2011
 30
0.0000
  0
VERTEX
  8
LPF120_DRD
 10
8.8755
 20
-1.2122
 30
0.0000
  0
VERTEX
  8
LPF120_DRD
 10
8.8421
 20
-1.2122
 30
0.0000
  0
SEQEND
  0
POLYLINE
  8
LPF120_DRD
 66
1
 10
0.0000
 20
0.0000
 30
0.0000
 40
0.0080
 41
0.0080
  0
VERTEX
  8
LPF120_DRD
 10
8.8150
 20
-1.2122
 30
0.0000
  0
VERTEX
  8
LPF120_DRD
 10
8.7817
 20
-1.2122
 30
0.0000
  0
VERTEX
  8
LPF120_DRD
 10
8.7761
 20
-1.2011
 30
0.0000
  0
VERTEX
  8
LPF120_DRD
 10
8.7761
 20
-1.1789
 30
0.0000
  0
VERTEX
  8
LPF120_DRD
 10
8.7817
 20
-1.1678
 30
0.0000
  0
VERTEX
  8
LPF120_DRD
 10
8.8150
 20
-1.1678
 30
0.0000
  0
VERTEX
  8
LPF120_DRD
 10
8.8206
 20
-1.1789
 30
0.0000
  0
VERTEX
  8
LPF120_DRD
 10
8.8206
 20
-1.1900
 30
0.0000
  0
VERTEX
  8
LPF120_DRD
 10
8.7761
 20
-1.1900
 30
0.0000
  0
SEQEND
  0
POLYLINE
  8
LPF120_DRD
 66
1
 10
0.0000
 20
0.0000
 30
0.0000
 40
0.0080
 41
0.0080
  0
VERTEX
  8
LPF120_DRD
 10
8.7546
 20
-1.1678
 30
0.0000
  0
VERTEX
  8
LPF120_DRD
 10
8.7213
 20
-1.1678
 30
0.0000
  0
VERTEX
  8
LPF120_DRD
 10
8.7157
 20
-1.1789
 30
0.0000
  0
VERTEX
  8
LPF120_DRD
 10
8.7157
 20
-1.2011
 30
0.0000
  0
VERTEX
  8
LPF120_DRD
 10
8.7213
 20
-1.2122
 30
0.0000
  0
VERTEX
  8
LPF120_DRD
 10
8.7546
 20
-1.2122
 30
0.0000
  0
SEQEND
  0
POLYLINE
  8
LPF120_DRD
 66
1
 10
0.0000
 20
0.0000
 30
0.0000
 40
0.0080
 41
0.0080
  0
VERTEX
  8
LPF120_DRD
 10
8.6942
 20
-1.2122
 30
0.0000
  0
VERTEX
  8
LPF120_DRD
 10
8.6942
 20
-1.1789
 30
0.0000
  0
VERTEX
  8
LPF120_DRD
 10
8.6886
 20
-1.1678
 30
0.0000
  0
VERTEX
  8
LPF120_DRD
 10
8.6553
 20
-1.1678
 30
0.0000
  0
VERTEX
  8
LPF120_DRD
 10
8.6553
 20
-1.2122
 30
0.0000
  0
SEQEND
  0
POLYLINE
  8
LPF120_DRD
 66
1
 10
0.0000
 20
0.0000
 30
0.0000
 40
0.0080
 41
0.0080
  0
VERTEX
  8
LPF120_DRD
 10
8.5948
 20
-1.2122
 30
0.0000
  0
VERTEX
  8
LPF120_DRD
 10
8.5893
 20
-1.2011
 30
0.0000
  0
VERTEX
  8
LPF120_DRD
 10
8.5893
 20
-1.1789
 30
0.0000
  0
VERTEX
  8
LPF120_DRD
 10
8.5948
 20
-1.1678
 30
0.0000
  0
VERTEX
  8
LPF120_DRD
 10
8.6282
 20
-1.1678
 30
0.0000
  0
VERTEX
  8
LPF120_DRD
 10
8.6337
 20
-1.1789
 30
0.0000
  0
VERTEX
  8
LPF120_DRD
 10
8.6337
 20
-1.2011
 30
0.0000
  0
VERTEX
  8
LPF120_DRD
 10
8.6282
 20
-1.2122
 30
0.0000
  0
VERTEX
  8
LPF120_DRD
 10
8.5948
 20
-1.2122
 30
0.0000
  0
SEQEND
  0
POLYLINE
  8
LPF120_DRD
 66
1
 10
0.0000
 20
0.0000
 30
0.0000
 40
0.0080
 41
0.0080
  0
VERTEX
  8
LPF120_DRD
 10
8.5677
 20
-1.2011
 30
0.0000
  0
VERTEX
  8
LPF120_DRD
 10
8.5622
 20
-1.2122
 30
0.0000
  0
VERTEX
  8
LPF120_DRD
 10
8.5288
 20
-1.2122
 30
0.0000
  0
VERTEX
  8
LPF120_DRD
 10
8.5233
 20
-1.2011
 30
0.0000
  0
VERTEX
  8
LPF120_DRD
 10
8.5233
 20
-1.1567
 30
0.0000
  0
VERTEX
  8
LPF120_DRD
 10
8.5288
 20
-1.1456
 30
0.0000
  0
VERTEX
  8
LPF120_DRD
 10
8.5622
 20
-1.1456
 30
0.0000
  0
VERTEX
  8
LPF120_DRD
 10
8.5677
 20
-1.1567
 30
0.0000
  0
SEQEND
  0
POLYLINE
  8
LPF120_DRD
 66
1
 10
0.0000
 20
0.0000
 30
0.0000
 40
0.0080
 41
0.0080
  0
VERTEX
  8
LPF120_DRD
 10
8.4052
 20
-1.1678
 30
0.0000
  0
VERTEX
  8
LPF120_DRD
 10
8.3718
 20
-1.1678
 30
0.0000
  0
SEQEND
  0
POLYLINE
  8
LPF120_DRD
 66
1
 10
0.0000
 20
0.0000
 30
0.0000
 40
0.0080
 41
0.0080
  0
VERTEX
  8
LPF120_DRD
 10
8.4107
 20
-1.2122
 30
0.0000
  0
VERTEX
  8
LPF120_DRD
 10
8.3885
 20
-1.2122
 30
0.0000
  0
VERTEX
  8
LPF120_DRD
 10
8.3830
 20
-1.2011
 30
0.0000
  0
SEQEND
  0
POLYLINE
  8
LPF120_DRD
 66
1
 10
0.0000
 20
0.0000
 30
0.0000
 40
0.0080
 41
0.0080
  0
VERTEX
  8
LPF120_DRD
 10
8.3829
 20
-1.2011
 30
0.0000
  0
VERTEX
  8
LPF120_DRD
 10
8.3830
 20
-1.1456
 30
0.0000
  0
SEQEND
  0
POLYLINE
  8
LPF120_DRD
 66
1
 10
0.0000
 20
0.0000
 30
0.0000
 40
0.0080
 41
0.0080
  0
VERTEX
  8
LPF120_DRD
 10
8.3447
 20
-1.1678
 30
0.0000
  0
VERTEX
  8
LPF120_DRD
 10
8.3114
 20
-1.1678
 30
0.0000
  0
VERTEX
  8
LPF120_DRD
 10
8.3058
 20
-1.1789
 30
0.0000
  0
VERTEX
  8
LPF120_DRD
 10
8.3114
 20
-1.1900
 30
0.0000
  0
VERTEX
  8
LPF120_DRD
 10
8.3447
 20
-1.1900
 30
0.0000
  0
VERTEX
  8
LPF120_DRD
 10
8.3503
 20
-1.2011
 30
0.0000
  0
VERTEX
  8
LPF120_DRD
 10
8.3447
 20
-1.2122
 30
0.0000
  0
VERTEX
  8
LPF120_DRD
 10
8.3114
 20
-1.2122
 30
0.0000
  0
SEQEND
  0
POLYLINE
  8
LPF120_DRD
 66
1
 10
0.0000
 20
0.0000
 30
0.0000
 40
0.0080
 41
0.0080
  0
VERTEX
  8
LPF120_DRD
 10
8.2509
 20
-1.1678
 30
0.0000
  0
VERTEX
  8
LPF120_DRD
 10
8.2732
 20
-1.1678
 30
0.0000
  0
VERTEX
  8
LPF120_DRD
 10
8.2787
 20
-1.1789
 30
0.0000
  0
VERTEX
  8
LPF120_DRD
 10
8.2787
 20
-1.2011
 30
0.0000
  0
VERTEX
  8
LPF120_DRD
 10
8.2843
 20
-1.2122
 30
0.0000
  0
VERTEX
  8
LPF120_DRD
 10
8.2454
 20
-1.2122
 30
0.0000
  0
VERTEX
  8
LPF120_DRD
 10
8.2398
 20
-1.2011
 30
0.0000
  0
VERTEX
  8
LPF120_DRD
 10
8.2454
 20
-1.1900
 30
0.0000
  0
VERTEX
  8
LPF120_DRD
 10
8.2787
 20
-1.1900
 30
0.0000
  0
SEQEND
  0
POLYLINE
  8
LPF120_DRD
 66
1
 10
0.0000
 20
0.0000
 30
0.0000
 40
0.0080
 41
0.0080
  0
VERTEX
  8
LPF120_DRD
 10
8.2183
 20
-1.1678
 30
0.0000
  0
VERTEX
  8
LPF120_DRD
 10
8.1850
 20
-1.1678
 30
0.0000
  0
VERTEX
  8
LPF120_DRD
 10
8.1794
 20
-1.1789
 30
0.0000
  0
VERTEX
  8
LPF120_DRD
 10
8.1794
 20
-1.2011
 30
0.0000
  0
VERTEX
  8
LPF120_DRD
 10
8.1850
 20
-1.2122
 30
0.0000
  0
VERTEX
  8
LPF120_DRD
 10
8.2183
 20
-1.2122
 30
0.0000
  0
SEQEND
  0
POLYLINE
  8
LPF120_DRD
 66
1
 10
0.0000
 20
0.0000
 30
0.0000
 40
0.0080
 41
0.0080
  0
VERTEX
  8
LPF120_DRD
 10
8.1579
 20
-1.1456
 30
0.0000
  0
VERTEX
  8
LPF120_DRD
 10
8.1579
 20
-1.2122
 30
0.0000
  0
VERTEX
  8
LPF120_DRD
 10
8.1245
 20
-1.2122
 30
0.0000
  0
VERTEX
  8
LPF120_DRD
 10
8.1190
 20
-1.2011
 30
0.0000
  0
VERTEX
  8
LPF120_DRD
 10
8.1190
 20
-1.1789
 30
0.0000
  0
VERTEX
  8
LPF120_DRD
 10
8.1245
 20
-1.1678
 30
0.0000
  0
VERTEX
  8
LPF120_DRD
 10
8.1579
 20
-1.1678
 30
0.0000
  0
SEQEND
  0
POLYLINE
  8
LPF120_DRD
 66
1
 10
0.0000
 20
0.0000
 30
0.0000
 40
0.0080
 41
0.0080
  0
VERTEX
  8
LPF120_DRD
 10
8.0641
 20
-1.1678
 30
0.0000
  0
VERTEX
  8
LPF120_DRD
 10
8.0863
 20
-1.1678
 30
0.0000
  0
VERTEX
  8
LPF120_DRD
 10
8.0919
 20
-1.1789
 30
0.0000
  0
VERTEX
  8
LPF120_DRD
 10
8.0919
 20
-1.2011
 30
0.0000
  0
VERTEX
  8
LPF120_DRD
 10
8.0974
 20
-1.2122
 30
0.0000
  0
VERTEX
  8
LPF120_DRD
 10
8.0585
 20
-1.2122
 30
0.0000
  0
VERTEX
  8
LPF120_DRD
 10
8.0530
 20
-1.2011
 30
0.0000
  0
VERTEX
  8
LPF120_DRD
 10
8.0585
 20
-1.1900
 30
0.0000
  0
VERTEX
  8
LPF120_DRD
 10
8.0919
 20
-1.1900
 30
0.0000
  0
SEQEND
  0
POLYLINE
  8
LPF120_DRD
 66
1
 10
0.0000
 20
0.0000
 30
0.0000
 40
0.0080
 41
0.0080
  0
VERTEX
  8
LPF120_DRD
 10
7.9925
 20
-1.2122
 30
0.0000
  0
VERTEX
  8
LPF120_DRD
 10
7.9870
 20
-1.2011
 30
0.0000
  0
VERTEX
  8
LPF120_DRD
 10
7.9870
 20
-1.1789
 30
0.0000
  0
VERTEX
  8
LPF120_DRD
 10
7.9925
 20
-1.1678
 30
0.0000
  0
VERTEX
  8
LPF120_DRD
 10
8.0259
 20
-1.1678
 30
0.0000
  0
VERTEX
  8
LPF120_DRD
 10
8.0314
 20
-1.1789
 30
0.0000
  0
VERTEX
  8
LPF120_DRD
 10
8.0314
 20
-1.2011
 30
0.0000
  0
VERTEX
  8
LPF120_DRD
 10
8.0259
 20
-1.2122
 30
0.0000
  0
VERTEX
  8
LPF120_DRD
 10
7.9925
 20
-1.2122
 30
0.0000
  0
SEQEND
  0
POLYLINE
  8
LPF120_DRD
 66
1
 10
0.0000
 20
0.0000
 30
0.0000
 40
0.0080
 41
0.0080
  0
VERTEX
  8
LPF120_DRD
 10
7.9654
 20
-1.1678
 30
0.0000
  0
VERTEX
  8
LPF120_DRD
 10
7.9432
 20
-1.1678
 30
0.0000
  0
VERTEX
  8
LPF120_DRD
 10
7.9377
 20
-1.1789
 30
0.0000
  0
SEQEND
  0
POLYLINE
  8
LPF120_DRD
 66
1
 10
0.0000
 20
0.0000
 30
0.0000
 40
0.0080
 41
0.0080
  0
VERTEX
  8
LPF120_DRD
 10
7.9376
 20
-1.1789
 30
0.0000
  0
VERTEX
  8
LPF120_DRD
 10
7.9265
 20
-1.1789
 30
0.0000
  0
SEQEND
  0
POLYLINE
  8
LPF120_DRD
 66
1
 10
0.0000
 20
0.0000
 30
0.0000
 40
0.0080
 41
0.0080
  0
VERTEX
  8
LPF120_DRD
 10
7.9265
 20
-1.1678
 30
0.0000
  0
VERTEX
  8
LPF120_DRD
 10
7.9265
 20
-1.2122
 30
0.0000
  0
SEQEND
  0
POLYLINE
  8
LPF120_DRD
 66
1
 10
0.0000
 20
0.0000
 30
0.0000
 40
0.0080
 41
0.0080
  0
VERTEX
  8
LPF120_DRD
 10
7.8661
 20
-1.2122
 30
0.0000
  0
VERTEX
  8
LPF120_DRD
 10
7.8661
 20
-1.1456
 30
0.0000
  0
SEQEND
  0
POLYLINE
  8
LPF120_DRD
 66
1
 10
0.0000
 20
0.0000
 30
0.0000
 40
0.0080
 41
0.0080
  0
VERTEX
  8
LPF120_DRD
 10
7.8605
 20
-1.2122
 30
0.0000
  0
VERTEX
  8
LPF120_DRD
 10
7.8939
 20
-1.2122
 30
0.0000
  0
VERTEX
  8
LPF120_DRD
 10
7.9050
 20
-1.2011
 30
0.0000
  0
VERTEX
  8
LPF120_DRD
 10
7.9050
 20
-1.1900
 30
0.0000
  0
VERTEX
  8
LPF120_DRD
 10
7.8994
 20
-1.1789
 30
0.0000
  0
SEQEND
  0
POLYLINE
  8
LPF120_DRD
 66
1
 10
0.0000
 20
0.0000
 30
0.0000
 40
0.0080
 41
0.0080
  0
VERTEX
  8
LPF120_DRD
 10
7.8661
 20
-1.1789
 30
0.0000
  0
VERTEX
  8
LPF120_DRD
 10
7.8994
 20
-1.1789
 30
0.0000
  0
VERTEX
  8
LPF120_DRD
 10
7.9050
 20
-1.1678
 30
0.0000
  0
VERTEX
  8
LPF120_DRD
 10
7.9050
 20
-1.1567
 30
0.0000
  0
VERTEX
  8
LPF120_DRD
 10
7.8939
 20
-1.1456
 30
0.0000
  0
VERTEX
  8
LPF120_DRD
 10
7.8605
 20
-1.1456
 30
0.0000
  0
SEQEND
  0
POLYLINE
  8
LPF120_DRD
 66
1
 10
0.0000
 20
0.0000
 30
0.0000
 40
0.0080
 41
0.0080
  0
VERTEX
  8
LPF120_DRD
 10
8.7650
 20
-1.1022
 30
0.0000
  0
VERTEX
  8
LPF120_DRD
 10
8.7650
 20
-1.0689
 30
0.0000
  0
VERTEX
  8
LPF120_DRD
 10
8.7594
 20
-1.0578
 30
0.0000
  0
VERTEX
  8
LPF120_DRD
 10
8.7261
 20
-1.0578
 30
0.0000
  0
SEQEND
  0
POLYLINE
  8
LPF120_DRD
 66
1
 10
0.0000
 20
0.0000
 30
0.0000
 40
0.0080
 41
0.0080
  0
VERTEX
  8
LPF120_DRD
 10
8.7261
 20
-1.1022
 30
0.0000
  0
VERTEX
  8
LPF120_DRD
 10
8.7261
 20
-1.0356
 30
0.0000
  0
SEQEND
  0
POLYLINE
  8
LPF120_DRD
 66
1
 10
0.0000
 20
0.0000
 30
0.0000
 40
0.0080
 41
0.0080
  0
VERTEX
  8
LPF120_DRD
 10
8.6990
 20
-1.0578
 30
0.0000
  0
VERTEX
  8
LPF120_DRD
 10
8.6657
 20
-1.0578
 30
0.0000
  0
SEQEND
  0
POLYLINE
  8
LPF120_DRD
 66
1
 10
0.0000
 20
0.0000
 30
0.0000
 40
0.0080
 41
0.0080
  0
VERTEX
  8
LPF120_DRD
 10
8.7046
 20
-1.1022
 30
0.0000
  0
VERTEX
  8
LPF120_DRD
 10
8.6823
 20
-1.1022
 30
0.0000
  0
VERTEX
  8
LPF120_DRD
 10
8.6768
 20
-1.0911
 30
0.0000
  0
VERTEX
  8
LPF120_DRD
 10
8.6768
 20
-1.0356
 30
0.0000
  0
SEQEND
  0
POLYLINE
  8
LPF120_DRD
 66
1
 10
0.0000
 20
0.0000
 30
0.0000
 40
0.0080
 41
0.0080
  0
VERTEX
  8
LPF120_DRD
 10
8.6330
 20
-1.0356
 30
0.0000
  0
VERTEX
  8
LPF120_DRD
 10
8.6330
 20
-1.0355
 30
0.0000
  0
VERTEX
  8
LPF120_DRD
 10
8.6331
 20
-1.0355
 30
0.0000
  0
VERTEX
  8
LPF120_DRD
 10
8.6331
 20
-1.0356
 30
0.0000
  0
VERTEX
  8
LPF120_DRD
 10
8.6330
 20
-1.0356
 30
0.0000
  0
SEQEND
  0
POLYLINE
  8
LPF120_DRD
 66
1
 10
0.0000
 20
0.0000
 30
0.0000
 40
0.0080
 41
0.0080
  0
VERTEX
  8
LPF120_DRD
 10
8.6441
 20
-1.1022
 30
0.0000
  0
VERTEX
  8
LPF120_DRD
 10
8.6219
 20
-1.1022
 30
0.0000
  0
SEQEND
  0
POLYLINE
  8
LPF120_DRD
 66
1
 10
0.0000
 20
0.0000
 30
0.0000
 40
0.0080
 41
0.0080
  0
VERTEX
  8
LPF120_DRD
 10
8.6330
 20
-1.1022
 30
0.0000
  0
VERTEX
  8
LPF120_DRD
 10
8.6330
 20
-1.0578
 30
0.0000
  0
VERTEX
  8
LPF120_DRD
 10
8.6219
 20
-1.0578
 30
0.0000
  0
SEQEND
  0
POLYLINE
  8
LPF120_DRD
 66
1
 10
0.0000
 20
0.0000
 30
0.0000
 40
0.0080
 41
0.0080
  0
VERTEX
  8
LPF120_DRD
 10
8.5948
 20
-1.0689
 30
0.0000
  0
VERTEX
  8
LPF120_DRD
 10
8.5615
 20
-1.0689
 30
0.0000
  0
SEQEND
  0
POLYLINE
  8
LPF120_DRD
 66
1
 10
0.0000
 20
0.0000
 30
0.0000
 40
0.0080
 41
0.0080
  0
VERTEX
  8
LPF120_DRD
 10
8.5781
 20
-1.1022
 30
0.0000
  0
VERTEX
  8
LPF120_DRD
 10
8.5781
 20
-1.0467
 30
0.0000
  0
VERTEX
  8
LPF120_DRD
 10
8.5837
 20
-1.0356
 30
0.0000
  0
VERTEX
  8
LPF120_DRD
 10
8.5948
 20
-1.0356
 30
0.0000
  0
SEQEND
  0
POLYLINE
  8
LPF120_DRD
 66
1
 10
0.0000
 20
0.0000
 30
0.0000
 40
0.0080
 41
0.0080
  0
VERTEX
  8
LPF120_DRD
 10
8.5399
 20
-1.0689
 30
0.0000
  0
VERTEX
  8
LPF120_DRD
 10
8.5066
 20
-1.0689
 30
0.0000
  0
SEQEND
  0
POLYLINE
  8
LPF120_DRD
 66
1
 10
0.0000
 20
0.0000
 30
0.0000
 40
0.0080
 41
0.0080
  0
VERTEX
  8
LPF120_DRD
 10
8.5233
 20
-1.1022
 30
0.0000
  0
VERTEX
  8
LPF120_DRD
 10
8.5233
 20
-1.0467
 30
0.0000
  0
VERTEX
  8
LPF120_DRD
 10
8.5288
 20
-1.0356
 30
0.0000
  0
VERTEX
  8
LPF120_DRD
 10
8.5399
 20
-1.0356
 30
0.0000
  0
SEQEND
  0
POLYLINE
  8
LPF120_DRD
 66
1
 10
0.0000
 20
0.0000
 30
0.0000
 40
0.0080
 41
0.0080
  0
VERTEX
  8
LPF120_DRD
 10
8.4739
 20
-1.0356
 30
0.0000
  0
VERTEX
  8
LPF120_DRD
 10
8.4739
 20
-1.0355
 30
0.0000
  0
VERTEX
  8
LPF120_DRD
 10
8.4740
 20
-1.0355
 30
0.0000
  0
VERTEX
  8
LPF120_DRD
 10
8.4740
 20
-1.0356
 30
0.0000
  0
VERTEX
  8
LPF120_DRD
 10
8.4739
 20
-1.0356
 30
0.0000
  0
SEQEND
  0
POLYLINE
  8
LPF120_DRD
 66
1
 10
0.0000
 20
0.0000
 30
0.0000
 40
0.0080
 41
0.0080
  0
VERTEX
  8
LPF120_DRD
 10
8.4850
 20
-1.1022
 30
0.0000
  0
VERTEX
  8
LPF120_DRD
 10
8.4628
 20
-1.1022
 30
0.0000
  0
SEQEND
  0
POLYLINE
  8
LPF120_DRD
 66
1
 10
0.0000
 20
0.0000
 30
0.0000
 40
0.0080
 41
0.0080
  0
VERTEX
  8
LPF120_DRD
 10
8.4739
 20
-1.1022
 30
0.0000
  0
VERTEX
  8
LPF120_DRD
 10
8.4739
 20
-1.0578
 30
0.0000
  0
VERTEX
  8
LPF120_DRD
 10
8.4628
 20
-1.0578
 30
0.0000
  0
SEQEND
  0
POLYLINE
  8
LPF120_DRD
 66
1
 10
0.0000
 20
0.0000
 30
0.0000
 40
0.0080
 41
0.0080
  0
VERTEX
  8
LPF120_DRD
 10
8.4357
 20
-1.0578
 30
0.0000
  0
VERTEX
  8
LPF120_DRD
 10
8.4135
 20
-1.0578
 30
0.0000
  0
VERTEX
  8
LPF120_DRD
 10
8.4080
 20
-1.0689
 30
0.0000
  0
SEQEND
  0
POLYLINE
  8
LPF120_DRD
 66
1
 10
0.0000
 20
0.0000
 30
0.0000
 40
0.0080
 41
0.0080
  0
VERTEX
  8
LPF120_DRD
 10
8.4079
 20
-1.0689
 30
0.0000
  0
VERTEX
  8
LPF120_DRD
 10
8.3968
 20
-1.0689
 30
0.0000
  0
SEQEND
  0
POLYLINE
  8
LPF120_DRD
 66
1
 10
0.0000
 20
0.0000
 30
0.0000
 40
0.0080
 41
0.0080
  0
VERTEX
  8
LPF120_DRD
 10
8.3968
 20
-1.0578
 30
0.0000
  0
VERTEX
  8
LPF120_DRD
 10
8.3968
 20
-1.1022
 30
0.0000
  0
SEQEND
  0
POLYLINE
  8
LPF120_DRD
 66
1
 10
0.0000
 20
0.0000
 30
0.0000
 40
0.0080
 41
0.0080
  0
VERTEX
  8
LPF120_DRD
 10
8.3531
 20
-1.0689
 30
0.0000
  0
VERTEX
  8
LPF120_DRD
 10
8.3753
 20
-1.0689
 30
0.0000
  0
VERTEX
  8
LPF120_DRD
 10
8.3753
 20
-1.0911
 30
0.0000
  0
VERTEX
  8
LPF120_DRD
 10
8.3697
 20
-1.1022
 30
0.0000
  0
VERTEX
  8
LPF120_DRD
 10
8.3364
 20
-1.1022
 30
0.0000
  0
VERTEX
  8
LPF120_DRD
 10
8.3308
 20
-1.0911
 30
0.0000
  0
VERTEX
  8
LPF120_DRD
 10
8.3308
 20
-1.0467
 30
0.0000
  0
VERTEX
  8
LPF120_DRD
 10
8.3364
 20
-1.0356
 30
0.0000
  0
VERTEX
  8
LPF120_DRD
 10
8.3697
 20
-1.0356
 30
0.0000
  0
VERTEX
  8
LPF120_DRD
 10
8.3753
 20
-1.0467
 30
0.0000
  0
SEQEND
  0
POLYLINE
  8
LPF120_DRD
 66
1
 10
0.0000
 20
0.0000
 30
0.0000
 40
0.0080
 41
0.0080
  0
VERTEX
  8
LPF120_DRD
 10
8.2183
 20
-1.0578
 30
0.0000
  0
VERTEX
  8
LPF120_DRD
 10
8.2183
 20
-1.0911
 30
0.0000
  0
VERTEX
  8
LPF120_DRD
 10
8.2127
 20
-1.1022
 30
0.0000
  0
VERTEX
  8
LPF120_DRD
 10
8.1961
 20
-1.0689
 30
0.0000
  0
VERTEX
  8
LPF120_DRD
 10
8.1794
 20
-1.1022
 30
0.0000
  0
VERTEX
  8
LPF120_DRD
 10
8.1738
 20
-1.0911
 30
0.0000
  0
VERTEX
  8
LPF120_DRD
 10
8.1738
 20
-1.0578
 30
0.0000
  0
SEQEND
  0
POLYLINE
  8
LPF120_DRD
 66
1
 10
0.0000
 20
0.0000
 30
0.0000
 40
0.0080
 41
0.0080
  0
VERTEX
  8
LPF120_DRD
 10
8.1467
 20
-1.1022
 30
0.0000
  0
VERTEX
  8
LPF120_DRD
 10
8.1134
 20
-1.1022
 30
0.0000
  0
VERTEX
  8
LPF120_DRD
 10
8.1078
 20
-1.0911
 30
0.0000
  0
VERTEX
  8
LPF120_DRD
 10
8.1078
 20
-1.0689
 30
0.0000
  0
VERTEX
  8
LPF120_DRD
 10
8.1134
 20
-1.0578
 30
0.0000
  0
VERTEX
  8
LPF120_DRD
 10
8.1467
 20
-1.0578
 30
0.0000
  0
VERTEX
  8
LPF120_DRD
 10
8.1523
 20
-1.0689
 30
0.0000
  0
VERTEX
  8
LPF120_DRD
 10
8.1523
 20
-1.0800
 30
0.0000
  0
VERTEX
  8
LPF120_DRD
 10
8.1078
 20
-1.0800
 30
0.0000
  0
SEQEND
  0
POLYLINE
  8
LPF120_DRD
 66
1
 10
0.0000
 20
0.0000
 30
0.0000
 40
0.0080
 41
0.0080
  0
VERTEX
  8
LPF120_DRD
 10
8.0863
 20
-1.0578
 30
0.0000
  0
VERTEX
  8
LPF120_DRD
 10
8.0641
 20
-1.0578
 30
0.0000
  0
VERTEX
  8
LPF120_DRD
 10
8.0585
 20
-1.0689
 30
0.0000
  0
VERTEX
  8
LPF120_DRD
 10
8.0474
 20
-1.0689
 30
0.0000
  0
SEQEND
  0
POLYLINE
  8
LPF120_DRD
 66
1
 10
0.0000
 20
0.0000
 30
0.0000
 40
0.0080
 41
0.0080
  0
VERTEX
  8
LPF120_DRD
 10
8.0474
 20
-1.0578
 30
0.0000
  0
VERTEX
  8
LPF120_DRD
 10
8.0474
 20
-1.1022
 30
0.0000
  0
SEQEND
  0
POLYLINE
  8
LPF120_DRD
 66
1
 10
0.0000
 20
0.0000
 30
0.0000
 40
0.0080
 41
0.0080
  0
VERTEX
  8
LPF120_DRD
 10
8.0259
 20
-1.0356
 30
0.0000
  0
VERTEX
  8
LPF120_DRD
 10
8.0259
 20
-1.1022
 30
0.0000
  0
VERTEX
  8
LPF120_DRD
 10
7.9925
 20
-1.1022
 30
0.0000
  0
VERTEX
  8
LPF120_DRD
 10
7.9870
 20
-1.0911
 30
0.0000
  0
VERTEX
  8
LPF120_DRD
 10
7.9870
 20
-1.0689
 30
0.0000
  0
VERTEX
  8
LPF120_DRD
 10
7.9925
 20
-1.0578
 30
0.0000
  0
VERTEX
  8
LPF120_DRD
 10
8.0259
 20
-1.0578
 30
0.0000
  0
SEQEND
  0
POLYLINE
  8
LPF120_DRD
 66
1
 10
0.0000
 20
0.0000
 30
0.0000
 40
0.0080
 41
0.0080
  0
VERTEX
  8
LPF120_DRD
 10
7.9654
 20
-1.1022
 30
0.0000
  0
VERTEX
  8
LPF120_DRD
 10
7.9654
 20
-1.0689
 30
0.0000
  0
VERTEX
  8
LPF120_DRD
 10
7.9599
 20
-1.0578
 30
0.0000
  0
VERTEX
  8
LPF120_DRD
 10
7.9265
 20
-1.0578
 30
0.0000
  0
VERTEX
  8
LPF120_DRD
 10
7.9265
 20
-1.1022
 30
0.0000
  0
SEQEND
  0
POLYLINE
  8
LPF120_DRD
 66
1
 10
0.0000
 20
0.0000
 30
0.0000
 40
0.0080
 41
0.0080
  0
VERTEX
  8
LPF120_DRD
 10
7.9050
 20
-1.0800
 30
0.0000
  0
VERTEX
  8
LPF120_DRD
 10
7.8605
 20
-1.0800
 30
0.0000
  0
SEQEND
  0
POLYLINE
  8
LPF120_DRD
 66
1
 10
0.0000
 20
0.0000
 30
0.0000
 40
0.0080
 41
0.0080
  0
VERTEX
  8
LPF120_DRD
 10
7.9050
 20
-1.1022
 30
0.0000
  0
VERTEX
  8
LPF120_DRD
 10
7.9050
 20
-1.0689
 30
0.0000
  0
VERTEX
  8
LPF120_DRD
 10
7.8883
 20
-1.0356
 30
0.0000
  0
VERTEX
  8
LPF120_DRD
 10
7.8772
 20
-1.0356
 30
0.0000
  0
VERTEX
  8
LPF120_DRD
 10
7.8605
 20
-1.0689
 30
0.0000
  0
VERTEX
  8
LPF120_DRD
 10
7.8605
 20
-1.1022
 30
0.0000
  0
SEQEND
  0
POLYLINE
  8
LPF120_DRD
 66
1
 10
0.0000
 20
0.0000
 30
0.0000
 40
0.0080
 41
0.0080
  0
VERTEX
  8
LPF120_DRD
 10
9.0345
 20
-0.9672
 30
0.0000
  0
VERTEX
  8
LPF120_DRD
 10
9.0345
 20
-0.9339
 30
0.0000
  0
VERTEX
  8
LPF120_DRD
 10
9.0290
 20
-0.9228
 30
0.0000
  0
VERTEX
  8
LPF120_DRD
 10
8.9957
 20
-0.9228
 30
0.0000
  0
VERTEX
  8
LPF120_DRD
 10
8.9957
 20
-0.9672
 30
0.0000
  0
SEQEND
  0
POLYLINE
  8
LPF120_DRD
 66
1
 10
0.0000
 20
0.0000
 30
0.0000
 40
0.0080
 41
0.0080
  0
VERTEX
  8
LPF120_DRD
 10
8.9352
 20
-0.9672
 30
0.0000
  0
VERTEX
  8
LPF120_DRD
 10
8.9297
 20
-0.9561
 30
0.0000
  0
VERTEX
  8
LPF120_DRD
 10
8.9297
 20
-0.9339
 30
0.0000
  0
VERTEX
  8
LPF120_DRD
 10
8.9352
 20
-0.9228
 30
0.0000
  0
VERTEX
  8
LPF120_DRD
 10
8.9685
 20
-0.9228
 30
0.0000
  0
VERTEX
  8
LPF120_DRD
 10
8.9741
 20
-0.9339
 30
0.0000
  0
VERTEX
  8
LPF120_DRD
 10
8.9741
 20
-0.9561
 30
0.0000
  0
VERTEX
  8
LPF120_DRD
 10
8.9685
 20
-0.9672
 30
0.0000
  0
VERTEX
  8
LPF120_DRD
 10
8.9352
 20
-0.9672
 30
0.0000
  0
SEQEND
  0
POLYLINE
  8
LPF120_DRD
 66
1
 10
0.0000
 20
0.0000
 30
0.0000
 40
0.0080
 41
0.0080
  0
VERTEX
  8
LPF120_DRD
 10
8.8969
 20
-0.9006
 30
0.0000
  0
VERTEX
  8
LPF120_DRD
 10
8.8970
 20
-0.9005
 30
0.0000
  0
SEQEND
  0
POLYLINE
  8
LPF120_DRD
 66
1
 10
0.0000
 20
0.0000
 30
0.0000
 40
0.0080
 41
0.0080
  0
VERTEX
  8
LPF120_DRD
 10
8.8969
 20
-0.9005
 30
0.0000
  0
VERTEX
  8
LPF120_DRD
 10
8.8971
 20
-0.9005
 30
0.0000
  0
VERTEX
  8
LPF120_DRD
 10
8.8971
 20
-0.9006
 30
0.0000
  0
VERTEX
  8
LPF120_DRD
 10
8.8970
 20
-0.9006
 30
0.0000
  0
SEQEND
  0
POLYLINE
  8
LPF120_DRD
 66
1
 10
0.0000
 20
0.0000
 30
0.0000
 40
0.0080
 41
0.0080
  0
VERTEX
  8
LPF120_DRD
 10
8.9081
 20
-0.9672
 30
0.0000
  0
VERTEX
  8
LPF120_DRD
 10
8.8859
 20
-0.9672
 30
0.0000
  0
SEQEND
  0
POLYLINE
  8
LPF120_DRD
 66
1
 10
0.0000
 20
0.0000
 30
0.0000
 40
0.0080
 41
0.0080
  0
VERTEX
  8
LPF120_DRD
 10
8.8970
 20
-0.9672
 30
0.0000
  0
VERTEX
  8
LPF120_DRD
 10
8.8970
 20
-0.9228
 30
0.0000
  0
VERTEX
  8
LPF120_DRD
 10
8.8859
 20
-0.9228
 30
0.0000
  0
SEQEND
  0
POLYLINE
  8
LPF120_DRD
 66
1
 10
0.0000
 20
0.0000
 30
0.0000
 40
0.0080
 41
0.0080
  0
VERTEX
  8
LPF120_DRD
 10
8.8532
 20
-0.9228
 30
0.0000
  0
VERTEX
  8
LPF120_DRD
 10
8.8199
 20
-0.9228
 30
0.0000
  0
SEQEND
  0
POLYLINE
  8
LPF120_DRD
 66
1
 10
0.0000
 20
0.0000
 30
0.0000
 40
0.0080
 41
0.0080
  0
VERTEX
  8
LPF120_DRD
 10
8.8588
 20
-0.9672
 30
0.0000
  0
VERTEX
  8
LPF120_DRD
 10
8.8366
 20
-0.9672
 30
0.0000
  0
VERTEX
  8
LPF120_DRD
 10
8.8310
 20
-0.9561
 30
0.0000
  0
VERTEX
  8
LPF120_DRD
 10
8.8310
 20
-0.9006
 30
0.0000
  0
SEQEND
  0
POLYLINE
  8
LPF120_DRD
 66
1
 10
0.0000
 20
0.0000
 30
0.0000
 40
0.0080
 41
0.0080
  0
VERTEX
  8
LPF120_DRD
 10
8.7650
 20
-0.9228
 30
0.0000
  0
VERTEX
  8
LPF120_DRD
 10
8.7872
 20
-0.9228
 30
0.0000
  0
VERTEX
  8
LPF120_DRD
 10
8.7928
 20
-0.9339
 30
0.0000
  0
VERTEX
  8
LPF120_DRD
 10
8.7928
 20
-0.9561
 30
0.0000
  0
VERTEX
  8
LPF120_DRD
 10
8.7984
 20
-0.9672
 30
0.0000
  0
VERTEX
  8
LPF120_DRD
 10
8.7595
 20
-0.9672
 30
0.0000
  0
VERTEX
  8
LPF120_DRD
 10
8.7539
 20
-0.9561
 30
0.0000
  0
VERTEX
  8
LPF120_DRD
 10
8.7595
 20
-0.9450
 30
0.0000
  0
VERTEX
  8
LPF120_DRD
 10
8.7928
 20
-0.9450
 30
0.0000
  0
SEQEND
  0
POLYLINE
  8
LPF120_DRD
 66
1
 10
0.0000
 20
0.0000
 30
0.0000
 40
0.0080
 41
0.0080
  0
VERTEX
  8
LPF120_DRD
 10
8.7101
 20
-0.9672
 30
0.0000
  0
VERTEX
  8
LPF120_DRD
 10
8.7101
 20
-0.9339
 30
0.0000
  0
SEQEND
  0
POLYLINE
  8
LPF120_DRD
 66
1
 10
0.0000
 20
0.0000
 30
0.0000
 40
0.0080
 41
0.0080
  0
VERTEX
  8
LPF120_DRD
 10
8.7324
 20
-0.9672
 30
0.0000
  0
VERTEX
  8
LPF120_DRD
 10
8.7324
 20
-0.9339
 30
0.0000
  0
VERTEX
  8
LPF120_DRD
 10
8.7268
 20
-0.9228
 30
0.0000
  0
VERTEX
  8
LPF120_DRD
 10
8.7157
 20
-0.9228
 30
0.0000
  0
VERTEX
  8
LPF120_DRD
 10
8.7101
 20
-0.9339
 30
0.0000
  0
VERTEX
  8
LPF120_DRD
 10
8.7046
 20
-0.9228
 30
0.0000
  0
VERTEX
  8
LPF120_DRD
 10
8.6935
 20
-0.9228
 30
0.0000
  0
VERTEX
  8
LPF120_DRD
 10
8.6879
 20
-0.9339
 30
0.0000
  0
VERTEX
  8
LPF120_DRD
 10
8.6879
 20
-0.9672
 30
0.0000
  0
SEQEND
  0
POLYLINE
  8
LPF120_DRD
 66
1
 10
0.0000
 20
0.0000
 30
0.0000
 40
0.0080
 41
0.0080
  0
VERTEX
  8
LPF120_DRD
 10
8.6664
 20
-0.9228
 30
0.0000
  0
VERTEX
  8
LPF120_DRD
 10
8.6441
 20
-0.9228
 30
0.0000
  0
VERTEX
  8
LPF120_DRD
 10
8.6386
 20
-0.9339
 30
0.0000
  0
VERTEX
  8
LPF120_DRD
 10
8.6275
 20
-0.9339
 30
0.0000
  0
SEQEND
  0
POLYLINE
  8
LPF120_DRD
 66
1
 10
0.0000
 20
0.0000
 30
0.0000
 40
0.0080
 41
0.0080
  0
VERTEX
  8
LPF120_DRD
 10
8.6275
 20
-0.9228
 30
0.0000
  0
VERTEX
  8
LPF120_DRD
 10
8.6275
 20
-0.9672
 30
0.0000
  0
SEQEND
  0
POLYLINE
  8
LPF120_DRD
 66
1
 10
0.0000
 20
0.0000
 30
0.0000
 40
0.0080
 41
0.0080
  0
VERTEX
  8
LPF120_DRD
 10
8.5670
 20
-0.9672
 30
0.0000
  0
VERTEX
  8
LPF120_DRD
 10
8.5615
 20
-0.9561
 30
0.0000
  0
VERTEX
  8
LPF120_DRD
 10
8.5615
 20
-0.9339
 30
0.0000
  0
VERTEX
  8
LPF120_DRD
 10
8.5670
 20
-0.9228
 30
0.0000
  0
VERTEX
  8
LPF120_DRD
 10
8.6004
 20
-0.9228
 30
0.0000
  0
VERTEX
  8
LPF120_DRD
 10
8.6059
 20
-0.9339
 30
0.0000
  0
VERTEX
  8
LPF120_DRD
 10
8.6059
 20
-0.9561
 30
0.0000
  0
VERTEX
  8
LPF120_DRD
 10
8.6004
 20
-0.9672
 30
0.0000
  0
VERTEX
  8
LPF120_DRD
 10
8.5670
 20
-0.9672
 30
0.0000
  0
SEQEND
  0
POLYLINE
  8
LPF120_DRD
 66
1
 10
0.0000
 20
0.0000
 30
0.0000
 40
0.0080
 41
0.0080
  0
VERTEX
  8
LPF120_DRD
 10
8.5399
 20
-0.9339
 30
0.0000
  0
VERTEX
  8
LPF120_DRD
 10
8.5066
 20
-0.9339
 30
0.0000
  0
SEQEND
  0
POLYLINE
  8
LPF120_DRD
 66
1
 10
0.0000
 20
0.0000
 30
0.0000
 40
0.0080
 41
0.0080
  0
VERTEX
  8
LPF120_DRD
 10
8.5233
 20
-0.9672
 30
0.0000
  0
VERTEX
  8
LPF120_DRD
 10
8.5233
 20
-0.9117
 30
0.0000
  0
VERTEX
  8
LPF120_DRD
 10
8.5288
 20
-0.9006
 30
0.0000
  0
VERTEX
  8
LPF120_DRD
 10
8.5399
 20
-0.9006
 30
0.0000
  0
SEQEND
  0
POLYLINE
  8
LPF120_DRD
 66
1
 10
0.0000
 20
0.0000
 30
0.0000
 40
0.0080
 41
0.0080
  0
VERTEX
  8
LPF120_DRD
 10
8.4850
 20
-0.9672
 30
0.0000
  0
VERTEX
  8
LPF120_DRD
 10
8.4850
 20
-0.9339
 30
0.0000
  0
VERTEX
  8
LPF120_DRD
 10
8.4795
 20
-0.9228
 30
0.0000
  0
VERTEX
  8
LPF120_DRD
 10
8.4462
 20
-0.9228
 30
0.0000
  0
VERTEX
  8
LPF120_DRD
 10
8.4462
 20
-0.9672
 30
0.0000
  0
SEQEND
  0
POLYLINE
  8
LPF120_DRD
 66
1
 10
0.0000
 20
0.0000
 30
0.0000
 40
0.0080
 41
0.0080
  0
VERTEX
  8
LPF120_DRD
 10
8.4246
 20
-0.9672
 30
0.0000
  0
VERTEX
  8
LPF120_DRD
 10
8.4024
 20
-0.9672
 30
0.0000
  0
SEQEND
  0
POLYLINE
  8
LPF120_DRD
 66
1
 10
0.0000
 20
0.0000
 30
0.0000
 40
0.0080
 41
0.0080
  0
VERTEX
  8
LPF120_DRD
 10
8.4135
 20
-0.9672
 30
0.0000
  0
VERTEX
  8
LPF120_DRD
 10
8.4135
 20
-0.9006
 30
0.0000
  0
SEQEND
  0
POLYLINE
  8
LPF120_DRD
 66
1
 10
0.0000
 20
0.0000
 30
0.0000
 40
0.0080
 41
0.0080
  0
VERTEX
  8
LPF120_DRD
 10
8.4246
 20
-0.9006
 30
0.0000
  0
VERTEX
  8
LPF120_DRD
 10
8.4024
 20
-0.9006
 30
0.0000
  0
SEQEND
  0
POLYLINE
  8
LPF120_DRD
 66
1
 10
0.0000
 20
0.0000
 30
0.0000
 40
0.0080
 41
0.0080
  0
VERTEX
  8
LPF120_DRD
 10
8.2732
 20
-0.9228
 30
0.0000
  0
VERTEX
  8
LPF120_DRD
 10
8.2398
 20
-0.9228
 30
0.0000
  0
SEQEND
  0
POLYLINE
  8
LPF120_DRD
 66
1
 10
0.0000
 20
0.0000
 30
0.0000
 40
0.0080
 41
0.0080
  0
VERTEX
  8
LPF120_DRD
 10
8.2787
 20
-0.9672
 30
0.0000
  0
VERTEX
  8
LPF120_DRD
 10
8.2565
 20
-0.9672
 30
0.0000
  0
VERTEX
  8
LPF120_DRD
 10
8.2510
 20
-0.9561
 30
0.0000
  0
SEQEND
  0
POLYLINE
  8
LPF120_DRD
 66
1
 10
0.0000
 20
0.0000
 30
0.0000
 40
0.0080
 41
0.0080
  0
VERTEX
  8
LPF120_DRD
 10
8.2509
 20
-0.9561
 30
0.0000
  0
VERTEX
  8
LPF120_DRD
 10
8.2510
 20
-0.9006
 30
0.0000
  0
SEQEND
  0
POLYLINE
  8
LPF120_DRD
 66
1
 10
0.0000
 20
0.0000
 30
0.0000
 40
0.0080
 41
0.0080
  0
VERTEX
  8
LPF120_DRD
 10
8.2183
 20
-0.9228
 30
0.0000
  0
VERTEX
  8
LPF120_DRD
 10
8.1850
 20
-0.9228
 30
0.0000
  0
VERTEX
  8
LPF120_DRD
 10
8.1794
 20
-0.9339
 30
0.0000
  0
VERTEX
  8
LPF120_DRD
 10
8.1794
 20
-0.9561
 30
0.0000
  0
VERTEX
  8
LPF120_DRD
 10
8.1850
 20
-0.9672
 30
0.0000
  0
VERTEX
  8
LPF120_DRD
 10
8.2183
 20
-0.9672
 30
0.0000
  0
SEQEND
  0
POLYLINE
  8
LPF120_DRD
 66
1
 10
0.0000
 20
0.0000
 30
0.0000
 40
0.0080
 41
0.0080
  0
VERTEX
  8
LPF120_DRD
 10
8.1245
 20
-0.9228
 30
0.0000
  0
VERTEX
  8
LPF120_DRD
 10
8.1467
 20
-0.9228
 30
0.0000
  0
VERTEX
  8
LPF120_DRD
 10
8.1523
 20
-0.9339
 30
0.0000
  0
VERTEX
  8
LPF120_DRD
 10
8.1523
 20
-0.9561
 30
0.0000
  0
VERTEX
  8
LPF120_DRD
 10
8.1579
 20
-0.9672
 30
0.0000
  0
VERTEX
  8
LPF120_DRD
 10
8.1190
 20
-0.9672
 30
0.0000
  0
VERTEX
  8
LPF120_DRD
 10
8.1134
 20
-0.9561
 30
0.0000
  0
VERTEX
  8
LPF120_DRD
 10
8.1190
 20
-0.9450
 30
0.0000
  0
VERTEX
  8
LPF120_DRD
 10
8.1523
 20
-0.9450
 30
0.0000
  0
SEQEND
  0
POLYLINE
  8
LPF120_DRD
 66
1
 10
0.0000
 20
0.0000
 30
0.0000
 40
0.0080
 41
0.0080
  0
VERTEX
  8
LPF120_DRD
 10
8.0863
 20
-0.9228
 30
0.0000
  0
VERTEX
  8
LPF120_DRD
 10
8.0530
 20
-0.9228
 30
0.0000
  0
SEQEND
  0
POLYLINE
  8
LPF120_DRD
 66
1
 10
0.0000
 20
0.0000
 30
0.0000
 40
0.0080
 41
0.0080
  0
VERTEX
  8
LPF120_DRD
 10
8.0919
 20
-0.9672
 30
0.0000
  0
VERTEX
  8
LPF120_DRD
 10
8.0696
 20
-0.9672
 30
0.0000
  0
VERTEX
  8
LPF120_DRD
 10
8.0641
 20
-0.9561
 30
0.0000
  0
VERTEX
  8
LPF120_DRD
 10
8.0641
 20
-0.9006
 30
0.0000
  0
SEQEND
  0
POLYLINE
  8
LPF120_DRD
 66
1
 10
0.0000
 20
0.0000
 30
0.0000
 40
0.0080
 41
0.0080
  0
VERTEX
  8
LPF120_DRD
 10
8.0314
 20
-0.9672
 30
0.0000
  0
VERTEX
  8
LPF120_DRD
 10
8.0314
 20
-0.9339
 30
0.0000
  0
VERTEX
  8
LPF120_DRD
 10
8.0259
 20
-0.9228
 30
0.0000
  0
VERTEX
  8
LPF120_DRD
 10
7.9925
 20
-0.9228
 30
0.0000
  0
VERTEX
  8
LPF120_DRD
 10
7.9925
 20
-0.9672
 30
0.0000
  0
SEQEND
  0
POLYLINE
  8
LPF120_DRD
 66
1
 10
0.0000
 20
0.0000
 30
0.0000
 40
0.0080
 41
0.0080
  0
VERTEX
  8
LPF120_DRD
 10
7.9321
 20
-0.9672
 30
0.0000
  0
VERTEX
  8
LPF120_DRD
 10
7.9265
 20
-0.9561
 30
0.0000
  0
VERTEX
  8
LPF120_DRD
 10
7.9265
 20
-0.9339
 30
0.0000
  0
VERTEX
  8
LPF120_DRD
 10
7.9321
 20
-0.9228
 30
0.0000
  0
VERTEX
  8
LPF120_DRD
 10
7.9654
 20
-0.9228
 30
0.0000
  0
VERTEX
  8
LPF120_DRD
 10
7.9710
 20
-0.9339
 30
0.0000
  0
VERTEX
  8
LPF120_DRD
 10
7.9710
 20
-0.9561
 30
0.0000
  0
VERTEX
  8
LPF120_DRD
 10
7.9654
 20
-0.9672
 30
0.0000
  0
VERTEX
  8
LPF120_DRD
 10
7.9321
 20
-0.9672
 30
0.0000
  0
SEQEND
  0
POLYLINE
  8
LPF120_DRD
 66
1
 10
0.0000
 20
0.0000
 30
0.0000
 40
0.0080
 41
0.0080
  0
VERTEX
  8
LPF120_DRD
 10
7.9050
 20
-0.9561
 30
0.0000
  0
VERTEX
  8
LPF120_DRD
 10
7.8994
 20
-0.9672
 30
0.0000
  0
VERTEX
  8
LPF120_DRD
 10
7.8661
 20
-0.9672
 30
0.0000
  0
VERTEX
  8
LPF120_DRD
 10
7.8605
 20
-0.9561
 30
0.0000
  0
VERTEX
  8
LPF120_DRD
 10
7.8605
 20
-0.9117
 30
0.0000
  0
VERTEX
  8
LPF120_DRD
 10
7.8661
 20
-0.9006
 30
0.0000
  0
VERTEX
  8
LPF120_DRD
 10
7.8994
 20
-0.9006
 30
0.0000
  0
VERTEX
  8
LPF120_DRD
 10
7.9050
 20
-0.9117
 30
0.0000
  0
SEQEND
  0
POLYLINE
  8
LPF120_SST
 66
1
 10
0.0000
 20
0.0000
 30
0.0000
 40
0.0100
 41
0.0100
  0
VERTEX
  8
LPF120_SST
 10
0.0855
 20
0.3239
 30
0.0000
  0
VERTEX
  8
LPF120_SST
 10
0.0589
 20
0.3239
 30
0.0000
  0
VERTEX
  8
LPF120_SST
 10
0.0544
 20
0.3328
 30
0.0000
  0
VERTEX
  8
LPF120_SST
 10
0.0544
 20
0.3417
 30
0.0000
  0
VERTEX
  8
LPF120_SST
 10
0.0589
 20
0.3505
 30
0.0000
  0
VERTEX
  8
LPF120_SST
 10
0.0855
 20
0.3505
 30
0.0000
  0
VERTEX
  8
LPF120_SST
 10
0.0900
 20
0.3417
 30
0.0000
  0
VERTEX
  8
LPF120_SST
 10
0.0900
 20
0.3328
 30
0.0000
  0
VERTEX
  8
LPF120_SST
 10
0.0722
 20
0.2972
 30
0.0000
  0
SEQEND
  0
POLYLINE
  8
LPF120_SST
 66
1
 10
0.0000
 20
0.0000
 30
0.0000
 40
0.0100
 41
0.0100
  0
VERTEX
  8
LPF120_SST
 10
9.3000
 20
1.8150
 30
0.0000
  0
VERTEX
  8
LPF120_SST
 10
9.3000
 20
1.9050
 30
0.0000
  0
SEQEND
  0
POLYLINE
  8
LPF120_SST
 66
1
 10
0.0000
 20
0.0000
 30
0.0000
 40
0.0100
 41
0.0100
  0
VERTEX
  8
LPF120_SST
 10
1.7100
 20
1.1500
 30
0.0000
  0
VERTEX
  8
LPF120_SST
 10
1.7100
 20
1.2500
 30
0.0000
  0
SEQEND
  0
POLYLINE
  8
LPF120_SST
 66
1
 10
0.0000
 20
0.0000
 30
0.0000
 40
0.0100
 41
0.0100
  0
VERTEX
  8
LPF120_SST
 10
1.7200
 20
1.8500
 30
0.0000
  0
VERTEX
  8
LPF120_SST
 10
1.7200
 20
1.9400
 30
0.0000
  0
SEQEND
  0
POLYLINE
  8
LPF120_SST
 66
1
 10
0.0000
 20
0.0000
 30
0.0000
 40
0.0100
 41
0.0100
  0
VERTEX
  8
LPF120_SST
 10
4.2350
 20
1.0900
 30
0.0000
  0
VERTEX
  8
LPF120_SST
 10
4.2350
 20
1.1900
 30
0.0000
  0
SEQEND
  0
POLYLINE
  8
LPF120_SST
 66
1
 10
0.0000
 20
0.0000
 30
0.0000
 40
0.0100
 41
0.0100
  0
VERTEX
  8
LPF120_SST
 10
4.2400
 20
1.9400
 30
0.0000
  0
VERTEX
  8
LPF120_SST
 10
4.2400
 20
2.0300
 30
0.0000
  0
SEQEND
  0
POLYLINE
  8
LPF120_SST
 66
1
 10
0.0000
 20
0.0000
 30
0.0000
 40
0.0100
 41
0.0100
  0
VERTEX
  8
LPF120_SST
 10
6.7800
 20
1.0750
 30
0.0000
  0
VERTEX
  8
LPF120_SST
 10
6.7800
 20
1.1750
 30
0.0000
  0
SEQEND
  0
POLYLINE
  8
LPF120_SST
 66
1
 10
0.0000
 20
0.0000
 30
0.0000
 40
0.0100
 41
0.0100
  0
VERTEX
  8
LPF120_SST
 10
6.7850
 20
1.9250
 30
0.0000
  0
VERTEX
  8
LPF120_SST
 10
6.7850
 20
2.0150
 30
0.0000
  0
SEQEND
  0
POLYLINE
  8
LPF120_SST
 66
1
 10
0.0000
 20
0.0000
 30
0.0000
 40
0.0100
 41
0.0100
  0
VERTEX
  8
LPF120_SST
 10
9.2900
 20
1.1150
 30
0.0000
  0
VERTEX
  8
LPF120_SST
 10
9.2900
 20
1.2150
 30
0.0000
  0
SEQEND
  0
POLYLINE
  8
LPF120_SST
 66
1
 10
0.0000
 20
0.0000
 30
0.0000
 40
0.0100
 41
0.0100
  0
VERTEX
  8
LPF120_SST
 10
9.3023
 20
1.5154
 30
0.0000
 42
0.0242619
  0
VERTEX
  8
LPF120_SST
 10
9.2949955
 20
1.5150454
 30
0.0000
 42
0.0000
  0
SEQEND
  0
POLYLINE
  8
LPF120_SST
 66
1
 10
0.0000
 20
0.0000
 30
0.0000
 40
0.0100
 41
0.0100
  0
VERTEX
  8
LPF120_SST
 10
9.3777
 20
1.4400
 30
0.0000
 42
0.4142136
  0
VERTEX
  8
LPF120_SST
 10
9.3023
 20
1.5154
 30
0.0000
 42
0.0000
  0
SEQEND
  0
POLYLINE
  8
LPF120_SST
 66
1
 10
0.0000
 20
0.0000
 30
0.0000
 40
0.0100
 41
0.0100
  0
VERTEX
  8
LPF120_SST
 10
9.3023
 20
1.3646
 30
0.0000
 42
0.4142136
  0
VERTEX
  8
LPF120_SST
 10
9.3777
 20
1.4400
 30
0.0000
 42
0.0000
  0
SEQEND
  0
POLYLINE
  8
LPF120_SST
 66
1
 10
0.0000
 20
0.0000
 30
0.0000
 40
0.0100
 41
0.0100
  0
VERTEX
  8
LPF120_SST
 10
9.2950
 20
1.3650
 30
0.0000
 42
0.0242617
  0
VERTEX
  8
LPF120_SST
 10
9.3023
 20
1.3646456
 30
0.0000
 42
0.0000
  0
SEQEND
  0
POLYLINE
  8
LPF120_SST
 66
1
 10
0.0000
 20
0.0000
 30
0.0000
 40
0.0100
 41
0.0100
  0
VERTEX
  8
LPF120_SST
 10
9.3023
 20
1.6654
 30
0.0000
 42
0.0242619
  0
VERTEX
  8
LPF120_SST
 10
9.2949955
 20
1.6650454
 30
0.0000
 42
0.0000
  0
SEQEND
  0
POLYLINE
  8
LPF120_SST
 66
1
 10
0.0000
 20
0.0000
 30
0.0000
 40
0.0100
 41
0.0100
  0
VERTEX
  8
LPF120_SST
 10
9.3777
 20
1.5900
 30
0.0000
 42
0.4142136
  0
VERTEX
  8
LPF120_SST
 10
9.3023
 20
1.6654
 30
0.0000
 42
0.0000
  0
SEQEND
  0
POLYLINE
  8
LPF120_SST
 66
1
 10
0.0000
 20
0.0000
 30
0.0000
 40
0.0100
 41
0.0100
  0
VERTEX
  8
LPF120_SST
 10
9.3023
 20
1.5146
 30
0.0000
 42
0.4142136
  0
VERTEX
  8
LPF120_SST
 10
9.3777
 20
1.5900
 30
0.0000
 42
0.0000
  0
SEQEND
  0
POLYLINE
  8
LPF120_SST
 66
1
 10
0.0000
 20
0.0000
 30
0.0000
 40
0.0100
 41
0.0100
  0
VERTEX
  8
LPF120_SST
 10
9.2950
 20
1.5150
 30
0.0000
 42
0.0242617
  0
VERTEX
  8
LPF120_SST
 10
9.3023
 20
1.5146456
 30
0.0000
 42
0.0000
  0
SEQEND
  0
POLYLINE
  8
LPF120_SST
 66
1
 10
0.0000
 20
0.0000
 30
0.0000
 40
0.0100
 41
0.0100
  0
VERTEX
  8
LPF120_SST
 10
9.3073
 20
1.8154
 30
0.0000
 42
0.0242619
  0
VERTEX
  8
LPF120_SST
 10
9.2999955
 20
1.8150454
 30
0.0000
 42
0.0000
  0
SEQEND
  0
POLYLINE
  8
LPF120_SST
 66
1
 10
0.0000
 20
0.0000
 30
0.0000
 40
0.0100
 41
0.0100
  0
VERTEX
  8
LPF120_SST
 10
9.3827
 20
1.7400
 30
0.0000
 42
0.4142136
  0
VERTEX
  8
LPF120_SST
 10
9.3073
 20
1.8154
 30
0.0000
 42
0.0000
  0
SEQEND
  0
POLYLINE
  8
LPF120_SST
 66
1
 10
0.0000
 20
0.0000
 30
0.0000
 40
0.0100
 41
0.0100
  0
VERTEX
  8
LPF120_SST
 10
9.3073
 20
1.6646
 30
0.0000
 42
0.4142136
  0
VERTEX
  8
LPF120_SST
 10
9.3827
 20
1.7400
 30
0.0000
 42
0.0000
  0
SEQEND
  0
POLYLINE
  8
LPF120_SST
 66
1
 10
0.0000
 20
0.0000
 30
0.0000
 40
0.0100
 41
0.0100
  0
VERTEX
  8
LPF120_SST
 10
9.3000
 20
1.6650
 30
0.0000
 42
0.0242617
  0
VERTEX
  8
LPF120_SST
 10
9.3073
 20
1.6646456
 30
0.0000
 42
0.0000
  0
SEQEND
  0
POLYLINE
  8
LPF120_SST
 66
1
 10
0.0000
 20
0.0000
 30
0.0000
 40
0.0100
 41
0.0100
  0
VERTEX
  8
LPF120_SST
 10
1.7173
 20
1.4004
 30
0.0000
 42
0.0242619
  0
VERTEX
  8
LPF120_SST
 10
1.7099955
 20
1.4000454
 30
0.0000
 42
0.0000
  0
SEQEND
  0
POLYLINE
  8
LPF120_SST
 66
1
 10
0.0000
 20
0.0000
 30
0.0000
 40
0.0100
 41
0.0100
  0
VERTEX
  8
LPF120_SST
 10
1.7927
 20
1.3250
 30
0.0000
 42
0.4142136
  0
VERTEX
  8
LPF120_SST
 10
1.7173
 20
1.4004
 30
0.0000
 42
0.0000
  0
SEQEND
  0
POLYLINE
  8
LPF120_SST
 66
1
 10
0.0000
 20
0.0000
 30
0.0000
 40
0.0100
 41
0.0100
  0
VERTEX
  8
LPF120_SST
 10
1.7173
 20
1.2496
 30
0.0000
 42
0.4142136
  0
VERTEX
  8
LPF120_SST
 10
1.7927
 20
1.3250
 30
0.0000
 42
0.0000
  0
SEQEND
  0
POLYLINE
  8
LPF120_SST
 66
1
 10
0.0000
 20
0.0000
 30
0.0000
 40
0.0100
 41
0.0100
  0
VERTEX
  8
LPF120_SST
 10
1.7100
 20
1.2500
 30
0.0000
 42
0.0242617
  0
VERTEX
  8
LPF120_SST
 10
1.7173
 20
1.2496456
 30
0.0000
 42
0.0000
  0
SEQEND
  0
POLYLINE
  8
LPF120_SST
 66
1
 10
0.0000
 20
0.0000
 30
0.0000
 40
0.0100
 41
0.0100
  0
VERTEX
  8
LPF120_SST
 10
1.7223
 20
1.5504
 30
0.0000
 42
0.0242619
  0
VERTEX
  8
LPF120_SST
 10
1.7149955
 20
1.5500454
 30
0.0000
 42
0.0000
  0
SEQEND
  0
POLYLINE
  8
LPF120_SST
 66
1
 10
0.0000
 20
0.0000
 30
0.0000
 40
0.0100
 41
0.0100
  0
VERTEX
  8
LPF120_SST
 10
1.7977
 20
1.4750
 30
0.0000
 42
0.4142136
  0
VERTEX
  8
LPF120_SST
 10
1.7223
 20
1.5504
 30
0.0000
 42
0.0000
  0
SEQEND
  0
POLYLINE
  8
LPF120_SST
 66
1
 10
0.0000
 20
0.0000
 30
0.0000
 40
0.0100
 41
0.0100
  0
VERTEX
  8
LPF120_SST
 10
1.7223
 20
1.3996
 30
0.0000
 42
0.4142136
  0
VERTEX
  8
LPF120_SST
 10
1.7977
 20
1.4750
 30
0.0000
 42
0.0000
  0
SEQEND
  0
POLYLINE
  8
LPF120_SST
 66
1
 10
0.0000
 20
0.0000
 30
0.0000
 40
0.0100
 41
0.0100
  0
VERTEX
  8
LPF120_SST
 10
1.7150
 20
1.4000
 30
0.0000
 42
0.0242617
  0
VERTEX
  8
LPF120_SST
 10
1.7223
 20
1.3996456
 30
0.0000
 42
0.0000
  0
SEQEND
  0
POLYLINE
  8
LPF120_SST
 66
1
 10
0.0000
 20
0.0000
 30
0.0000
 40
0.0100
 41
0.0100
  0
VERTEX
  8
LPF120_SST
 10
1.7223
 20
1.7004
 30
0.0000
 42
0.0242619
  0
VERTEX
  8
LPF120_SST
 10
1.7149955
 20
1.7000454
 30
0.0000
 42
0.0000
  0
SEQEND
  0
POLYLINE
  8
LPF120_SST
 66
1
 10
0.0000
 20
0.0000
 30
0.0000
 40
0.0100
 41
0.0100
  0
VERTEX
  8
LPF120_SST
 10
1.7977
 20
1.6250
 30
0.0000
 42
0.4142136
  0
VERTEX
  8
LPF120_SST
 10
1.7223
 20
1.7004
 30
0.0000
 42
0.0000
  0
SEQEND
  0
POLYLINE
  8
LPF120_SST
 66
1
 10
0.0000
 20
0.0000
 30
0.0000
 40
0.0100
 41
0.0100
  0
VERTEX
  8
LPF120_SST
 10
1.7223
 20
1.5496
 30
0.0000
 42
0.4142136
  0
VERTEX
  8
LPF120_SST
 10
1.7977
 20
1.6250
 30
0.0000
 42
0.0000
  0
SEQEND
  0
POLYLINE
  8
LPF120_SST
 66
1
 10
0.0000
 20
0.0000
 30
0.0000
 40
0.0100
 41
0.0100
  0
VERTEX
  8
LPF120_SST
 10
1.7150
 20
1.5500
 30
0.0000
 42
0.0242617
  0
VERTEX
  8
LPF120_SST
 10
1.7223
 20
1.5496456
 30
0.0000
 42
0.0000
  0
SEQEND
  0
POLYLINE
  8
LPF120_SST
 66
1
 10
0.0000
 20
0.0000
 30
0.0000
 40
0.0100
 41
0.0100
  0
VERTEX
  8
LPF120_SST
 10
1.7273
 20
1.8504
 30
0.0000
 42
0.0242619
  0
VERTEX
  8
LPF120_SST
 10
1.7199955
 20
1.8500454
 30
0.0000
 42
0.0000
  0
SEQEND
  0
POLYLINE
  8
LPF120_SST
 66
1
 10
0.0000
 20
0.0000
 30
0.0000
 40
0.0100
 41
0.0100
  0
VERTEX
  8
LPF120_SST
 10
1.8027
 20
1.7750
 30
0.0000
 42
0.4142136
  0
VERTEX
  8
LPF120_SST
 10
1.7273
 20
1.8504
 30
0.0000
 42
0.0000
  0
SEQEND
  0
POLYLINE
  8
LPF120_SST
 66
1
 10
0.0000
 20
0.0000
 30
0.0000
 40
0.0100
 41
0.0100
  0
VERTEX
  8
LPF120_SST
 10
1.7273
 20
1.6996
 30
0.0000
 42
0.4142136
  0
VERTEX
  8
LPF120_SST
 10
1.8027
 20
1.7750
 30
0.0000
 42
0.0000
  0
SEQEND
  0
POLYLINE
  8
LPF120_SST
 66
1
 10
0.0000
 20
0.0000
 30
0.0000
 40
0.0100
 41
0.0100
  0
VERTEX
  8
LPF120_SST
 10
1.7200
 20
1.7000
 30
0.0000
 42
0.0242617
  0
VERTEX
  8
LPF120_SST
 10
1.7273
 20
1.6996456
 30
0.0000
 42
0.0000
  0
SEQEND
  0
POLYLINE
  8
LPF120_SST
 66
1
 10
0.0000
 20
0.0000
 30
0.0000
 40
0.0100
 41
0.0100
  0
VERTEX
  8
LPF120_SST
 10
4.2473
 20
1.7904
 30
0.0000
 42
0.0242619
  0
VERTEX
  8
LPF120_SST
 10
4.2399955
 20
1.7900454
 30
0.0000
 42
0.0000
  0
SEQEND
  0
POLYLINE
  8
LPF120_SST
 66
1
 10
0.0000
 20
0.0000
 30
0.0000
 40
0.0100
 41
0.0100
  0
VERTEX
  8
LPF120_SST
 10
4.3227
 20
1.7150
 30
0.0000
 42
0.4142136
  0
VERTEX
  8
LPF120_SST
 10
4.2473
 20
1.7904
 30
0.0000
 42
0.0000
  0
SEQEND
  0
POLYLINE
  8
LPF120_SST
 66
1
 10
0.0000
 20
0.0000
 30
0.0000
 40
0.0100
 41
0.0100
  0
VERTEX
  8
LPF120_SST
 10
4.2473
 20
1.6396
 30
0.0000
 42
0.4142136
  0
VERTEX
  8
LPF120_SST
 10
4.3227
 20
1.7150
 30
0.0000
 42
0.0000
  0
SEQEND
  0
POLYLINE
  8
LPF120_SST
 66
1
 10
0.0000
 20
0.0000
 30
0.0000
 40
0.0100
 41
0.0100
  0
VERTEX
  8
LPF120_SST
 10
4.2400
 20
1.6400
 30
0.0000
 42
0.0242617
  0
VERTEX
  8
LPF120_SST
 10
4.2473
 20
1.6396456
 30
0.0000
 42
0.0000
  0
SEQEND
  0
POLYLINE
  8
LPF120_SST
 66
1
 10
0.0000
 20
0.0000
 30
0.0000
 40
0.0100
 41
0.0100
  0
VERTEX
  8
LPF120_SST
 10
4.2423
 20
1.3404
 30
0.0000
 42
0.0242619
  0
VERTEX
  8
LPF120_SST
 10
4.2349955
 20
1.3400454
 30
0.0000
 42
0.0000
  0
SEQEND
  0
POLYLINE
  8
LPF120_SST
 66
1
 10
0.0000
 20
0.0000
 30
0.0000
 40
0.0100
 41
0.0100
  0
VERTEX
  8
LPF120_SST
 10
4.3177
 20
1.2650
 30
0.0000
 42
0.4142136
  0
VERTEX
  8
LPF120_SST
 10
4.2423
 20
1.3404
 30
0.0000
 42
0.0000
  0
SEQEND
  0
POLYLINE
  8
LPF120_SST
 66
1
 10
0.0000
 20
0.0000
 30
0.0000
 40
0.0100
 41
0.0100
  0
VERTEX
  8
LPF120_SST
 10
4.2423
 20
1.1896
 30
0.0000
 42
0.4142136
  0
VERTEX
  8
LPF120_SST
 10
4.3177
 20
1.2650
 30
0.0000
 42
0.0000
  0
SEQEND
  0
POLYLINE
  8
LPF120_SST
 66
1
 10
0.0000
 20
0.0000
 30
0.0000
 40
0.0100
 41
0.0100
  0
VERTEX
  8
LPF120_SST
 10
4.2350
 20
1.1900
 30
0.0000
 42
0.0242617
  0
VERTEX
  8
LPF120_SST
 10
4.2423
 20
1.1896456
 30
0.0000
 42
0.0000
  0
SEQEND
  0
POLYLINE
  8
LPF120_SST
 66
1
 10
0.0000
 20
0.0000
 30
0.0000
 40
0.0100
 41
0.0100
  0
VERTEX
  8
LPF120_SST
 10
4.2473
 20
1.4904
 30
0.0000
 42
0.0242619
  0
VERTEX
  8
LPF120_SST
 10
4.2399955
 20
1.4900454
 30
0.0000
 42
0.0000
  0
SEQEND
  0
POLYLINE
  8
LPF120_SST
 66
1
 10
0.0000
 20
0.0000
 30
0.0000
 40
0.0100
 41
0.0100
  0
VERTEX
  8
LPF120_SST
 10
4.3227
 20
1.4150
 30
0.0000
 42
0.4142136
  0
VERTEX
  8
LPF120_SST
 10
4.2473
 20
1.4904
 30
0.0000
 42
0.0000
  0
SEQEND
  0
POLYLINE
  8
LPF120_SST
 66
1
 10
0.0000
 20
0.0000
 30
0.0000
 40
0.0100
 41
0.0100
  0
VERTEX
  8
LPF120_SST
 10
4.2473
 20
1.3396
 30
0.0000
 42
0.4142136
  0
VERTEX
  8
LPF120_SST
 10
4.3227
 20
1.4150
 30
0.0000
 42
0.0000
  0
SEQEND
  0
POLYLINE
  8
LPF120_SST
 66
1
 10
0.0000
 20
0.0000
 30
0.0000
 40
0.0100
 41
0.0100
  0
VERTEX
  8
LPF120_SST
 10
4.2400
 20
1.3400
 30
0.0000
 42
0.0242617
  0
VERTEX
  8
LPF120_SST
 10
4.2473
 20
1.3396456
 30
0.0000
 42
0.0000
  0
SEQEND
  0
POLYLINE
  8
LPF120_SST
 66
1
 10
0.0000
 20
0.0000
 30
0.0000
 40
0.0100
 41
0.0100
  0
VERTEX
  8
LPF120_SST
 10
4.2473
 20
1.6404
 30
0.0000
 42
0.0242619
  0
VERTEX
  8
LPF120_SST
 10
4.2399955
 20
1.6400454
 30
0.0000
 42
0.0000
  0
SEQEND
  0
POLYLINE
  8
LPF120_SST
 66
1
 10
0.0000
 20
0.0000
 30
0.0000
 40
0.0100
 41
0.0100
  0
VERTEX
  8
LPF120_SST
 10
4.3227
 20
1.5650
 30
0.0000
 42
0.4142136
  0
VERTEX
  8
LPF120_SST
 10
4.2473
 20
1.6404
 30
0.0000
 42
0.0000
  0
SEQEND
  0
POLYLINE
  8
LPF120_SST
 66
1
 10
0.0000
 20
0.0000
 30
0.0000
 40
0.0100
 41
0.0100
  0
VERTEX
  8
LPF120_SST
 10
4.2473
 20
1.4896
 30
0.0000
 42
0.4142136
  0
VERTEX
  8
LPF120_SST
 10
4.3227
 20
1.5650
 30
0.0000
 42
0.0000
  0
SEQEND
  0
POLYLINE
  8
LPF120_SST
 66
1
 10
0.0000
 20
0.0000
 30
0.0000
 40
0.0100
 41
0.0100
  0
VERTEX
  8
LPF120_SST
 10
4.2400
 20
1.4900
 30
0.0000
 42
0.0242617
  0
VERTEX
  8
LPF120_SST
 10
4.2473
 20
1.4896456
 30
0.0000
 42
0.0000
  0
SEQEND
  0
POLYLINE
  8
LPF120_SST
 66
1
 10
0.0000
 20
0.0000
 30
0.0000
 40
0.0100
 41
0.0100
  0
VERTEX
  8
LPF120_SST
 10
4.2473
 20
1.9404
 30
0.0000
 42
0.0242619
  0
VERTEX
  8
LPF120_SST
 10
4.2399955
 20
1.9400454
 30
0.0000
 42
0.0000
  0
SEQEND
  0
POLYLINE
  8
LPF120_SST
 66
1
 10
0.0000
 20
0.0000
 30
0.0000
 40
0.0100
 41
0.0100
  0
VERTEX
  8
LPF120_SST
 10
4.3227
 20
1.8650
 30
0.0000
 42
0.4142136
  0
VERTEX
  8
LPF120_SST
 10
4.2473
 20
1.9404
 30
0.0000
 42
0.0000
  0
SEQEND
  0
POLYLINE
  8
LPF120_SST
 66
1
 10
0.0000
 20
0.0000
 30
0.0000
 40
0.0100
 41
0.0100
  0
VERTEX
  8
LPF120_SST
 10
4.2473
 20
1.7896
 30
0.0000
 42
0.4142136
  0
VERTEX
  8
LPF120_SST
 10
4.3227
 20
1.8650
 30
0.0000
 42
0.0000
  0
SEQEND
  0
POLYLINE
  8
LPF120_SST
 66
1
 10
0.0000
 20
0.0000
 30
0.0000
 40
0.0100
 41
0.0100
  0
VERTEX
  8
LPF120_SST
 10
4.2400
 20
1.7900
 30
0.0000
 42
0.0242617
  0
VERTEX
  8
LPF120_SST
 10
4.2473
 20
1.7896456
 30
0.0000
 42
0.0000
  0
SEQEND
  0
POLYLINE
  8
LPF120_SST
 66
1
 10
0.0000
 20
0.0000
 30
0.0000
 40
0.0100
 41
0.0100
  0
VERTEX
  8
LPF120_SST
 10
6.7923
 20
1.7754
 30
0.0000
 42
0.0242619
  0
VERTEX
  8
LPF120_SST
 10
6.7849955
 20
1.7750454
 30
0.0000
 42
0.0000
  0
SEQEND
  0
POLYLINE
  8
LPF120_SST
 66
1
 10
0.0000
 20
0.0000
 30
0.0000
 40
0.0100
 41
0.0100
  0
VERTEX
  8
LPF120_SST
 10
6.8677
 20
1.7000
 30
0.0000
 42
0.4142136
  0
VERTEX
  8
LPF120_SST
 10
6.7923
 20
1.7754
 30
0.0000
 42
0.0000
  0
SEQEND
  0
POLYLINE
  8
LPF120_SST
 66
1
 10
0.0000
 20
0.0000
 30
0.0000
 40
0.0100
 41
0.0100
  0
VERTEX
  8
LPF120_SST
 10
6.7923
 20
1.6246
 30
0.0000
 42
0.4142136
  0
VERTEX
  8
LPF120_SST
 10
6.8677
 20
1.7000
 30
0.0000
 42
0.0000
  0
SEQEND
  0
POLYLINE
  8
LPF120_SST
 66
1
 10
0.0000
 20
0.0000
 30
0.0000
 40
0.0100
 41
0.0100
  0
VERTEX
  8
LPF120_SST
 10
6.7850
 20
1.6250
 30
0.0000
 42
0.0242617
  0
VERTEX
  8
LPF120_SST
 10
6.7923
 20
1.6246456
 30
0.0000
 42
0.0000
  0
SEQEND
  0
POLYLINE
  8
LPF120_SST
 66
1
 10
0.0000
 20
0.0000
 30
0.0000
 40
0.0100
 41
0.0100
  0
VERTEX
  8
LPF120_SST
 10
6.7873
 20
1.3254
 30
0.0000
 42
0.0242619
  0
VERTEX
  8
LPF120_SST
 10
6.7799955
 20
1.3250454
 30
0.0000
 42
0.0000
  0
SEQEND
  0
POLYLINE
  8
LPF120_SST
 66
1
 10
0.0000
 20
0.0000
 30
0.0000
 40
0.0100
 41
0.0100
  0
VERTEX
  8
LPF120_SST
 10
6.8627
 20
1.2500
 30
0.0000
 42
0.4142136
  0
VERTEX
  8
LPF120_SST
 10
6.7873
 20
1.3254
 30
0.0000
 42
0.0000
  0
SEQEND
  0
POLYLINE
  8
LPF120_SST
 66
1
 10
0.0000
 20
0.0000
 30
0.0000
 40
0.0100
 41
0.0100
  0
VERTEX
  8
LPF120_SST
 10
6.7873
 20
1.1746
 30
0.0000
 42
0.4142136
  0
VERTEX
  8
LPF120_SST
 10
6.8627
 20
1.2500
 30
0.0000
 42
0.0000
  0
SEQEND
  0
POLYLINE
  8
LPF120_SST
 66
1
 10
0.0000
 20
0.0000
 30
0.0000
 40
0.0100
 41
0.0100
  0
VERTEX
  8
LPF120_SST
 10
6.7800
 20
1.1750
 30
0.0000
 42
0.0242617
  0
VERTEX
  8
LPF120_SST
 10
6.7873
 20
1.1746456
 30
0.0000
 42
0.0000
  0
SEQEND
  0
POLYLINE
  8
LPF120_SST
 66
1
 10
0.0000
 20
0.0000
 30
0.0000
 40
0.0100
 41
0.0100
  0
VERTEX
  8
LPF120_SST
 10
6.7923
 20
1.4754
 30
0.0000
 42
0.0242619
  0
VERTEX
  8
LPF120_SST
 10
6.7849955
 20
1.4750454
 30
0.0000
 42
0.0000
  0
SEQEND
  0
POLYLINE
  8
LPF120_SST
 66
1
 10
0.0000
 20
0.0000
 30
0.0000
 40
0.0100
 41
0.0100
  0
VERTEX
  8
LPF120_SST
 10
6.8677
 20
1.4000
 30
0.0000
 42
0.4142136
  0
VERTEX
  8
LPF120_SST
 10
6.7923
 20
1.4754
 30
0.0000
 42
0.0000
  0
SEQEND
  0
POLYLINE
  8
LPF120_SST
 66
1
 10
0.0000
 20
0.0000
 30
0.0000
 40
0.0100
 41
0.0100
  0
VERTEX
  8
LPF120_SST
 10
6.7923
 20
1.3246
 30
0.0000
 42
0.4142136
  0
VERTEX
  8
LPF120_SST
 10
6.8677
 20
1.4000
 30
0.0000
 42
0.0000
  0
SEQEND
  0
POLYLINE
  8
LPF120_SST
 66
1
 10
0.0000
 20
0.0000
 30
0.0000
 40
0.0100
 41
0.0100
  0
VERTEX
  8
LPF120_SST
 10
6.7850
 20
1.3250
 30
0.0000
 42
0.0242617
  0
VERTEX
  8
LPF120_SST
 10
6.7923
 20
1.3246456
 30
0.0000
 42
0.0000
  0
SEQEND
  0
POLYLINE
  8
LPF120_SST
 66
1
 10
0.0000
 20
0.0000
 30
0.0000
 40
0.0100
 41
0.0100
  0
VERTEX
  8
LPF120_SST
 10
6.7923
 20
1.6254
 30
0.0000
 42
0.0242619
  0
VERTEX
  8
LPF120_SST
 10
6.7849955
 20
1.6250454
 30
0.0000
 42
0.0000
  0
SEQEND
  0
POLYLINE
  8
LPF120_SST
 66
1
 10
0.0000
 20
0.0000
 30
0.0000
 40
0.0100
 41
0.0100
  0
VERTEX
  8
LPF120_SST
 10
6.8677
 20
1.5500
 30
0.0000
 42
0.4142136
  0
VERTEX
  8
LPF120_SST
 10
6.7923
 20
1.6254
 30
0.0000
 42
0.0000
  0
SEQEND
  0
POLYLINE
  8
LPF120_SST
 66
1
 10
0.0000
 20
0.0000
 30
0.0000
 40
0.0100
 41
0.0100
  0
VERTEX
  8
LPF120_SST
 10
6.7923
 20
1.4746
 30
0.0000
 42
0.4142136
  0
VERTEX
  8
LPF120_SST
 10
6.8677
 20
1.5500
 30
0.0000
 42
0.0000
  0
SEQEND
  0
POLYLINE
  8
LPF120_SST
 66
1
 10
0.0000
 20
0.0000
 30
0.0000
 40
0.0100
 41
0.0100
  0
VERTEX
  8
LPF120_SST
 10
6.7850
 20
1.4750
 30
0.0000
 42
0.0242617
  0
VERTEX
  8
LPF120_SST
 10
6.7923
 20
1.4746456
 30
0.0000
 42
0.0000
  0
SEQEND
  0
POLYLINE
  8
LPF120_SST
 66
1
 10
0.0000
 20
0.0000
 30
0.0000
 40
0.0100
 41
0.0100
  0
VERTEX
  8
LPF120_SST
 10
6.7923
 20
1.9254
 30
0.0000
 42
0.0242619
  0
VERTEX
  8
LPF120_SST
 10
6.7849955
 20
1.9250454
 30
0.0000
 42
0.0000
  0
SEQEND
  0
POLYLINE
  8
LPF120_SST
 66
1
 10
0.0000
 20
0.0000
 30
0.0000
 40
0.0100
 41
0.0100
  0
VERTEX
  8
LPF120_SST
 10
6.8677
 20
1.8500
 30
0.0000
 42
0.4142136
  0
VERTEX
  8
LPF120_SST
 10
6.7923
 20
1.9254
 30
0.0000
 42
0.0000
  0
SEQEND
  0
POLYLINE
  8
LPF120_SST
 66
1
 10
0.0000
 20
0.0000
 30
0.0000
 40
0.0100
 41
0.0100
  0
VERTEX
  8
LPF120_SST
 10
6.7923
 20
1.7746
 30
0.0000
 42
0.4142136
  0
VERTEX
  8
LPF120_SST
 10
6.8677
 20
1.8500
 30
0.0000
 42
0.0000
  0
SEQEND
  0
POLYLINE
  8
LPF120_SST
 66
1
 10
0.0000
 20
0.0000
 30
0.0000
 40
0.0100
 41
0.0100
  0
VERTEX
  8
LPF120_SST
 10
6.7850
 20
1.7750
 30
0.0000
 42
0.0242617
  0
VERTEX
  8
LPF120_SST
 10
6.7923
 20
1.7746456
 30
0.0000
 42
0.0000
  0
SEQEND
  0
POLYLINE
  8
LPF120_SST
 66
1
 10
0.0000
 20
0.0000
 30
0.0000
 40
0.0100
 41
0.0100
  0
VERTEX
  8
LPF120_SST
 10
9.2973
 20
1.3654
 30
0.0000
 42
0.0242619
  0
VERTEX
  8
LPF120_SST
 10
9.2899955
 20
1.3650454
 30
0.0000
 42
0.0000
  0
SEQEND
  0
POLYLINE
  8
LPF120_SST
 66
1
 10
0.0000
 20
0.0000
 30
0.0000
 40
0.0100
 41
0.0100
  0
VERTEX
  8
LPF120_SST
 10
9.3727
 20
1.2900
 30
0.0000
 42
0.4142136
  0
VERTEX
  8
LPF120_SST
 10
9.2973
 20
1.3654
 30
0.0000
 42
0.0000
  0
SEQEND
  0
POLYLINE
  8
LPF120_SST
 66
1
 10
0.0000
 20
0.0000
 30
0.0000
 40
0.0100
 41
0.0100
  0
VERTEX
  8
LPF120_SST
 10
9.2973
 20
1.2146
 30
0.0000
 42
0.4142136
  0
VERTEX
  8
LPF120_SST
 10
9.3727
 20
1.2900
 30
0.0000
 42
0.0000
  0
SEQEND
  0
POLYLINE
  8
LPF120_SST
 66
1
 10
0.0000
 20
0.0000
 30
0.0000
 40
0.0100
 41
0.0100
  0
VERTEX
  8
LPF120_SST
 10
9.2900
 20
1.2150
 30
0.0000
 42
0.0242617
  0
VERTEX
  8
LPF120_SST
 10
9.2973
 20
1.2146456
 30
0.0000
 42
0.0000
  0
SEQEND
  0
POLYLINE
  8
LPF120_SST
 66
1
 10
0.0000
 20
0.0000
 30
0.0000
 40
0.0080
 41
0.0080
  0
VERTEX
  8
LPF120_SST
 10
8.2435
 20
1.5458
 30
0.0000
  0
VERTEX
  8
LPF120_SST
 10
8.2185
 20
1.5458
 30
0.0000
  0
SEQEND
  0
POLYLINE
  8
LPF120_SST
 66
1
 10
0.0000
 20
0.0000
 30
0.0000
 40
0.0080
 41
0.0080
  0
VERTEX
  8
LPF120_SST
 10
8.2310
 20
1.5208
 30
0.0000
  0
VERTEX
  8
LPF120_SST
 10
8.2310
 20
1.5625
 30
0.0000
  0
VERTEX
  8
LPF120_SST
 10
8.2352
 20
1.5708
 30
0.0000
  0
VERTEX
  8
LPF120_SST
 10
8.2435
 20
1.5708
 30
0.0000
  0
SEQEND
  0
POLYLINE
  8
LPF120_SST
 66
1
 10
0.0000
 20
0.0000
 30
0.0000
 40
0.0080
 41
0.0080
  0
VERTEX
  8
LPF120_SST
 10
8.1691
 20
1.5041
 30
0.0000
  0
VERTEX
  8
LPF120_SST
 10
8.1692
 20
1.5542
 30
0.0000
  0
SEQEND
  0
POLYLINE
  8
LPF120_SST
 66
1
 10
0.0000
 20
0.0000
 30
0.0000
 40
0.0080
 41
0.0080
  0
VERTEX
  8
LPF120_SST
 10
8.1691
 20
1.5542
 30
0.0000
  0
VERTEX
  8
LPF120_SST
 10
8.1941
 20
1.5542
 30
0.0000
  0
VERTEX
  8
LPF120_SST
 10
8.1983
 20
1.5458
 30
0.0000
  0
VERTEX
  8
LPF120_SST
 10
8.1983
 20
1.5291
 30
0.0000
  0
VERTEX
  8
LPF120_SST
 10
8.1941
 20
1.5208
 30
0.0000
  0
VERTEX
  8
LPF120_SST
 10
8.1692
 20
1.5208
 30
0.0000
  0
SEQEND
  0
POLYLINE
  8
LPF120_SST
 66
1
 10
0.0000
 20
0.0000
 30
0.0000
 40
0.0080
 41
0.0080
  0
VERTEX
  8
LPF120_SST
 10
8.1198
 20
1.5458
 30
0.0000
  0
VERTEX
  8
LPF120_SST
 10
8.1448
 20
1.5458
 30
0.0000
  0
VERTEX
  8
LPF120_SST
 10
8.1490
 20
1.5375
 30
0.0000
  0
VERTEX
  8
LPF120_SST
 10
8.1490
 20
1.5291
 30
0.0000
  0
VERTEX
  8
LPF120_SST
 10
8.1448
 20
1.5208
 30
0.0000
  0
VERTEX
  8
LPF120_SST
 10
8.1198
 20
1.5208
 30
0.0000
  0
VERTEX
  8
LPF120_SST
 10
8.1157
 20
1.5291
 30
0.0000
  0
SEQEND
  0
POLYLINE
  8
LPF120_SST
 66
1
 10
0.0000
 20
0.0000
 30
0.0000
 40
0.0080
 41
0.0080
  0
VERTEX
  8
LPF120_SST
 10
8.1156
 20
1.5291
 30
0.0000
  0
VERTEX
  8
LPF120_SST
 10
8.1157
 20
1.5375
 30
0.0000
  0
SEQEND
  0
POLYLINE
  8
LPF120_SST
 66
1
 10
0.0000
 20
0.0000
 30
0.0000
 40
0.0080
 41
0.0080
  0
VERTEX
  8
LPF120_SST
 10
8.1156
 20
1.5375
 30
0.0000
  0
VERTEX
  8
LPF120_SST
 10
8.1323
 20
1.5708
 30
0.0000
  0
SEQEND
  0
POLYLINE
  8
LPF120_SST
 66
1
 10
0.0000
 20
0.0000
 30
0.0000
 40
0.0080
 41
0.0080
  0
VERTEX
  8
LPF120_SST
 10
8.0621
 20
1.5291
 30
0.0000
  0
VERTEX
  8
LPF120_SST
 10
8.0663
 20
1.5208
 30
0.0000
  0
VERTEX
  8
LPF120_SST
 10
8.0913
 20
1.5208
 30
0.0000
  0
VERTEX
  8
LPF120_SST
 10
8.0955
 20
1.5291
 30
0.0000
  0
VERTEX
  8
LPF120_SST
 10
8.0955
 20
1.5458
 30
0.0000
  0
VERTEX
  8
LPF120_SST
 10
8.0871
 20
1.5542
 30
0.0000
  0
VERTEX
  8
LPF120_SST
 10
8.0622
 20
1.5542
 30
0.0000
  0
SEQEND
  0
POLYLINE
  8
LPF120_SST
 66
1
 10
0.0000
 20
0.0000
 30
0.0000
 40
0.0080
 41
0.0080
  0
VERTEX
  8
LPF120_SST
 10
8.0621
 20
1.5542
 30
0.0000
  0
VERTEX
  8
LPF120_SST
 10
8.0622
 20
1.5708
 30
0.0000
  0
SEQEND
  0
POLYLINE
  8
LPF120_SST
 66
1
 10
0.0000
 20
0.0000
 30
0.0000
 40
0.0080
 41
0.0080
  0
VERTEX
  8
LPF120_SST
 10
8.0621
 20
1.5708
 30
0.0000
  0
VERTEX
  8
LPF120_SST
 10
8.0955
 20
1.5708
 30
0.0000
  0
SEQEND
  0
POLYLINE
  8
LPF120_SST
 66
1
 10
0.0000
 20
0.0000
 30
0.0000
 40
0.0080
 41
0.0080
  0
VERTEX
  8
LPF120_SST
 10
5.5465
 20
1.5458
 30
0.0000
  0
VERTEX
  8
LPF120_SST
 10
5.5215
 20
1.5458
 30
0.0000
  0
SEQEND
  0
POLYLINE
  8
LPF120_SST
 66
1
 10
0.0000
 20
0.0000
 30
0.0000
 40
0.0080
 41
0.0080
  0
VERTEX
  8
LPF120_SST
 10
5.5340
 20
1.5208
 30
0.0000
  0
VERTEX
  8
LPF120_SST
 10
5.5340
 20
1.5625
 30
0.0000
  0
VERTEX
  8
LPF120_SST
 10
5.5382
 20
1.5708
 30
0.0000
  0
VERTEX
  8
LPF120_SST
 10
5.5465
 20
1.5708
 30
0.0000
  0
SEQEND
  0
POLYLINE
  8
LPF120_SST
 66
1
 10
0.0000
 20
0.0000
 30
0.0000
 40
0.0080
 41
0.0080
  0
VERTEX
  8
LPF120_SST
 10
5.4721
 20
1.5041
 30
0.0000
  0
VERTEX
  8
LPF120_SST
 10
5.4722
 20
1.5542
 30
0.0000
  0
SEQEND
  0
POLYLINE
  8
LPF120_SST
 66
1
 10
0.0000
 20
0.0000
 30
0.0000
 40
0.0080
 41
0.0080
  0
VERTEX
  8
LPF120_SST
 10
5.4721
 20
1.5542
 30
0.0000
  0
VERTEX
  8
LPF120_SST
 10
5.4971
 20
1.5542
 30
0.0000
  0
VERTEX
  8
LPF120_SST
 10
5.5013
 20
1.5458
 30
0.0000
  0
VERTEX
  8
LPF120_SST
 10
5.5013
 20
1.5291
 30
0.0000
  0
VERTEX
  8
LPF120_SST
 10
5.4971
 20
1.5208
 30
0.0000
  0
VERTEX
  8
LPF120_SST
 10
5.4722
 20
1.5208
 30
0.0000
  0
SEQEND
  0
POLYLINE
  8
LPF120_SST
 66
1
 10
0.0000
 20
0.0000
 30
0.0000
 40
0.0080
 41
0.0080
  0
VERTEX
  8
LPF120_SST
 10
5.4228
 20
1.5458
 30
0.0000
  0
VERTEX
  8
LPF120_SST
 10
5.4478
 20
1.5458
 30
0.0000
  0
VERTEX
  8
LPF120_SST
 10
5.4520
 20
1.5375
 30
0.0000
  0
VERTEX
  8
LPF120_SST
 10
5.4520
 20
1.5291
 30
0.0000
  0
VERTEX
  8
LPF120_SST
 10
5.4478
 20
1.5208
 30
0.0000
  0
VERTEX
  8
LPF120_SST
 10
5.4228
 20
1.5208
 30
0.0000
  0
VERTEX
  8
LPF120_SST
 10
5.4187
 20
1.5291
 30
0.0000
  0
SEQEND
  0
POLYLINE
  8
LPF120_SST
 66
1
 10
0.0000
 20
0.0000
 30
0.0000
 40
0.0080
 41
0.0080
  0
VERTEX
  8
LPF120_SST
 10
5.4186
 20
1.5291
 30
0.0000
  0
VERTEX
  8
LPF120_SST
 10
5.4187
 20
1.5375
 30
0.0000
  0
SEQEND
  0
POLYLINE
  8
LPF120_SST
 66
1
 10
0.0000
 20
0.0000
 30
0.0000
 40
0.0080
 41
0.0080
  0
VERTEX
  8
LPF120_SST
 10
5.4186
 20
1.5375
 30
0.0000
  0
VERTEX
  8
LPF120_SST
 10
5.4353
 20
1.5708
 30
0.0000
  0
SEQEND
  0
POLYLINE
  8
LPF120_SST
 66
1
 10
0.0000
 20
0.0000
 30
0.0000
 40
0.0080
 41
0.0080
  0
VERTEX
  8
LPF120_SST
 10
5.3651
 20
1.5291
 30
0.0000
  0
VERTEX
  8
LPF120_SST
 10
5.3693
 20
1.5208
 30
0.0000
  0
VERTEX
  8
LPF120_SST
 10
5.3943
 20
1.5208
 30
0.0000
  0
VERTEX
  8
LPF120_SST
 10
5.3985
 20
1.5291
 30
0.0000
  0
VERTEX
  8
LPF120_SST
 10
5.3985
 20
1.5458
 30
0.0000
  0
VERTEX
  8
LPF120_SST
 10
5.3901
 20
1.5542
 30
0.0000
  0
VERTEX
  8
LPF120_SST
 10
5.3652
 20
1.5542
 30
0.0000
  0
SEQEND
  0
POLYLINE
  8
LPF120_SST
 66
1
 10
0.0000
 20
0.0000
 30
0.0000
 40
0.0080
 41
0.0080
  0
VERTEX
  8
LPF120_SST
 10
5.3651
 20
1.5542
 30
0.0000
  0
VERTEX
  8
LPF120_SST
 10
5.3652
 20
1.5708
 30
0.0000
  0
SEQEND
  0
POLYLINE
  8
LPF120_SST
 66
1
 10
0.0000
 20
0.0000
 30
0.0000
 40
0.0080
 41
0.0080
  0
VERTEX
  8
LPF120_SST
 10
5.3651
 20
1.5708
 30
0.0000
  0
VERTEX
  8
LPF120_SST
 10
5.3985
 20
1.5708
 30
0.0000
  0
SEQEND
  0
POLYLINE
  8
LPF120_SST
 66
1
 10
0.0000
 20
0.0000
 30
0.0000
 40
0.0080
 41
0.0080
  0
VERTEX
  8
LPF120_SST
 10
3.1155
 20
1.5648
 30
0.0000
  0
VERTEX
  8
LPF120_SST
 10
3.0905
 20
1.5648
 30
0.0000
  0
SEQEND
  0
POLYLINE
  8
LPF120_SST
 66
1
 10
0.0000
 20
0.0000
 30
0.0000
 40
0.0080
 41
0.0080
  0
VERTEX
  8
LPF120_SST
 10
3.1030
 20
1.5398
 30
0.0000
  0
VERTEX
  8
LPF120_SST
 10
3.1030
 20
1.5815
 30
0.0000
  0
VERTEX
  8
LPF120_SST
 10
3.1072
 20
1.5898
 30
0.0000
  0
VERTEX
  8
LPF120_SST
 10
3.1155
 20
1.5898
 30
0.0000
  0
SEQEND
  0
POLYLINE
  8
LPF120_SST
 66
1
 10
0.0000
 20
0.0000
 30
0.0000
 40
0.0080
 41
0.0080
  0
VERTEX
  8
LPF120_SST
 10
3.0411
 20
1.5231
 30
0.0000
  0
VERTEX
  8
LPF120_SST
 10
3.0412
 20
1.5732
 30
0.0000
  0
SEQEND
  0
POLYLINE
  8
LPF120_SST
 66
1
 10
0.0000
 20
0.0000
 30
0.0000
 40
0.0080
 41
0.0080
  0
VERTEX
  8
LPF120_SST
 10
3.0411
 20
1.5732
 30
0.0000
  0
VERTEX
  8
LPF120_SST
 10
3.0661
 20
1.5732
 30
0.0000
  0
VERTEX
  8
LPF120_SST
 10
3.0703
 20
1.5648
 30
0.0000
  0
VERTEX
  8
LPF120_SST
 10
3.0703
 20
1.5481
 30
0.0000
  0
VERTEX
  8
LPF120_SST
 10
3.0661
 20
1.5398
 30
0.0000
  0
VERTEX
  8
LPF120_SST
 10
3.0412
 20
1.5398
 30
0.0000
  0
SEQEND
  0
POLYLINE
  8
LPF120_SST
 66
1
 10
0.0000
 20
0.0000
 30
0.0000
 40
0.0080
 41
0.0080
  0
VERTEX
  8
LPF120_SST
 10
2.9918
 20
1.5648
 30
0.0000
  0
VERTEX
  8
LPF120_SST
 10
3.0168
 20
1.5648
 30
0.0000
  0
VERTEX
  8
LPF120_SST
 10
3.0210
 20
1.5565
 30
0.0000
  0
VERTEX
  8
LPF120_SST
 10
3.0210
 20
1.5481
 30
0.0000
  0
VERTEX
  8
LPF120_SST
 10
3.0168
 20
1.5398
 30
0.0000
  0
VERTEX
  8
LPF120_SST
 10
2.9918
 20
1.5398
 30
0.0000
  0
VERTEX
  8
LPF120_SST
 10
2.9877
 20
1.5481
 30
0.0000
  0
SEQEND
  0
POLYLINE
  8
LPF120_SST
 66
1
 10
0.0000
 20
0.0000
 30
0.0000
 40
0.0080
 41
0.0080
  0
VERTEX
  8
LPF120_SST
 10
2.9876
 20
1.5481
 30
0.0000
  0
VERTEX
  8
LPF120_SST
 10
2.9877
 20
1.5565
 30
0.0000
  0
SEQEND
  0
POLYLINE
  8
LPF120_SST
 66
1
 10
0.0000
 20
0.0000
 30
0.0000
 40
0.0080
 41
0.0080
  0
VERTEX
  8
LPF120_SST
 10
2.9876
 20
1.5565
 30
0.0000
  0
VERTEX
  8
LPF120_SST
 10
3.0043
 20
1.5898
 30
0.0000
  0
SEQEND
  0
POLYLINE
  8
LPF120_SST
 66
1
 10
0.0000
 20
0.0000
 30
0.0000
 40
0.0080
 41
0.0080
  0
VERTEX
  8
LPF120_SST
 10
2.9341
 20
1.5481
 30
0.0000
  0
VERTEX
  8
LPF120_SST
 10
2.9383
 20
1.5398
 30
0.0000
  0
VERTEX
  8
LPF120_SST
 10
2.9633
 20
1.5398
 30
0.0000
  0
VERTEX
  8
LPF120_SST
 10
2.9675
 20
1.5481
 30
0.0000
  0
VERTEX
  8
LPF120_SST
 10
2.9675
 20
1.5648
 30
0.0000
  0
VERTEX
  8
LPF120_SST
 10
2.9591
 20
1.5732
 30
0.0000
  0
VERTEX
  8
LPF120_SST
 10
2.9342
 20
1.5732
 30
0.0000
  0
SEQEND
  0
POLYLINE
  8
LPF120_SST
 66
1
 10
0.0000
 20
0.0000
 30
0.0000
 40
0.0080
 41
0.0080
  0
VERTEX
  8
LPF120_SST
 10
2.9341
 20
1.5732
 30
0.0000
  0
VERTEX
  8
LPF120_SST
 10
2.9342
 20
1.5898
 30
0.0000
  0
SEQEND
  0
POLYLINE
  8
LPF120_SST
 66
1
 10
0.0000
 20
0.0000
 30
0.0000
 40
0.0080
 41
0.0080
  0
VERTEX
  8
LPF120_SST
 10
2.9341
 20
1.5898
 30
0.0000
  0
VERTEX
  8
LPF120_SST
 10
2.9675
 20
1.5898
 30
0.0000
  0
SEQEND
  0
POLYLINE
  8
LPF120_SST
 66
1
 10
0.0000
 20
0.0000
 30
0.0000
 40
0.0080
 41
0.0080
  0
VERTEX
  8
LPF120_SST
 10
10.4815
 20
1.5458
 30
0.0000
  0
VERTEX
  8
LPF120_SST
 10
10.4565
 20
1.5458
 30
0.0000
  0
SEQEND
  0
POLYLINE
  8
LPF120_SST
 66
1
 10
0.0000
 20
0.0000
 30
0.0000
 40
0.0080
 41
0.0080
  0
VERTEX
  8
LPF120_SST
 10
10.4690
 20
1.5208
 30
0.0000
  0
VERTEX
  8
LPF120_SST
 10
10.4690
 20
1.5625
 30
0.0000
  0
VERTEX
  8
LPF120_SST
 10
10.4732
 20
1.5708
 30
0.0000
  0
VERTEX
  8
LPF120_SST
 10
10.4815
 20
1.5708
 30
0.0000
  0
SEQEND
  0
POLYLINE
  8
LPF120_SST
 66
1
 10
0.0000
 20
0.0000
 30
0.0000
 40
0.0080
 41
0.0080
  0
VERTEX
  8
LPF120_SST
 10
10.4071
 20
1.5041
 30
0.0000
  0
VERTEX
  8
LPF120_SST
 10
10.4072
 20
1.5542
 30
0.0000
  0
SEQEND
  0
POLYLINE
  8
LPF120_SST
 66
1
 10
0.0000
 20
0.0000
 30
0.0000
 40
0.0080
 41
0.0080
  0
VERTEX
  8
LPF120_SST
 10
10.4071
 20
1.5542
 30
0.0000
  0
VERTEX
  8
LPF120_SST
 10
10.4321
 20
1.5542
 30
0.0000
  0
VERTEX
  8
LPF120_SST
 10
10.4363
 20
1.5458
 30
0.0000
  0
VERTEX
  8
LPF120_SST
 10
10.4363
 20
1.5291
 30
0.0000
  0
VERTEX
  8
LPF120_SST
 10
10.4321
 20
1.5208
 30
0.0000
  0
VERTEX
  8
LPF120_SST
 10
10.4072
 20
1.5208
 30
0.0000
  0
SEQEND
  0
POLYLINE
  8
LPF120_SST
 66
1
 10
0.0000
 20
0.0000
 30
0.0000
 40
0.0080
 41
0.0080
  0
VERTEX
  8
LPF120_SST
 10
10.3620
 20
1.5208
 30
0.0000
  0
VERTEX
  8
LPF120_SST
 10
10.3870
 20
1.5708
 30
0.0000
  0
VERTEX
  8
LPF120_SST
 10
10.3537
 20
1.5708
 30
0.0000
  0
SEQEND
  0
POLYLINE
  8
LPF120_SST
 66
1
 10
0.0000
 20
0.0000
 30
0.0000
 40
0.0080
 41
0.0080
  0
VERTEX
  8
LPF120_SST
 10
10.3335
 20
1.5208
 30
0.0000
  0
VERTEX
  8
LPF120_SST
 10
10.3002
 20
1.5208
 30
0.0000
  0
SEQEND
  0
POLYLINE
  8
LPF120_SST
 66
1
 10
0.0000
 20
0.0000
 30
0.0000
 40
0.0080
 41
0.0080
  0
VERTEX
  8
LPF120_SST
 10
10.3001
 20
1.5208
 30
0.0000
  0
VERTEX
  8
LPF120_SST
 10
10.3335
 20
1.5542
 30
0.0000
  0
VERTEX
  8
LPF120_SST
 10
10.3335
 20
1.5625
 30
0.0000
  0
VERTEX
  8
LPF120_SST
 10
10.3293
 20
1.5708
 30
0.0000
  0
VERTEX
  8
LPF120_SST
 10
10.3043
 20
1.5708
 30
0.0000
  0
VERTEX
  8
LPF120_SST
 10
10.3002
 20
1.5625
 30
0.0000
  0
SEQEND
  0
POLYLINE
  8
LPF120_SST
 66
1
 10
0.0000
 20
0.0000
 30
0.0000
 40
0.0080
 41
0.0080
  0
VERTEX
  8
LPF120_SST
 10
0.9255
 20
1.5468
 30
0.0000
  0
VERTEX
  8
LPF120_SST
 10
0.9005
 20
1.5468
 30
0.0000
  0
SEQEND
  0
POLYLINE
  8
LPF120_SST
 66
1
 10
0.0000
 20
0.0000
 30
0.0000
 40
0.0080
 41
0.0080
  0
VERTEX
  8
LPF120_SST
 10
0.9130
 20
1.5218
 30
0.0000
  0
VERTEX
  8
LPF120_SST
 10
0.9130
 20
1.5635
 30
0.0000
  0
VERTEX
  8
LPF120_SST
 10
0.9172
 20
1.5718
 30
0.0000
  0
VERTEX
  8
LPF120_SST
 10
0.9255
 20
1.5718
 30
0.0000
  0
SEQEND
  0
POLYLINE
  8
LPF120_SST
 66
1
 10
0.0000
 20
0.0000
 30
0.0000
 40
0.0080
 41
0.0080
  0
VERTEX
  8
LPF120_SST
 10
0.8511
 20
1.5051
 30
0.0000
  0
VERTEX
  8
LPF120_SST
 10
0.8512
 20
1.5552
 30
0.0000
  0
SEQEND
  0
POLYLINE
  8
LPF120_SST
 66
1
 10
0.0000
 20
0.0000
 30
0.0000
 40
0.0080
 41
0.0080
  0
VERTEX
  8
LPF120_SST
 10
0.8511
 20
1.5552
 30
0.0000
  0
VERTEX
  8
LPF120_SST
 10
0.8761
 20
1.5552
 30
0.0000
  0
VERTEX
  8
LPF120_SST
 10
0.8803
 20
1.5468
 30
0.0000
  0
VERTEX
  8
LPF120_SST
 10
0.8803
 20
1.5301
 30
0.0000
  0
VERTEX
  8
LPF120_SST
 10
0.8761
 20
1.5218
 30
0.0000
  0
VERTEX
  8
LPF120_SST
 10
0.8512
 20
1.5218
 30
0.0000
  0
SEQEND
  0
POLYLINE
  8
LPF120_SST
 66
1
 10
0.0000
 20
0.0000
 30
0.0000
 40
0.0080
 41
0.0080
  0
VERTEX
  8
LPF120_SST
 10
0.8060
 20
1.5218
 30
0.0000
  0
VERTEX
  8
LPF120_SST
 10
0.8310
 20
1.5718
 30
0.0000
  0
VERTEX
  8
LPF120_SST
 10
0.7977
 20
1.5718
 30
0.0000
  0
SEQEND
  0
POLYLINE
  8
LPF120_SST
 66
1
 10
0.0000
 20
0.0000
 30
0.0000
 40
0.0080
 41
0.0080
  0
VERTEX
  8
LPF120_SST
 10
0.7775
 20
1.5218
 30
0.0000
  0
VERTEX
  8
LPF120_SST
 10
0.7442
 20
1.5218
 30
0.0000
  0
SEQEND
  0
POLYLINE
  8
LPF120_SST
 66
1
 10
0.0000
 20
0.0000
 30
0.0000
 40
0.0080
 41
0.0080
  0
VERTEX
  8
LPF120_SST
 10
0.7441
 20
1.5218
 30
0.0000
  0
VERTEX
  8
LPF120_SST
 10
0.7775
 20
1.5552
 30
0.0000
  0
VERTEX
  8
LPF120_SST
 10
0.7775
 20
1.5635
 30
0.0000
  0
VERTEX
  8
LPF120_SST
 10
0.7733
 20
1.5718
 30
0.0000
  0
VERTEX
  8
LPF120_SST
 10
0.7483
 20
1.5718
 30
0.0000
  0
VERTEX
  8
LPF120_SST
 10
0.7442
 20
1.5635
 30
0.0000
  0
SEQEND
  0
POLYLINE
  8
LPF120_SST
 66
1
 10
0.0000
 20
0.0000
 30
0.0000
 40
0.0080
 41
0.0080
  0
VERTEX
  8
LPF120_SST
 10
5.8026
 20
0.5317
 30
0.0000
  0
VERTEX
  8
LPF120_SST
 10
5.7540
 20
0.5317
 30
0.0000
  0
VERTEX
  8
LPF120_SST
 10
5.7540
 20
0.6150
 30
0.0000
  0
SEQEND
  0
POLYLINE
  8
LPF120_SST
 66
1
 10
0.0000
 20
0.0000
 30
0.0000
 40
0.0080
 41
0.0080
  0
VERTEX
  8
LPF120_SST
 10
5.7172
 20
0.5734
 30
0.0000
  0
VERTEX
  8
LPF120_SST
 10
5.6755
 20
0.5734
 30
0.0000
  0
SEQEND
  0
POLYLINE
  8
LPF120_SST
 66
1
 10
0.0000
 20
0.0000
 30
0.0000
 40
0.0080
 41
0.0080
  0
VERTEX
  8
LPF120_SST
 10
5.6755
 20
0.5317
 30
0.0000
  0
VERTEX
  8
LPF120_SST
 10
5.6755
 20
0.6150
 30
0.0000
  0
VERTEX
  8
LPF120_SST
 10
5.7311
 20
0.6150
 30
0.0000
  0
SEQEND
  0
POLYLINE
  8
LPF120_SST
 66
1
 10
0.0000
 20
0.0000
 30
0.0000
 40
0.0080
 41
0.0080
  0
VERTEX
  8
LPF120_SST
 10
5.5289
 20
0.6150
 30
0.0000
  0
VERTEX
  8
LPF120_SST
 10
5.5289
 20
0.6151
 30
0.0000
  0
VERTEX
  8
LPF120_SST
 10
5.5290
 20
0.6151
 30
0.0000
  0
VERTEX
  8
LPF120_SST
 10
5.5290
 20
0.6150
 30
0.0000
  0
VERTEX
  8
LPF120_SST
 10
5.5289
 20
0.6150
 30
0.0000
  0
SEQEND
  0
POLYLINE
  8
LPF120_SST
 66
1
 10
0.0000
 20
0.0000
 30
0.0000
 40
0.0080
 41
0.0080
  0
VERTEX
  8
LPF120_SST
 10
5.5428
 20
0.5317
 30
0.0000
  0
VERTEX
  8
LPF120_SST
 10
5.5150
 20
0.5317
 30
0.0000
  0
SEQEND
  0
POLYLINE
  8
LPF120_SST
 66
1
 10
0.0000
 20
0.0000
 30
0.0000
 40
0.0080
 41
0.0080
  0
VERTEX
  8
LPF120_SST
 10
5.5289
 20
0.5317
 30
0.0000
  0
VERTEX
  8
LPF120_SST
 10
5.5289
 20
0.5873
 30
0.0000
  0
VERTEX
  8
LPF120_SST
 10
5.5150
 20
0.5873
 30
0.0000
  0
SEQEND
  0
POLYLINE
  8
LPF120_SST
 66
1
 10
0.0000
 20
0.0000
 30
0.0000
 40
0.0080
 41
0.0080
  0
VERTEX
  8
LPF120_SST
 10
5.4574
 20
0.5317
 30
0.0000
  0
VERTEX
  8
LPF120_SST
 10
5.4574
 20
0.5734
 30
0.0000
  0
SEQEND
  0
POLYLINE
  8
LPF120_SST
 66
1
 10
0.0000
 20
0.0000
 30
0.0000
 40
0.0080
 41
0.0080
  0
VERTEX
  8
LPF120_SST
 10
5.4852
 20
0.5317
 30
0.0000
  0
VERTEX
  8
LPF120_SST
 10
5.4852
 20
0.5734
 30
0.0000
  0
VERTEX
  8
LPF120_SST
 10
5.4782
 20
0.5873
 30
0.0000
  0
VERTEX
  8
LPF120_SST
 10
5.4643
 20
0.5873
 30
0.0000
  0
VERTEX
  8
LPF120_SST
 10
5.4574
 20
0.5734
 30
0.0000
  0
VERTEX
  8
LPF120_SST
 10
5.4504
 20
0.5873
 30
0.0000
  0
VERTEX
  8
LPF120_SST
 10
5.4365
 20
0.5873
 30
0.0000
  0
VERTEX
  8
LPF120_SST
 10
5.4296
 20
0.5734
 30
0.0000
  0
VERTEX
  8
LPF120_SST
 10
5.4296
 20
0.5317
 30
0.0000
  0
SEQEND
  0
POLYLINE
  8
LPF120_SST
 66
1
 10
0.0000
 20
0.0000
 30
0.0000
 40
0.0080
 41
0.0080
  0
VERTEX
  8
LPF120_SST
 10
5.3650
 20
0.5873
 30
0.0000
  0
VERTEX
  8
LPF120_SST
 10
5.3928
 20
0.5873
 30
0.0000
  0
VERTEX
  8
LPF120_SST
 10
5.3997
 20
0.5734
 30
0.0000
  0
VERTEX
  8
LPF120_SST
 10
5.3997
 20
0.5456
 30
0.0000
  0
VERTEX
  8
LPF120_SST
 10
5.4067
 20
0.5317
 30
0.0000
  0
VERTEX
  8
LPF120_SST
 10
5.3580
 20
0.5317
 30
0.0000
  0
VERTEX
  8
LPF120_SST
 10
5.3511
 20
0.5456
 30
0.0000
  0
VERTEX
  8
LPF120_SST
 10
5.3580
 20
0.5595
 30
0.0000
  0
VERTEX
  8
LPF120_SST
 10
5.3997
 20
0.5595
 30
0.0000
  0
SEQEND
  0
POLYLINE
  8
LPF120_SST
 66
1
 10
0.0000
 20
0.0000
 30
0.0000
 40
0.0080
 41
0.0080
  0
VERTEX
  8
LPF120_SST
 10
5.3142
 20
0.6150
 30
0.0000
  0
VERTEX
  8
LPF120_SST
 10
5.3142
 20
0.6151
 30
0.0000
  0
VERTEX
  8
LPF120_SST
 10
5.3143
 20
0.6151
 30
0.0000
  0
VERTEX
  8
LPF120_SST
 10
5.3143
 20
0.6150
 30
0.0000
  0
VERTEX
  8
LPF120_SST
 10
5.3142
 20
0.6150
 30
0.0000
  0
SEQEND
  0
POLYLINE
  8
LPF120_SST
 66
1
 10
0.0000
 20
0.0000
 30
0.0000
 40
0.0080
 41
0.0080
  0
VERTEX
  8
LPF120_SST
 10
5.3282
 20
0.5317
 30
0.0000
  0
VERTEX
  8
LPF120_SST
 10
5.3004
 20
0.5317
 30
0.0000
  0
SEQEND
  0
POLYLINE
  8
LPF120_SST
 66
1
 10
0.0000
 20
0.0000
 30
0.0000
 40
0.0080
 41
0.0080
  0
VERTEX
  8
LPF120_SST
 10
5.3143
 20
0.5317
 30
0.0000
  0
VERTEX
  8
LPF120_SST
 10
5.3143
 20
0.5873
 30
0.0000
  0
VERTEX
  8
LPF120_SST
 10
5.3004
 20
0.5873
 30
0.0000
  0
SEQEND
  0
POLYLINE
  8
LPF120_SST
 66
1
 10
0.0000
 20
0.0000
 30
0.0000
 40
0.0080
 41
0.0080
  0
VERTEX
  8
LPF120_SST
 10
5.2705
 20
0.5317
 30
0.0000
  0
VERTEX
  8
LPF120_SST
 10
5.2705
 20
0.6150
 30
0.0000
  0
VERTEX
  8
LPF120_SST
 10
5.2566
 20
0.6012
 30
0.0000
  0
VERTEX
  8
LPF120_SST
 10
5.2427
 20
0.5734
 30
0.0000
  0
VERTEX
  8
LPF120_SST
 10
5.2288
 20
0.6012
 30
0.0000
  0
VERTEX
  8
LPF120_SST
 10
5.2149
 20
0.6150
 30
0.0000
  0
VERTEX
  8
LPF120_SST
 10
5.2149
 20
0.5317
 30
0.0000
  0
SEQEND
  0
POLYLINE
  8
LPF120_SST
 66
1
 10
0.0000
 20
0.0000
 30
0.0000
 40
0.0080
 41
0.0080
  0
VERTEX
  8
LPF120_SST
 10
6.0472
 20
0.8445
 30
0.0000
  0
VERTEX
  8
LPF120_SST
 10
6.0139
 20
0.8445
 30
0.0000
  0
SEQEND
  0
POLYLINE
  8
LPF120_SST
 66
1
 10
0.0000
 20
0.0000
 30
0.0000
 40
0.0080
 41
0.0080
  0
VERTEX
  8
LPF120_SST
 10
6.0472
 20
0.8278
 30
0.0000
  0
VERTEX
  8
LPF120_SST
 10
6.0472
 20
0.8528
 30
0.0000
  0
VERTEX
  8
LPF120_SST
 10
6.0347
 20
0.8778
 30
0.0000
  0
VERTEX
  8
LPF120_SST
 10
6.0264
 20
0.8778
 30
0.0000
  0
VERTEX
  8
LPF120_SST
 10
6.0139
 20
0.8528
 30
0.0000
  0
VERTEX
  8
LPF120_SST
 10
6.0139
 20
0.8278
 30
0.0000
  0
SEQEND
  0
POLYLINE
  8
LPF120_SST
 66
1
 10
0.0000
 20
0.0000
 30
0.0000
 40
0.0080
 41
0.0080
  0
VERTEX
  8
LPF120_SST
 10
5.9215
 20
0.8612
 30
0.0000
  0
VERTEX
  8
LPF120_SST
 10
5.9048
 20
0.8278
 30
0.0000
  0
VERTEX
  8
LPF120_SST
 10
5.8881
 20
0.8612
 30
0.0000
  0
SEQEND
  0
POLYLINE
  8
LPF120_SST
 66
1
 10
0.0000
 20
0.0000
 30
0.0000
 40
0.0080
 41
0.0080
  0
VERTEX
  8
LPF120_SST
 10
5.8638
 20
0.8278
 30
0.0000
  0
VERTEX
  8
LPF120_SST
 10
5.8388
 20
0.8278
 30
0.0000
  0
VERTEX
  8
LPF120_SST
 10
5.8346
 20
0.8361
 30
0.0000
  0
VERTEX
  8
LPF120_SST
 10
5.8346
 20
0.8528
 30
0.0000
  0
VERTEX
  8
LPF120_SST
 10
5.8388
 20
0.8612
 30
0.0000
  0
VERTEX
  8
LPF120_SST
 10
5.8638
 20
0.8612
 30
0.0000
  0
VERTEX
  8
LPF120_SST
 10
5.8680
 20
0.8528
 30
0.0000
  0
VERTEX
  8
LPF120_SST
 10
5.8680
 20
0.8445
 30
0.0000
  0
VERTEX
  8
LPF120_SST
 10
5.8346
 20
0.8445
 30
0.0000
  0
SEQEND
  0
POLYLINE
  8
LPF120_SST
 66
1
 10
0.0000
 20
0.0000
 30
0.0000
 40
0.0080
 41
0.0080
  0
VERTEX
  8
LPF120_SST
 10
5.8020
 20
0.8528
 30
0.0000
  0
VERTEX
  8
LPF120_SST
 10
5.8145
 20
0.8278
 30
0.0000
  0
SEQEND
  0
POLYLINE
  8
LPF120_SST
 66
1
 10
0.0000
 20
0.0000
 30
0.0000
 40
0.0080
 41
0.0080
  0
VERTEX
  8
LPF120_SST
 10
5.7811
 20
0.8528
 30
0.0000
  0
VERTEX
  8
LPF120_SST
 10
5.8061
 20
0.8528
 30
0.0000
  0
VERTEX
  8
LPF120_SST
 10
5.8145
 20
0.8612
 30
0.0000
  0
VERTEX
  8
LPF120_SST
 10
5.8145
 20
0.8695
 30
0.0000
  0
VERTEX
  8
LPF120_SST
 10
5.8061
 20
0.8778
 30
0.0000
  0
VERTEX
  8
LPF120_SST
 10
5.7811
 20
0.8778
 30
0.0000
  0
VERTEX
  8
LPF120_SST
 10
5.7811
 20
0.8278
 30
0.0000
  0
SEQEND
  0
POLYLINE
  8
LPF120_SST
 66
1
 10
0.0000
 20
0.0000
 30
0.0000
 40
0.0080
 41
0.0080
  0
VERTEX
  8
LPF120_SST
 10
5.6679
 20
0.8278
 30
0.0000
  0
VERTEX
  8
LPF120_SST
 10
5.6595
 20
0.8361
 30
0.0000
  0
VERTEX
  8
LPF120_SST
 10
5.6554
 20
0.8445
 30
0.0000
  0
VERTEX
  8
LPF120_SST
 10
5.6554
 20
0.8612
 30
0.0000
  0
VERTEX
  8
LPF120_SST
 10
5.6595
 20
0.8695
 30
0.0000
  0
VERTEX
  8
LPF120_SST
 10
5.6679
 20
0.8778
 30
0.0000
  0
VERTEX
  8
LPF120_SST
 10
5.6762
 20
0.8778
 30
0.0000
  0
VERTEX
  8
LPF120_SST
 10
5.6845
 20
0.8695
 30
0.0000
  0
VERTEX
  8
LPF120_SST
 10
5.6887
 20
0.8612
 30
0.0000
  0
VERTEX
  8
LPF120_SST
 10
5.6887
 20
0.8445
 30
0.0000
  0
VERTEX
  8
LPF120_SST
 10
5.6845
 20
0.8361
 30
0.0000
  0
VERTEX
  8
LPF120_SST
 10
5.6762
 20
0.8278
 30
0.0000
  0
VERTEX
  8
LPF120_SST
 10
5.6679
 20
0.8278
 30
0.0000
  0
SEQEND
  0
POLYLINE
  8
LPF120_SST
 66
1
 10
0.0000
 20
0.0000
 30
0.0000
 40
0.0080
 41
0.0080
  0
VERTEX
  8
LPF120_SST
 10
5.6352
 20
0.8278
 30
0.0000
  0
VERTEX
  8
LPF120_SST
 10
5.6019
 20
0.8278
 30
0.0000
  0
VERTEX
  8
LPF120_SST
 10
5.6352
 20
0.8612
 30
0.0000
  0
VERTEX
  8
LPF120_SST
 10
5.6352
 20
0.8695
 30
0.0000
  0
VERTEX
  8
LPF120_SST
 10
5.6310
 20
0.8778
 30
0.0000
  0
VERTEX
  8
LPF120_SST
 10
5.6060
 20
0.8778
 30
0.0000
  0
VERTEX
  8
LPF120_SST
 10
5.6019
 20
0.8695
 30
0.0000
  0
SEQEND
  0
POLYLINE
  8
LPF120_SST
 66
1
 10
0.0000
 20
0.0000
 30
0.0000
 40
0.0080
 41
0.0080
  0
VERTEX
  8
LPF120_SST
 10
5.5817
 20
0.8278
 30
0.0000
  0
VERTEX
  8
LPF120_SST
 10
5.5651
 20
0.8278
 30
0.0000
  0
SEQEND
  0
POLYLINE
  8
LPF120_SST
 66
1
 10
0.0000
 20
0.0000
 30
0.0000
 40
0.0080
 41
0.0080
  0
VERTEX
  8
LPF120_SST
 10
5.5734
 20
0.8278
 30
0.0000
  0
VERTEX
  8
LPF120_SST
 10
5.5734
 20
0.8778
 30
0.0000
  0
VERTEX
  8
LPF120_SST
 10
5.5651
 20
0.8695
 30
0.0000
  0
SEQEND
  0
POLYLINE
  8
LPF120_SST
 66
1
 10
0.0000
 20
0.0000
 30
0.0000
 40
0.0080
 41
0.0080
  0
VERTEX
  8
LPF120_SST
 10
5.5282
 20
0.8528
 30
0.0000
  0
VERTEX
  8
LPF120_SST
 10
5.5032
 20
0.8528
 30
0.0000
  0
SEQEND
  0
POLYLINE
  8
LPF120_SST
 66
1
 10
0.0000
 20
0.0000
 30
0.0000
 40
0.0080
 41
0.0080
  0
VERTEX
  8
LPF120_SST
 10
5.5032
 20
0.8278
 30
0.0000
  0
VERTEX
  8
LPF120_SST
 10
5.5032
 20
0.8778
 30
0.0000
  0
VERTEX
  8
LPF120_SST
 10
5.5366
 20
0.8778
 30
0.0000
  0
SEQEND
  0
POLYLINE
  8
LPF120_SST
 66
1
 10
0.0000
 20
0.0000
 30
0.0000
 40
0.0080
 41
0.0080
  0
VERTEX
  8
LPF120_SST
 10
5.4497
 20
0.8528
 30
0.0000
  0
VERTEX
  8
LPF120_SST
 10
5.4747
 20
0.8528
 30
0.0000
  0
VERTEX
  8
LPF120_SST
 10
5.4831
 20
0.8612
 30
0.0000
  0
VERTEX
  8
LPF120_SST
 10
5.4831
 20
0.8695
 30
0.0000
  0
VERTEX
  8
LPF120_SST
 10
5.4747
 20
0.8778
 30
0.0000
  0
VERTEX
  8
LPF120_SST
 10
5.4497
 20
0.8778
 30
0.0000
  0
VERTEX
  8
LPF120_SST
 10
5.4497
 20
0.8278
 30
0.0000
  0
SEQEND
  0
POLYLINE
  8
LPF120_SST
 66
1
 10
0.0000
 20
0.0000
 30
0.0000
 40
0.0080
 41
0.0080
  0
VERTEX
  8
LPF120_SST
 10
5.4296
 20
0.8278
 30
0.0000
  0
VERTEX
  8
LPF120_SST
 10
5.4004
 20
0.8278
 30
0.0000
  0
VERTEX
  8
LPF120_SST
 10
5.4004
 20
0.8778
 30
0.0000
  0
SEQEND
  0
POLYLINE
  8
LPF120_SST
 66
1
 10
0.0000
 20
0.0000
 30
0.0000
 40
0.0080
 41
0.0080
  0
VERTEX
  8
LPF120_SST
 10
5.3802
 20
0.8445
 30
0.0000
  0
VERTEX
  8
LPF120_SST
 10
5.3469
 20
0.8445
 30
0.0000
  0
SEQEND
  0
POLYLINE
  8
LPF120_SST
 66
1
 10
0.0000
 20
0.0000
 30
0.0000
 40
0.0080
 41
0.0080
  0
VERTEX
  8
LPF120_SST
 10
5.3802
 20
0.8612
 30
0.0000
  0
VERTEX
  8
LPF120_SST
 10
5.3469
 20
0.8612
 30
0.0000
  0
SEQEND
  0
POLYLINE
  8
LPF120_SST
 66
1
 10
0.0000
 20
0.0000
 30
0.0000
 40
0.0080
 41
0.0080
  0
VERTEX
  8
LPF120_SST
 10
5.3719
 20
0.8278
 30
0.0000
  0
VERTEX
  8
LPF120_SST
 10
5.3719
 20
0.8778
 30
0.0000
  0
SEQEND
  0
POLYLINE
  8
LPF120_SST
 66
1
 10
0.0000
 20
0.0000
 30
0.0000
 40
0.0080
 41
0.0080
  0
VERTEX
  8
LPF120_SST
 10
5.3552
 20
0.8278
 30
0.0000
  0
VERTEX
  8
LPF120_SST
 10
5.3552
 20
0.8778
 30
0.0000
  0
SEQEND
  0
POLYLINE
  8
LPF120_SST
 66
1
 10
0.0000
 20
0.0000
 30
0.0000
 40
0.0080
 41
0.0080
  0
VERTEX
  8
LPF120_SST
 10
5.2253
 20
0.8278
 30
0.0000
  0
VERTEX
  8
LPF120_SST
 10
5.2253
 20
0.8778
 30
0.0000
  0
SEQEND
  0
POLYLINE
  8
LPF120_SST
 66
1
 10
0.0000
 20
0.0000
 30
0.0000
 40
0.0080
 41
0.0080
  0
VERTEX
  8
LPF120_SST
 10
5.2211
 20
0.8278
 30
0.0000
  0
VERTEX
  8
LPF120_SST
 10
5.2461
 20
0.8278
 30
0.0000
  0
VERTEX
  8
LPF120_SST
 10
5.2545
 20
0.8361
 30
0.0000
  0
VERTEX
  8
LPF120_SST
 10
5.2545
 20
0.8445
 30
0.0000
  0
VERTEX
  8
LPF120_SST
 10
5.2503
 20
0.8528
 30
0.0000
  0
SEQEND
  0
POLYLINE
  8
LPF120_SST
 66
1
 10
0.0000
 20
0.0000
 30
0.0000
 40
0.0080
 41
0.0080
  0
VERTEX
  8
LPF120_SST
 10
5.2253
 20
0.8528
 30
0.0000
  0
VERTEX
  8
LPF120_SST
 10
5.2503
 20
0.8528
 30
0.0000
  0
VERTEX
  8
LPF120_SST
 10
5.2545
 20
0.8612
 30
0.0000
  0
VERTEX
  8
LPF120_SST
 10
5.2545
 20
0.8695
 30
0.0000
  0
VERTEX
  8
LPF120_SST
 10
5.2461
 20
0.8778
 30
0.0000
  0
VERTEX
  8
LPF120_SST
 10
5.2212
 20
0.8778
 30
0.0000
  0
SEQEND
  0
POLYLINE
  8
LPF120_SST
 66
1
 10
0.0000
 20
0.0000
 30
0.0000
 40
0.0080
 41
0.0080
  0
VERTEX
  8
LPF120_SST
 10
5.2010
 20
0.8361
 30
0.0000
  0
VERTEX
  8
LPF120_SST
 10
5.1968
 20
0.8278
 30
0.0000
  0
VERTEX
  8
LPF120_SST
 10
5.1718
 20
0.8278
 30
0.0000
  0
VERTEX
  8
LPF120_SST
 10
5.1677
 20
0.8361
 30
0.0000
  0
SEQEND
  0
POLYLINE
  8
LPF120_SST
 66
1
 10
0.0000
 20
0.0000
 30
0.0000
 40
0.0080
 41
0.0080
  0
VERTEX
  8
LPF120_SST
 10
5.1676
 20
0.8361
 30
0.0000
  0
VERTEX
  8
LPF120_SST
 10
5.1677
 20
0.8695
 30
0.0000
  0
SEQEND
  0
POLYLINE
  8
LPF120_SST
 66
1
 10
0.0000
 20
0.0000
 30
0.0000
 40
0.0080
 41
0.0080
  0
VERTEX
  8
LPF120_SST
 10
5.1676
 20
0.8695
 30
0.0000
  0
VERTEX
  8
LPF120_SST
 10
5.1718
 20
0.8778
 30
0.0000
  0
VERTEX
  8
LPF120_SST
 10
5.1968
 20
0.8778
 30
0.0000
  0
VERTEX
  8
LPF120_SST
 10
5.2010
 20
0.8695
 30
0.0000
  0
SEQEND
  0
POLYLINE
  8
LPF120_SST
 66
1
 10
0.0000
 20
0.0000
 30
0.0000
 40
0.0080
 41
0.0080
  0
VERTEX
  8
LPF120_SST
 10
5.1141
 20
0.8528
 30
0.0000
  0
VERTEX
  8
LPF120_SST
 10
5.1391
 20
0.8528
 30
0.0000
  0
VERTEX
  8
LPF120_SST
 10
5.1475
 20
0.8612
 30
0.0000
  0
VERTEX
  8
LPF120_SST
 10
5.1475
 20
0.8695
 30
0.0000
  0
VERTEX
  8
LPF120_SST
 10
5.1391
 20
0.8778
 30
0.0000
  0
VERTEX
  8
LPF120_SST
 10
5.1142
 20
0.8778
 30
0.0000
  0
SEQEND
  0
POLYLINE
  8
LPF120_SST
 66
1
 10
0.0000
 20
0.0000
 30
0.0000
 40
0.0080
 41
0.0080
  0
VERTEX
  8
LPF120_SST
 10
5.1141
 20
0.8778
 30
0.0000
  0
VERTEX
  8
LPF120_SST
 10
5.1142
 20
0.8278
 30
0.0000
  0
SEQEND
  0
POLYLINE
  8
LPF120_SST
 66
1
 10
0.0000
 20
0.0000
 30
0.0000
 40
0.0080
 41
0.0080
  0
VERTEX
  8
LPF120_SST
 10
6.4371
 20
0.7333
 30
0.0000
  0
VERTEX
  8
LPF120_SST
 10
6.3954
 20
0.7333
 30
0.0000
  0
VERTEX
  8
LPF120_SST
 10
6.3885
 20
0.7194
 30
0.0000
  0
VERTEX
  8
LPF120_SST
 10
6.3885
 20
0.6916
 30
0.0000
  0
VERTEX
  8
LPF120_SST
 10
6.3954
 20
0.6777
 30
0.0000
  0
VERTEX
  8
LPF120_SST
 10
6.4371
 20
0.6777
 30
0.0000
  0
SEQEND
  0
POLYLINE
  8
LPF120_SST
 66
1
 10
0.0000
 20
0.0000
 30
0.0000
 40
0.0080
 41
0.0080
  0
VERTEX
  8
LPF120_SST
 10
6.3655
 20
0.6777
 30
0.0000
  0
VERTEX
  8
LPF120_SST
 10
6.3655
 20
0.7194
 30
0.0000
  0
VERTEX
  8
LPF120_SST
 10
6.3586
 20
0.7333
 30
0.0000
  0
VERTEX
  8
LPF120_SST
 10
6.3169
 20
0.7333
 30
0.0000
  0
VERTEX
  8
LPF120_SST
 10
6.3169
 20
0.6777
 30
0.0000
  0
SEQEND
  0
POLYLINE
  8
LPF120_SST
 66
1
 10
0.0000
 20
0.0000
 30
0.0000
 40
0.0080
 41
0.0080
  0
VERTEX
  8
LPF120_SST
 10
6.2940
 20
0.6777
 30
0.0000
  0
VERTEX
  8
LPF120_SST
 10
6.2662
 20
0.6777
 30
0.0000
  0
SEQEND
  0
POLYLINE
  8
LPF120_SST
 66
1
 10
0.0000
 20
0.0000
 30
0.0000
 40
0.0080
 41
0.0080
  0
VERTEX
  8
LPF120_SST
 10
6.2801
 20
0.6777
 30
0.0000
  0
VERTEX
  8
LPF120_SST
 10
6.2801
 20
0.7610
 30
0.0000
  0
SEQEND
  0
POLYLINE
  8
LPF120_SST
 66
1
 10
0.0000
 20
0.0000
 30
0.0000
 40
0.0080
 41
0.0080
  0
VERTEX
  8
LPF120_SST
 10
6.2940
 20
0.7610
 30
0.0000
  0
VERTEX
  8
LPF120_SST
 10
6.2662
 20
0.7610
 30
0.0000
  0
SEQEND
  0
POLYLINE
  8
LPF120_SST
 66
1
 10
0.0000
 20
0.0000
 30
0.0000
 40
0.0080
 41
0.0080
  0
VERTEX
  8
LPF120_SST
 10
6.1127
 20
0.7333
 30
0.0000
  0
VERTEX
  8
LPF120_SST
 10
6.0710
 20
0.7333
 30
0.0000
  0
VERTEX
  8
LPF120_SST
 10
6.0641
 20
0.7194
 30
0.0000
  0
VERTEX
  8
LPF120_SST
 10
6.0710
 20
0.7055
 30
0.0000
  0
VERTEX
  8
LPF120_SST
 10
6.1127
 20
0.7055
 30
0.0000
  0
VERTEX
  8
LPF120_SST
 10
6.1196
 20
0.6916
 30
0.0000
  0
VERTEX
  8
LPF120_SST
 10
6.1127
 20
0.6777
 30
0.0000
  0
VERTEX
  8
LPF120_SST
 10
6.0710
 20
0.6777
 30
0.0000
  0
SEQEND
  0
POLYLINE
  8
LPF120_SST
 66
1
 10
0.0000
 20
0.0000
 30
0.0000
 40
0.0080
 41
0.0080
  0
VERTEX
  8
LPF120_SST
 10
6.0342
 20
0.7333
 30
0.0000
  0
VERTEX
  8
LPF120_SST
 10
5.9925
 20
0.7333
 30
0.0000
  0
SEQEND
  0
POLYLINE
  8
LPF120_SST
 66
1
 10
0.0000
 20
0.0000
 30
0.0000
 40
0.0080
 41
0.0080
  0
VERTEX
  8
LPF120_SST
 10
6.0411
 20
0.6777
 30
0.0000
  0
VERTEX
  8
LPF120_SST
 10
6.0134
 20
0.6777
 30
0.0000
  0
VERTEX
  8
LPF120_SST
 10
6.0064
 20
0.6916
 30
0.0000
  0
VERTEX
  8
LPF120_SST
 10
6.0064
 20
0.7610
 30
0.0000
  0
SEQEND
  0
POLYLINE
  8
LPF120_SST
 66
1
 10
0.0000
 20
0.0000
 30
0.0000
 40
0.0080
 41
0.0080
  0
VERTEX
  8
LPF120_SST
 10
5.9210
 20
0.6499
 30
0.0000
  0
VERTEX
  8
LPF120_SST
 10
5.9210
 20
0.7333
 30
0.0000
  0
VERTEX
  8
LPF120_SST
 10
5.9626
 20
0.7333
 30
0.0000
  0
VERTEX
  8
LPF120_SST
 10
5.9696
 20
0.7194
 30
0.0000
  0
VERTEX
  8
LPF120_SST
 10
5.9696
 20
0.6916
 30
0.0000
  0
VERTEX
  8
LPF120_SST
 10
5.9626
 20
0.6777
 30
0.0000
  0
VERTEX
  8
LPF120_SST
 10
5.9210
 20
0.6777
 30
0.0000
  0
SEQEND
  0
POLYLINE
  8
LPF120_SST
 66
1
 10
0.0000
 20
0.0000
 30
0.0000
 40
0.0080
 41
0.0080
  0
VERTEX
  8
LPF120_SST
 10
5.8911
 20
0.6777
 30
0.0000
  0
VERTEX
  8
LPF120_SST
 10
5.8494
 20
0.6777
 30
0.0000
  0
VERTEX
  8
LPF120_SST
 10
5.8425
 20
0.6916
 30
0.0000
  0
VERTEX
  8
LPF120_SST
 10
5.8425
 20
0.7194
 30
0.0000
  0
VERTEX
  8
LPF120_SST
 10
5.8494
 20
0.7333
 30
0.0000
  0
VERTEX
  8
LPF120_SST
 10
5.8911
 20
0.7333
 30
0.0000
  0
VERTEX
  8
LPF120_SST
 10
5.8980
 20
0.7194
 30
0.0000
  0
VERTEX
  8
LPF120_SST
 10
5.8980
 20
0.7055
 30
0.0000
  0
VERTEX
  8
LPF120_SST
 10
5.8425
 20
0.7055
 30
0.0000
  0
SEQEND
  0
POLYLINE
  8
LPF120_SST
 66
1
 10
0.0000
 20
0.0000
 30
0.0000
 40
0.0080
 41
0.0080
  0
VERTEX
  8
LPF120_SST
 10
5.8195
 20
0.7333
 30
0.0000
  0
VERTEX
  8
LPF120_SST
 10
5.7779
 20
0.7333
 30
0.0000
  0
VERTEX
  8
LPF120_SST
 10
5.7709
 20
0.7194
 30
0.0000
  0
VERTEX
  8
LPF120_SST
 10
5.7709
 20
0.6916
 30
0.0000
  0
VERTEX
  8
LPF120_SST
 10
5.7779
 20
0.6777
 30
0.0000
  0
VERTEX
  8
LPF120_SST
 10
5.8195
 20
0.6777
 30
0.0000
  0
SEQEND
  0
POLYLINE
  8
LPF120_SST
 66
1
 10
0.0000
 20
0.0000
 30
0.0000
 40
0.0080
 41
0.0080
  0
VERTEX
  8
LPF120_SST
 10
5.7480
 20
0.6777
 30
0.0000
  0
VERTEX
  8
LPF120_SST
 10
5.7480
 20
0.7194
 30
0.0000
  0
VERTEX
  8
LPF120_SST
 10
5.7410
 20
0.7333
 30
0.0000
  0
VERTEX
  8
LPF120_SST
 10
5.6994
 20
0.7333
 30
0.0000
  0
VERTEX
  8
LPF120_SST
 10
5.6994
 20
0.6777
 30
0.0000
  0
SEQEND
  0
POLYLINE
  8
LPF120_SST
 66
1
 10
0.0000
 20
0.0000
 30
0.0000
 40
0.0080
 41
0.0080
  0
VERTEX
  8
LPF120_SST
 10
5.6278
 20
0.6777
 30
0.0000
  0
VERTEX
  8
LPF120_SST
 10
5.6209
 20
0.6916
 30
0.0000
  0
VERTEX
  8
LPF120_SST
 10
5.6209
 20
0.7194
 30
0.0000
  0
VERTEX
  8
LPF120_SST
 10
5.6278
 20
0.7333
 30
0.0000
  0
VERTEX
  8
LPF120_SST
 10
5.6695
 20
0.7333
 30
0.0000
  0
VERTEX
  8
LPF120_SST
 10
5.6764
 20
0.7194
 30
0.0000
  0
VERTEX
  8
LPF120_SST
 10
5.6764
 20
0.6916
 30
0.0000
  0
VERTEX
  8
LPF120_SST
 10
5.6695
 20
0.6777
 30
0.0000
  0
VERTEX
  8
LPF120_SST
 10
5.6278
 20
0.6777
 30
0.0000
  0
SEQEND
  0
POLYLINE
  8
LPF120_SST
 66
1
 10
0.0000
 20
0.0000
 30
0.0000
 40
0.0080
 41
0.0080
  0
VERTEX
  8
LPF120_SST
 10
5.5979
 20
0.6916
 30
0.0000
  0
VERTEX
  8
LPF120_SST
 10
5.5910
 20
0.6777
 30
0.0000
  0
VERTEX
  8
LPF120_SST
 10
5.5493
 20
0.6777
 30
0.0000
  0
VERTEX
  8
LPF120_SST
 10
5.5424
 20
0.6916
 30
0.0000
  0
VERTEX
  8
LPF120_SST
 10
5.5424
 20
0.7472
 30
0.0000
  0
VERTEX
  8
LPF120_SST
 10
5.5493
 20
0.7610
 30
0.0000
  0
VERTEX
  8
LPF120_SST
 10
5.5910
 20
0.7610
 30
0.0000
  0
VERTEX
  8
LPF120_SST
 10
5.5979
 20
0.7472
 30
0.0000
  0
SEQEND
  0
POLYLINE
  8
LPF120_SST
 66
1
 10
0.0000
 20
0.0000
 30
0.0000
 40
0.0080
 41
0.0080
  0
VERTEX
  8
LPF120_SST
 10
5.4027
 20
0.7333
 30
0.0000
  0
VERTEX
  8
LPF120_SST
 10
5.3611
 20
0.7333
 30
0.0000
  0
SEQEND
  0
POLYLINE
  8
LPF120_SST
 66
1
 10
0.0000
 20
0.0000
 30
0.0000
 40
0.0080
 41
0.0080
  0
VERTEX
  8
LPF120_SST
 10
5.4097
 20
0.6777
 30
0.0000
  0
VERTEX
  8
LPF120_SST
 10
5.3819
 20
0.6777
 30
0.0000
  0
VERTEX
  8
LPF120_SST
 10
5.3750
 20
0.6916
 30
0.0000
  0
VERTEX
  8
LPF120_SST
 10
5.3750
 20
0.7610
 30
0.0000
  0
SEQEND
  0
POLYLINE
  8
LPF120_SST
 66
1
 10
0.0000
 20
0.0000
 30
0.0000
 40
0.0080
 41
0.0080
  0
VERTEX
  8
LPF120_SST
 10
5.3312
 20
0.7333
 30
0.0000
  0
VERTEX
  8
LPF120_SST
 10
5.2895
 20
0.7333
 30
0.0000
  0
VERTEX
  8
LPF120_SST
 10
5.2826
 20
0.7194
 30
0.0000
  0
VERTEX
  8
LPF120_SST
 10
5.2895
 20
0.7055
 30
0.0000
  0
VERTEX
  8
LPF120_SST
 10
5.3312
 20
0.7055
 30
0.0000
  0
VERTEX
  8
LPF120_SST
 10
5.3381
 20
0.6916
 30
0.0000
  0
VERTEX
  8
LPF120_SST
 10
5.3312
 20
0.6777
 30
0.0000
  0
VERTEX
  8
LPF120_SST
 10
5.2895
 20
0.6777
 30
0.0000
  0
SEQEND
  0
POLYLINE
  8
LPF120_SST
 66
1
 10
0.0000
 20
0.0000
 30
0.0000
 40
0.0080
 41
0.0080
  0
VERTEX
  8
LPF120_SST
 10
5.2180
 20
0.7333
 30
0.0000
  0
VERTEX
  8
LPF120_SST
 10
5.2457
 20
0.7333
 30
0.0000
  0
VERTEX
  8
LPF120_SST
 10
5.2527
 20
0.7194
 30
0.0000
  0
VERTEX
  8
LPF120_SST
 10
5.2527
 20
0.6916
 30
0.0000
  0
VERTEX
  8
LPF120_SST
 10
5.2596
 20
0.6777
 30
0.0000
  0
VERTEX
  8
LPF120_SST
 10
5.2110
 20
0.6777
 30
0.0000
  0
VERTEX
  8
LPF120_SST
 10
5.2041
 20
0.6916
 30
0.0000
  0
VERTEX
  8
LPF120_SST
 10
5.2110
 20
0.7055
 30
0.0000
  0
VERTEX
  8
LPF120_SST
 10
5.2527
 20
0.7055
 30
0.0000
  0
SEQEND
  0
POLYLINE
  8
LPF120_SST
 66
1
 10
0.0000
 20
0.0000
 30
0.0000
 40
0.0080
 41
0.0080
  0
VERTEX
  8
LPF120_SST
 10
5.1811
 20
0.7333
 30
0.0000
  0
VERTEX
  8
LPF120_SST
 10
5.1395
 20
0.7333
 30
0.0000
  0
VERTEX
  8
LPF120_SST
 10
5.1325
 20
0.7194
 30
0.0000
  0
VERTEX
  8
LPF120_SST
 10
5.1325
 20
0.6916
 30
0.0000
  0
VERTEX
  8
LPF120_SST
 10
5.1395
 20
0.6777
 30
0.0000
  0
VERTEX
  8
LPF120_SST
 10
5.1811
 20
0.6777
 30
0.0000
  0
SEQEND
  0
POLYLINE
  8
LPF120_SST
 66
1
 10
0.0000
 20
0.0000
 30
0.0000
 40
0.0080
 41
0.0080
  0
VERTEX
  8
LPF120_SST
 10
5.1096
 20
0.7610
 30
0.0000
  0
VERTEX
  8
LPF120_SST
 10
5.1096
 20
0.6777
 30
0.0000
  0
VERTEX
  8
LPF120_SST
 10
5.0679
 20
0.6777
 30
0.0000
  0
VERTEX
  8
LPF120_SST
 10
5.0610
 20
0.6916
 30
0.0000
  0
VERTEX
  8
LPF120_SST
 10
5.0610
 20
0.7194
 30
0.0000
  0
VERTEX
  8
LPF120_SST
 10
5.0679
 20
0.7333
 30
0.0000
  0
VERTEX
  8
LPF120_SST
 10
5.1096
 20
0.7333
 30
0.0000
  0
SEQEND
  0
POLYLINE
  8
LPF120_SST
 66
1
 10
0.0000
 20
0.0000
 30
0.0000
 40
0.0080
 41
0.0080
  0
VERTEX
  8
LPF120_SST
 10
4.9964
 20
0.7333
 30
0.0000
  0
VERTEX
  8
LPF120_SST
 10
5.0241
 20
0.7333
 30
0.0000
  0
VERTEX
  8
LPF120_SST
 10
5.0311
 20
0.7194
 30
0.0000
  0
VERTEX
  8
LPF120_SST
 10
5.0311
 20
0.6916
 30
0.0000
  0
VERTEX
  8
LPF120_SST
 10
5.0380
 20
0.6777
 30
0.0000
  0
VERTEX
  8
LPF120_SST
 10
4.9894
 20
0.6777
 30
0.0000
  0
VERTEX
  8
LPF120_SST
 10
4.9825
 20
0.6916
 30
0.0000
  0
VERTEX
  8
LPF120_SST
 10
4.9894
 20
0.7055
 30
0.0000
  0
VERTEX
  8
LPF120_SST
 10
5.0311
 20
0.7055
 30
0.0000
  0
SEQEND
  0
POLYLINE
  8
LPF120_SST
 66
1
 10
0.0000
 20
0.0000
 30
0.0000
 40
0.0080
 41
0.0080
  0
VERTEX
  8
LPF120_SST
 10
4.9109
 20
0.6777
 30
0.0000
  0
VERTEX
  8
LPF120_SST
 10
4.9040
 20
0.6916
 30
0.0000
  0
VERTEX
  8
LPF120_SST
 10
4.9040
 20
0.7194
 30
0.0000
  0
VERTEX
  8
LPF120_SST
 10
4.9109
 20
0.7333
 30
0.0000
  0
VERTEX
  8
LPF120_SST
 10
4.9526
 20
0.7333
 30
0.0000
  0
VERTEX
  8
LPF120_SST
 10
4.9595
 20
0.7194
 30
0.0000
  0
VERTEX
  8
LPF120_SST
 10
4.9595
 20
0.6916
 30
0.0000
  0
VERTEX
  8
LPF120_SST
 10
4.9526
 20
0.6777
 30
0.0000
  0
VERTEX
  8
LPF120_SST
 10
4.9109
 20
0.6777
 30
0.0000
  0
SEQEND
  0
POLYLINE
  8
LPF120_SST
 66
1
 10
0.0000
 20
0.0000
 30
0.0000
 40
0.0080
 41
0.0080
  0
VERTEX
  8
LPF120_SST
 10
4.8810
 20
0.7333
 30
0.0000
  0
VERTEX
  8
LPF120_SST
 10
4.8533
 20
0.7333
 30
0.0000
  0
VERTEX
  8
LPF120_SST
 10
4.8463
 20
0.7194
 30
0.0000
  0
VERTEX
  8
LPF120_SST
 10
4.8324
 20
0.7194
 30
0.0000
  0
SEQEND
  0
POLYLINE
  8
LPF120_SST
 66
1
 10
0.0000
 20
0.0000
 30
0.0000
 40
0.0080
 41
0.0080
  0
VERTEX
  8
LPF120_SST
 10
4.8324
 20
0.7333
 30
0.0000
  0
VERTEX
  8
LPF120_SST
 10
4.8324
 20
0.6777
 30
0.0000
  0
SEQEND
  0
POLYLINE
  8
LPF120_SST
 66
1
 10
0.0000
 20
0.0000
 30
0.0000
 40
0.0080
 41
0.0080
  0
VERTEX
  8
LPF120_SST
 10
4.7609
 20
0.6777
 30
0.0000
  0
VERTEX
  8
LPF120_SST
 10
4.7609
 20
0.7610
 30
0.0000
  0
SEQEND
  0
POLYLINE
  8
LPF120_SST
 66
1
 10
0.0000
 20
0.0000
 30
0.0000
 40
0.0080
 41
0.0080
  0
VERTEX
  8
LPF120_SST
 10
4.7539
 20
0.6777
 30
0.0000
  0
VERTEX
  8
LPF120_SST
 10
4.7956
 20
0.6777
 30
0.0000
  0
VERTEX
  8
LPF120_SST
 10
4.8095
 20
0.6916
 30
0.0000
  0
VERTEX
  8
LPF120_SST
 10
4.8095
 20
0.7055
 30
0.0000
  0
VERTEX
  8
LPF120_SST
 10
4.8025
 20
0.7194
 30
0.0000
  0
SEQEND
  0
POLYLINE
  8
LPF120_SST
 66
1
 10
0.0000
 20
0.0000
 30
0.0000
 40
0.0080
 41
0.0080
  0
VERTEX
  8
LPF120_SST
 10
4.7609
 20
0.7194
 30
0.0000
  0
VERTEX
  8
LPF120_SST
 10
4.8025
 20
0.7194
 30
0.0000
  0
VERTEX
  8
LPF120_SST
 10
4.8095
 20
0.7333
 30
0.0000
  0
VERTEX
  8
LPF120_SST
 10
4.8095
 20
0.7472
 30
0.0000
  0
VERTEX
  8
LPF120_SST
 10
4.7956
 20
0.7610
 30
0.0000
  0
VERTEX
  8
LPF120_SST
 10
4.7539
 20
0.7610
 30
0.0000
  0
SEQEND
  0
POLYLINE
  8
LPF120_SST
 66
1
 10
0.0000
 20
0.0000
 30
0.0000
 40
0.0080
 41
0.0080
  0
VERTEX
  8
LPF120_SST
 10
4.2068
 20
1.5808
 30
0.0000
  0
VERTEX
  8
LPF120_SST
 10
4.1735
 20
1.5808
 30
0.0000
  0
VERTEX
  8
LPF120_SST
 10
4.2068
 20
1.6142
 30
0.0000
  0
VERTEX
  8
LPF120_SST
 10
4.2068
 20
1.6225
 30
0.0000
  0
VERTEX
  8
LPF120_SST
 10
4.2026
 20
1.6308
 30
0.0000
  0
VERTEX
  8
LPF120_SST
 10
4.1776
 20
1.6308
 30
0.0000
  0
VERTEX
  8
LPF120_SST
 10
4.1735
 20
1.6225
 30
0.0000
  0
SEQEND
  0
POLYLINE
  8
LPF120_SST
 66
1
 10
0.0000
 20
0.0000
 30
0.0000
 40
0.0080
 41
0.0080
  0
VERTEX
  8
LPF120_SST
 10
4.1533
 20
1.5808
 30
0.0000
  0
VERTEX
  8
LPF120_SST
 10
4.1242
 20
1.5808
 30
0.0000
  0
SEQEND
  0
POLYLINE
  8
LPF120_SST
 66
1
 10
0.0000
 20
0.0000
 30
0.0000
 40
0.0080
 41
0.0080
  0
VERTEX
  8
LPF120_SST
 10
4.1241
 20
1.5808
 30
0.0000
  0
VERTEX
  8
LPF120_SST
 10
4.1242
 20
1.6308
 30
0.0000
  0
SEQEND
  0
POLYLINE
  8
LPF120_SST
 66
1
 10
0.0000
 20
0.0000
 30
0.0000
 40
0.0080
 41
0.0080
  0
VERTEX
  8
LPF120_SST
 10
6.7135
 20
1.5691
 30
0.0000
  0
VERTEX
  8
LPF120_SST
 10
6.7218
 20
1.5608
 30
0.0000
  0
VERTEX
  8
LPF120_SST
 10
6.7385
 20
1.5608
 30
0.0000
  0
VERTEX
  8
LPF120_SST
 10
6.7468
 20
1.5691
 30
0.0000
  0
VERTEX
  8
LPF120_SST
 10
6.7468
 20
1.5775
 30
0.0000
  0
VERTEX
  8
LPF120_SST
 10
6.7301
 20
1.5942
 30
0.0000
  0
VERTEX
  8
LPF120_SST
 10
6.7468
 20
1.6108
 30
0.0000
  0
VERTEX
  8
LPF120_SST
 10
6.7135
 20
1.6108
 30
0.0000
  0
SEQEND
  0
POLYLINE
  8
LPF120_SST
 66
1
 10
0.0000
 20
0.0000
 30
0.0000
 40
0.0080
 41
0.0080
  0
VERTEX
  8
LPF120_SST
 10
6.6933
 20
1.5608
 30
0.0000
  0
VERTEX
  8
LPF120_SST
 10
6.6642
 20
1.5608
 30
0.0000
  0
SEQEND
  0
POLYLINE
  8
LPF120_SST
 66
1
 10
0.0000
 20
0.0000
 30
0.0000
 40
0.0080
 41
0.0080
  0
VERTEX
  8
LPF120_SST
 10
6.6641
 20
1.5608
 30
0.0000
  0
VERTEX
  8
LPF120_SST
 10
6.6642
 20
1.6108
 30
0.0000
  0
SEQEND
  0
POLYLINE
  8
LPF120_SST
 66
1
 10
0.0000
 20
0.0000
 30
0.0000
 40
0.0080
 41
0.0080
  0
VERTEX
  8
LPF120_SST
 10
4.4064
 20
2.0908
 30
0.0000
  0
VERTEX
  8
LPF120_SST
 10
4.4064
 20
2.1158
 30
0.0000
  0
VERTEX
  8
LPF120_SST
 10
4.4022
 20
2.1242
 30
0.0000
  0
VERTEX
  8
LPF120_SST
 10
4.3772
 20
2.1242
 30
0.0000
  0
VERTEX
  8
LPF120_SST
 10
4.3772
 20
2.0908
 30
0.0000
  0
SEQEND
  0
POLYLINE
  8
LPF120_SST
 66
1
 10
0.0000
 20
0.0000
 30
0.0000
 40
0.0080
 41
0.0080
  0
VERTEX
  8
LPF120_SST
 10
4.3571
 20
2.1242
 30
0.0000
  0
VERTEX
  8
LPF120_SST
 10
4.3404
 20
2.1242
 30
0.0000
  0
VERTEX
  8
LPF120_SST
 10
4.3362
 20
2.1158
 30
0.0000
  0
VERTEX
  8
LPF120_SST
 10
4.3279
 20
2.1158
 30
0.0000
  0
SEQEND
  0
POLYLINE
  8
LPF120_SST
 66
1
 10
0.0000
 20
0.0000
 30
0.0000
 40
0.0080
 41
0.0080
  0
VERTEX
  8
LPF120_SST
 10
4.3279
 20
2.1242
 30
0.0000
  0
VERTEX
  8
LPF120_SST
 10
4.3279
 20
2.0908
 30
0.0000
  0
SEQEND
  0
POLYLINE
  8
LPF120_SST
 66
1
 10
0.0000
 20
0.0000
 30
0.0000
 40
0.0080
 41
0.0080
  0
VERTEX
  8
LPF120_SST
 10
4.3036
 20
2.1242
 30
0.0000
  0
VERTEX
  8
LPF120_SST
 10
4.3036
 20
2.0908
 30
0.0000
  0
SEQEND
  0
POLYLINE
  8
LPF120_SST
 66
1
 10
0.0000
 20
0.0000
 30
0.0000
 40
0.0080
 41
0.0080
  0
VERTEX
  8
LPF120_SST
 10
4.3077
 20
2.0908
 30
0.0000
  0
VERTEX
  8
LPF120_SST
 10
4.2786
 20
2.0908
 30
0.0000
  0
VERTEX
  8
LPF120_SST
 10
4.2744
 20
2.0991
 30
0.0000
  0
VERTEX
  8
LPF120_SST
 10
4.2744
 20
2.1242
 30
0.0000
  0
SEQEND
  0
POLYLINE
  8
LPF120_SST
 66
1
 10
0.0000
 20
0.0000
 30
0.0000
 40
0.0080
 41
0.0080
  0
VERTEX
  8
LPF120_SST
 10
4.2376
 20
2.0908
 30
0.0000
  0
VERTEX
  8
LPF120_SST
 10
4.2376
 20
2.1408
 30
0.0000
  0
SEQEND
  0
POLYLINE
  8
LPF120_SST
 66
1
 10
0.0000
 20
0.0000
 30
0.0000
 40
0.0080
 41
0.0080
  0
VERTEX
  8
LPF120_SST
 10
4.2542
 20
2.1408
 30
0.0000
  0
VERTEX
  8
LPF120_SST
 10
4.2209
 20
2.1408
 30
0.0000
  0
SEQEND
  0
POLYLINE
  8
LPF120_SST
 66
1
 10
0.0000
 20
0.0000
 30
0.0000
 40
0.0080
 41
0.0080
  0
VERTEX
  8
LPF120_SST
 10
4.0951
 20
2.0991
 30
0.0000
  0
VERTEX
  8
LPF120_SST
 10
4.0993
 20
2.0908
 30
0.0000
  0
VERTEX
  8
LPF120_SST
 10
4.1243
 20
2.0908
 30
0.0000
  0
VERTEX
  8
LPF120_SST
 10
4.1285
 20
2.0991
 30
0.0000
  0
VERTEX
  8
LPF120_SST
 10
4.1285
 20
2.1158
 30
0.0000
  0
VERTEX
  8
LPF120_SST
 10
4.1201
 20
2.1242
 30
0.0000
  0
VERTEX
  8
LPF120_SST
 10
4.0952
 20
2.1242
 30
0.0000
  0
SEQEND
  0
POLYLINE
  8
LPF120_SST
 66
1
 10
0.0000
 20
0.0000
 30
0.0000
 40
0.0080
 41
0.0080
  0
VERTEX
  8
LPF120_SST
 10
4.0951
 20
2.1242
 30
0.0000
  0
VERTEX
  8
LPF120_SST
 10
4.0952
 20
2.1408
 30
0.0000
  0
SEQEND
  0
POLYLINE
  8
LPF120_SST
 66
1
 10
0.0000
 20
0.0000
 30
0.0000
 40
0.0080
 41
0.0080
  0
VERTEX
  8
LPF120_SST
 10
4.0951
 20
2.1408
 30
0.0000
  0
VERTEX
  8
LPF120_SST
 10
4.1285
 20
2.1408
 30
0.0000
  0
SEQEND
  0
POLYLINE
  8
LPF120_SST
 66
1
 10
0.0000
 20
0.0000
 30
0.0000
 40
0.0080
 41
0.0080
  0
VERTEX
  8
LPF120_SST
 10
6.9274
 20
2.0738
 30
0.0000
  0
VERTEX
  8
LPF120_SST
 10
6.9274
 20
2.0988
 30
0.0000
  0
VERTEX
  8
LPF120_SST
 10
6.9232
 20
2.1072
 30
0.0000
  0
VERTEX
  8
LPF120_SST
 10
6.8982
 20
2.1072
 30
0.0000
  0
VERTEX
  8
LPF120_SST
 10
6.8982
 20
2.0738
 30
0.0000
  0
SEQEND
  0
POLYLINE
  8
LPF120_SST
 66
1
 10
0.0000
 20
0.0000
 30
0.0000
 40
0.0080
 41
0.0080
  0
VERTEX
  8
LPF120_SST
 10
6.8781
 20
2.1072
 30
0.0000
  0
VERTEX
  8
LPF120_SST
 10
6.8614
 20
2.1072
 30
0.0000
  0
VERTEX
  8
LPF120_SST
 10
6.8572
 20
2.0988
 30
0.0000
  0
VERTEX
  8
LPF120_SST
 10
6.8489
 20
2.0988
 30
0.0000
  0
SEQEND
  0
POLYLINE
  8
LPF120_SST
 66
1
 10
0.0000
 20
0.0000
 30
0.0000
 40
0.0080
 41
0.0080
  0
VERTEX
  8
LPF120_SST
 10
6.8489
 20
2.1072
 30
0.0000
  0
VERTEX
  8
LPF120_SST
 10
6.8489
 20
2.0738
 30
0.0000
  0
SEQEND
  0
POLYLINE
  8
LPF120_SST
 66
1
 10
0.0000
 20
0.0000
 30
0.0000
 40
0.0080
 41
0.0080
  0
VERTEX
  8
LPF120_SST
 10
6.8246
 20
2.1072
 30
0.0000
  0
VERTEX
  8
LPF120_SST
 10
6.8246
 20
2.0738
 30
0.0000
  0
SEQEND
  0
POLYLINE
  8
LPF120_SST
 66
1
 10
0.0000
 20
0.0000
 30
0.0000
 40
0.0080
 41
0.0080
  0
VERTEX
  8
LPF120_SST
 10
6.8287
 20
2.0738
 30
0.0000
  0
VERTEX
  8
LPF120_SST
 10
6.7996
 20
2.0738
 30
0.0000
  0
VERTEX
  8
LPF120_SST
 10
6.7954
 20
2.0821
 30
0.0000
  0
VERTEX
  8
LPF120_SST
 10
6.7954
 20
2.1072
 30
0.0000
  0
SEQEND
  0
POLYLINE
  8
LPF120_SST
 66
1
 10
0.0000
 20
0.0000
 30
0.0000
 40
0.0080
 41
0.0080
  0
VERTEX
  8
LPF120_SST
 10
6.7586
 20
2.0738
 30
0.0000
  0
VERTEX
  8
LPF120_SST
 10
6.7586
 20
2.1238
 30
0.0000
  0
SEQEND
  0
POLYLINE
  8
LPF120_SST
 66
1
 10
0.0000
 20
0.0000
 30
0.0000
 40
0.0080
 41
0.0080
  0
VERTEX
  8
LPF120_SST
 10
6.7752
 20
2.1238
 30
0.0000
  0
VERTEX
  8
LPF120_SST
 10
6.7419
 20
2.1238
 30
0.0000
  0
SEQEND
  0
POLYLINE
  8
LPF120_SST
 66
1
 10
0.0000
 20
0.0000
 30
0.0000
 40
0.0080
 41
0.0080
  0
VERTEX
  8
LPF120_SST
 10
6.6161
 20
2.0821
 30
0.0000
  0
VERTEX
  8
LPF120_SST
 10
6.6203
 20
2.0738
 30
0.0000
  0
VERTEX
  8
LPF120_SST
 10
6.6453
 20
2.0738
 30
0.0000
  0
VERTEX
  8
LPF120_SST
 10
6.6495
 20
2.0821
 30
0.0000
  0
VERTEX
  8
LPF120_SST
 10
6.6495
 20
2.0988
 30
0.0000
  0
VERTEX
  8
LPF120_SST
 10
6.6411
 20
2.1072
 30
0.0000
  0
VERTEX
  8
LPF120_SST
 10
6.6162
 20
2.1072
 30
0.0000
  0
SEQEND
  0
POLYLINE
  8
LPF120_SST
 66
1
 10
0.0000
 20
0.0000
 30
0.0000
 40
0.0080
 41
0.0080
  0
VERTEX
  8
LPF120_SST
 10
6.6161
 20
2.1072
 30
0.0000
  0
VERTEX
  8
LPF120_SST
 10
6.6162
 20
2.1238
 30
0.0000
  0
SEQEND
  0
POLYLINE
  8
LPF120_SST
 66
1
 10
0.0000
 20
0.0000
 30
0.0000
 40
0.0080
 41
0.0080
  0
VERTEX
  8
LPF120_SST
 10
6.6161
 20
2.1238
 30
0.0000
  0
VERTEX
  8
LPF120_SST
 10
6.6495
 20
2.1238
 30
0.0000
  0
SEQEND
  0
POLYLINE
  8
LPF120_SST
 66
1
 10
0.0000
 20
0.0000
 30
0.0000
 40
0.0080
 41
0.0080
  0
VERTEX
  8
LPF120_SST
 10
9.4934
 20
1.9758
 30
0.0000
  0
VERTEX
  8
LPF120_SST
 10
9.4934
 20
2.0008
 30
0.0000
  0
VERTEX
  8
LPF120_SST
 10
9.4892
 20
2.0092
 30
0.0000
  0
VERTEX
  8
LPF120_SST
 10
9.4642
 20
2.0092
 30
0.0000
  0
VERTEX
  8
LPF120_SST
 10
9.4642
 20
1.9758
 30
0.0000
  0
SEQEND
  0
POLYLINE
  8
LPF120_SST
 66
1
 10
0.0000
 20
0.0000
 30
0.0000
 40
0.0080
 41
0.0080
  0
VERTEX
  8
LPF120_SST
 10
9.4441
 20
2.0092
 30
0.0000
  0
VERTEX
  8
LPF120_SST
 10
9.4274
 20
2.0092
 30
0.0000
  0
VERTEX
  8
LPF120_SST
 10
9.4232
 20
2.0008
 30
0.0000
  0
VERTEX
  8
LPF120_SST
 10
9.4149
 20
2.0008
 30
0.0000
  0
SEQEND
  0
POLYLINE
  8
LPF120_SST
 66
1
 10
0.0000
 20
0.0000
 30
0.0000
 40
0.0080
 41
0.0080
  0
VERTEX
  8
LPF120_SST
 10
9.4149
 20
2.0092
 30
0.0000
  0
VERTEX
  8
LPF120_SST
 10
9.4149
 20
1.9758
 30
0.0000
  0
SEQEND
  0
POLYLINE
  8
LPF120_SST
 66
1
 10
0.0000
 20
0.0000
 30
0.0000
 40
0.0080
 41
0.0080
  0
VERTEX
  8
LPF120_SST
 10
9.3906
 20
2.0092
 30
0.0000
  0
VERTEX
  8
LPF120_SST
 10
9.3906
 20
1.9758
 30
0.0000
  0
SEQEND
  0
POLYLINE
  8
LPF120_SST
 66
1
 10
0.0000
 20
0.0000
 30
0.0000
 40
0.0080
 41
0.0080
  0
VERTEX
  8
LPF120_SST
 10
9.3947
 20
1.9758
 30
0.0000
  0
VERTEX
  8
LPF120_SST
 10
9.3656
 20
1.9758
 30
0.0000
  0
VERTEX
  8
LPF120_SST
 10
9.3614
 20
1.9841
 30
0.0000
  0
VERTEX
  8
LPF120_SST
 10
9.3614
 20
2.0092
 30
0.0000
  0
SEQEND
  0
POLYLINE
  8
LPF120_SST
 66
1
 10
0.0000
 20
0.0000
 30
0.0000
 40
0.0080
 41
0.0080
  0
VERTEX
  8
LPF120_SST
 10
9.3246
 20
1.9758
 30
0.0000
  0
VERTEX
  8
LPF120_SST
 10
9.3246
 20
2.0258
 30
0.0000
  0
SEQEND
  0
POLYLINE
  8
LPF120_SST
 66
1
 10
0.0000
 20
0.0000
 30
0.0000
 40
0.0080
 41
0.0080
  0
VERTEX
  8
LPF120_SST
 10
9.3412
 20
2.0258
 30
0.0000
  0
VERTEX
  8
LPF120_SST
 10
9.3079
 20
2.0258
 30
0.0000
  0
SEQEND
  0
POLYLINE
  8
LPF120_SST
 66
1
 10
0.0000
 20
0.0000
 30
0.0000
 40
0.0080
 41
0.0080
  0
VERTEX
  8
LPF120_SST
 10
9.2155
 20
1.9925
 30
0.0000
  0
VERTEX
  8
LPF120_SST
 10
9.1822
 20
1.9925
 30
0.0000
  0
SEQEND
  0
POLYLINE
  8
LPF120_SST
 66
1
 10
0.0000
 20
0.0000
 30
0.0000
 40
0.0080
 41
0.0080
  0
VERTEX
  8
LPF120_SST
 10
9.1821
 20
1.9925
 30
0.0000
  0
VERTEX
  8
LPF120_SST
 10
9.1988
 20
2.0258
 30
0.0000
  0
VERTEX
  8
LPF120_SST
 10
9.2071
 20
2.0258
 30
0.0000
  0
VERTEX
  8
LPF120_SST
 10
9.2071
 20
1.9758
 30
0.0000
  0
SEQEND
  0
POLYLINE
  8
LPF120_SST
 66
1
 10
0.0000
 20
0.0000
 30
0.0000
 40
0.0080
 41
0.0080
  0
VERTEX
  8
LPF120_SST
 10
1.8874
 20
2.0028
 30
0.0000
  0
VERTEX
  8
LPF120_SST
 10
1.8874
 20
2.0278
 30
0.0000
  0
VERTEX
  8
LPF120_SST
 10
1.8832
 20
2.0362
 30
0.0000
  0
VERTEX
  8
LPF120_SST
 10
1.8582
 20
2.0362
 30
0.0000
  0
VERTEX
  8
LPF120_SST
 10
1.8582
 20
2.0028
 30
0.0000
  0
SEQEND
  0
POLYLINE
  8
LPF120_SST
 66
1
 10
0.0000
 20
0.0000
 30
0.0000
 40
0.0080
 41
0.0080
  0
VERTEX
  8
LPF120_SST
 10
1.8381
 20
2.0362
 30
0.0000
  0
VERTEX
  8
LPF120_SST
 10
1.8214
 20
2.0362
 30
0.0000
  0
VERTEX
  8
LPF120_SST
 10
1.8172
 20
2.0278
 30
0.0000
  0
VERTEX
  8
LPF120_SST
 10
1.8089
 20
2.0278
 30
0.0000
  0
SEQEND
  0
POLYLINE
  8
LPF120_SST
 66
1
 10
0.0000
 20
0.0000
 30
0.0000
 40
0.0080
 41
0.0080
  0
VERTEX
  8
LPF120_SST
 10
1.8089
 20
2.0362
 30
0.0000
  0
VERTEX
  8
LPF120_SST
 10
1.8089
 20
2.0028
 30
0.0000
  0
SEQEND
  0
POLYLINE
  8
LPF120_SST
 66
1
 10
0.0000
 20
0.0000
 30
0.0000
 40
0.0080
 41
0.0080
  0
VERTEX
  8
LPF120_SST
 10
1.7846
 20
2.0362
 30
0.0000
  0
VERTEX
  8
LPF120_SST
 10
1.7846
 20
2.0028
 30
0.0000
  0
SEQEND
  0
POLYLINE
  8
LPF120_SST
 66
1
 10
0.0000
 20
0.0000
 30
0.0000
 40
0.0080
 41
0.0080
  0
VERTEX
  8
LPF120_SST
 10
1.7887
 20
2.0028
 30
0.0000
  0
VERTEX
  8
LPF120_SST
 10
1.7596
 20
2.0028
 30
0.0000
  0
VERTEX
  8
LPF120_SST
 10
1.7554
 20
2.0111
 30
0.0000
  0
VERTEX
  8
LPF120_SST
 10
1.7554
 20
2.0362
 30
0.0000
  0
SEQEND
  0
POLYLINE
  8
LPF120_SST
 66
1
 10
0.0000
 20
0.0000
 30
0.0000
 40
0.0080
 41
0.0080
  0
VERTEX
  8
LPF120_SST
 10
1.7186
 20
2.0028
 30
0.0000
  0
VERTEX
  8
LPF120_SST
 10
1.7186
 20
2.0528
 30
0.0000
  0
SEQEND
  0
POLYLINE
  8
LPF120_SST
 66
1
 10
0.0000
 20
0.0000
 30
0.0000
 40
0.0080
 41
0.0080
  0
VERTEX
  8
LPF120_SST
 10
1.7352
 20
2.0528
 30
0.0000
  0
VERTEX
  8
LPF120_SST
 10
1.7019
 20
2.0528
 30
0.0000
  0
SEQEND
  0
POLYLINE
  8
LPF120_SST
 66
1
 10
0.0000
 20
0.0000
 30
0.0000
 40
0.0080
 41
0.0080
  0
VERTEX
  8
LPF120_SST
 10
1.6095
 20
2.0195
 30
0.0000
  0
VERTEX
  8
LPF120_SST
 10
1.5762
 20
2.0195
 30
0.0000
  0
SEQEND
  0
POLYLINE
  8
LPF120_SST
 66
1
 10
0.0000
 20
0.0000
 30
0.0000
 40
0.0080
 41
0.0080
  0
VERTEX
  8
LPF120_SST
 10
1.5761
 20
2.0195
 30
0.0000
  0
VERTEX
  8
LPF120_SST
 10
1.5928
 20
2.0528
 30
0.0000
  0
VERTEX
  8
LPF120_SST
 10
1.6011
 20
2.0528
 30
0.0000
  0
VERTEX
  8
LPF120_SST
 10
1.6011
 20
2.0028
 30
0.0000
  0
SEQEND
  0
POLYLINE
  8
LPF120_SST
 66
1
 10
0.0000
 20
0.0000
 30
0.0000
 40
0.0080
 41
0.0080
  0
VERTEX
  8
LPF120_SST
 10
9.2568
 20
1.5025
 30
0.0000
  0
VERTEX
  8
LPF120_SST
 10
9.2235
 20
1.5025
 30
0.0000
  0
VERTEX
  8
LPF120_SST
 10
9.2401
 20
1.5358
 30
0.0000
  0
VERTEX
  8
LPF120_SST
 10
9.2485
 20
1.5358
 30
0.0000
  0
VERTEX
  8
LPF120_SST
 10
9.2485
 20
1.4858
 30
0.0000
  0
SEQEND
  0
POLYLINE
  8
LPF120_SST
 66
1
 10
0.0000
 20
0.0000
 30
0.0000
 40
0.0080
 41
0.0080
  0
VERTEX
  8
LPF120_SST
 10
9.2033
 20
1.4858
 30
0.0000
  0
VERTEX
  8
LPF120_SST
 10
9.1742
 20
1.4858
 30
0.0000
  0
SEQEND
  0
POLYLINE
  8
LPF120_SST
 66
1
 10
0.0000
 20
0.0000
 30
0.0000
 40
0.0080
 41
0.0080
  0
VERTEX
  8
LPF120_SST
 10
9.1741
 20
1.4858
 30
0.0000
  0
VERTEX
  8
LPF120_SST
 10
9.1742
 20
1.5358
 30
0.0000
  0
SEQEND
  0
POLYLINE
  8
LPF120_SST
 66
1
 10
0.0000
 20
0.0000
 30
0.0000
 40
0.0080
 41
0.0080
  0
VERTEX
  8
LPF120_SST
 10
1.6535
 20
1.5208
 30
0.0000
  0
VERTEX
  8
LPF120_SST
 10
1.6368
 20
1.5208
 30
0.0000
  0
SEQEND
  0
POLYLINE
  8
LPF120_SST
 66
1
 10
0.0000
 20
0.0000
 30
0.0000
 40
0.0080
 41
0.0080
  0
VERTEX
  8
LPF120_SST
 10
1.6451
 20
1.5208
 30
0.0000
  0
VERTEX
  8
LPF120_SST
 10
1.6451
 20
1.5708
 30
0.0000
  0
VERTEX
  8
LPF120_SST
 10
1.6368
 20
1.5625
 30
0.0000
  0
SEQEND
  0
POLYLINE
  8
LPF120_SST
 66
1
 10
0.0000
 20
0.0000
 30
0.0000
 40
0.0080
 41
0.0080
  0
VERTEX
  8
LPF120_SST
 10
1.6083
 20
1.5208
 30
0.0000
  0
VERTEX
  8
LPF120_SST
 10
1.5792
 20
1.5208
 30
0.0000
  0
SEQEND
  0
POLYLINE
  8
LPF120_SST
 66
1
 10
0.0000
 20
0.0000
 30
0.0000
 40
0.0080
 41
0.0080
  0
VERTEX
  8
LPF120_SST
 10
1.5791
 20
1.5208
 30
0.0000
  0
VERTEX
  8
LPF120_SST
 10
1.5792
 20
1.5708
 30
0.0000
  0
SEQEND
  0
POLYLINE
  8
LPF120_SST
 66
1
 10
0.0000
 20
0.0000
 30
0.0000
 40
0.0080
 41
0.0080
  0
VERTEX
  8
LPF120_SST
 10
5.9355
 20
2.5945
 30
0.0000
  0
VERTEX
  8
LPF120_SST
 10
5.8689
 20
2.5945
 30
0.0000
  0
VERTEX
  8
LPF120_SST
 10
5.8800
 20
2.6168
 30
0.0000
  0
VERTEX
  8
LPF120_SST
 10
5.9244
 20
2.6612
 30
0.0000
  0
VERTEX
  8
LPF120_SST
 10
5.9355
 20
2.6834
 30
0.0000
  0
VERTEX
  8
LPF120_SST
 10
5.8689
 20
2.6834
 30
0.0000
  0
SEQEND
  0
POLYLINE
  8
LPF120_SST
 66
1
 10
0.0000
 20
0.0000
 30
0.0000
 40
0.0080
 41
0.0080
  0
VERTEX
  8
LPF120_SST
 10
5.8418
 20
2.6612
 30
0.0000
  0
VERTEX
  8
LPF120_SST
 10
5.7529
 20
2.6612
 30
0.0000
  0
SEQEND
  0
POLYLINE
  8
LPF120_SST
 66
1
 10
0.0000
 20
0.0000
 30
0.0000
 40
0.0080
 41
0.0080
  0
VERTEX
  8
LPF120_SST
 10
5.8418
 20
2.5945
 30
0.0000
  0
VERTEX
  8
LPF120_SST
 10
5.8418
 20
2.7279
 30
0.0000
  0
SEQEND
  0
POLYLINE
  8
LPF120_SST
 66
1
 10
0.0000
 20
0.0000
 30
0.0000
 40
0.0080
 41
0.0080
  0
VERTEX
  8
LPF120_SST
 10
5.7529
 20
2.5945
 30
0.0000
  0
VERTEX
  8
LPF120_SST
 10
5.7529
 20
2.7279
 30
0.0000
  0
SEQEND
  0
POLYLINE
  8
LPF120_SST
 66
1
 10
0.0000
 20
0.0000
 30
0.0000
 40
0.0080
 41
0.0080
  0
VERTEX
  8
LPF120_SST
 10
5.7258
 20
2.5945
 30
0.0000
  0
VERTEX
  8
LPF120_SST
 10
5.7258
 20
2.7279
 30
0.0000
  0
VERTEX
  8
LPF120_SST
 10
5.7035
 20
2.7057
 30
0.0000
  0
VERTEX
  8
LPF120_SST
 10
5.6813
 20
2.6612
 30
0.0000
  0
VERTEX
  8
LPF120_SST
 10
5.6591
 20
2.7057
 30
0.0000
  0
VERTEX
  8
LPF120_SST
 10
5.6369
 20
2.7279
 30
0.0000
  0
VERTEX
  8
LPF120_SST
 10
5.6369
 20
2.5945
 30
0.0000
  0
SEQEND
  0
POLYLINE
  8
LPF120_SST
 66
1
 10
0.0000
 20
0.0000
 30
0.0000
 40
0.0080
 41
0.0080
  0
VERTEX
  8
LPF120_SST
 10
5.5986
 20
2.6612
 30
0.0000
  0
VERTEX
  8
LPF120_SST
 10
5.6098
 20
2.6834
 30
0.0000
  0
VERTEX
  8
LPF120_SST
 10
5.6098
 20
2.7057
 30
0.0000
  0
VERTEX
  8
LPF120_SST
 10
5.5986
 20
2.7279
 30
0.0000
  0
VERTEX
  8
LPF120_SST
 10
5.5320
 20
2.7279
 30
0.0000
  0
VERTEX
  8
LPF120_SST
 10
5.5209
 20
2.7057
 30
0.0000
  0
VERTEX
  8
LPF120_SST
 10
5.5209
 20
2.6834
 30
0.0000
  0
VERTEX
  8
LPF120_SST
 10
5.5320
 20
2.6612
 30
0.0000
  0
VERTEX
  8
LPF120_SST
 10
5.5986
 20
2.6612
 30
0.0000
  0
VERTEX
  8
LPF120_SST
 10
5.6098
 20
2.6390
 30
0.0000
  0
VERTEX
  8
LPF120_SST
 10
5.6098
 20
2.6168
 30
0.0000
  0
VERTEX
  8
LPF120_SST
 10
5.5986
 20
2.5945
 30
0.0000
  0
VERTEX
  8
LPF120_SST
 10
5.5320
 20
2.5945
 30
0.0000
  0
VERTEX
  8
LPF120_SST
 10
5.5209
 20
2.6168
 30
0.0000
  0
VERTEX
  8
LPF120_SST
 10
5.5209
 20
2.6390
 30
0.0000
  0
VERTEX
  8
LPF120_SST
 10
5.5320
 20
2.6612
 30
0.0000
  0
SEQEND
  0
POLYLINE
  8
LPF120_SST
 66
1
 10
0.0000
 20
0.0000
 30
0.0000
 40
0.0080
 41
0.0080
  0
VERTEX
  8
LPF120_SST
 10
5.4382
 20
2.5945
 30
0.0000
  0
VERTEX
  8
LPF120_SST
 10
5.4160
 20
2.6168
 30
0.0000
  0
VERTEX
  8
LPF120_SST
 10
5.4049
 20
2.6390
 30
0.0000
  0
VERTEX
  8
LPF120_SST
 10
5.4049
 20
2.6834
 30
0.0000
  0
VERTEX
  8
LPF120_SST
 10
5.4160
 20
2.7057
 30
0.0000
  0
VERTEX
  8
LPF120_SST
 10
5.4382
 20
2.7279
 30
0.0000
  0
VERTEX
  8
LPF120_SST
 10
5.4604
 20
2.7279
 30
0.0000
  0
VERTEX
  8
LPF120_SST
 10
5.4826
 20
2.7057
 30
0.0000
  0
VERTEX
  8
LPF120_SST
 10
5.4938
 20
2.6834
 30
0.0000
  0
VERTEX
  8
LPF120_SST
 10
5.4938
 20
2.6390
 30
0.0000
  0
VERTEX
  8
LPF120_SST
 10
5.4826
 20
2.6168
 30
0.0000
  0
VERTEX
  8
LPF120_SST
 10
5.4604
 20
2.5945
 30
0.0000
  0
VERTEX
  8
LPF120_SST
 10
5.4382
 20
2.5945
 30
0.0000
  0
SEQEND
  0
POLYLINE
  8
LPF120_SST
 66
1
 10
0.0000
 20
0.0000
 30
0.0000
 40
0.0080
 41
0.0080
  0
VERTEX
  8
LPF120_SST
 10
5.3778
 20
2.5945
 30
0.0000
  0
VERTEX
  8
LPF120_SST
 10
5.3333
 20
2.5945
 30
0.0000
  0
SEQEND
  0
POLYLINE
  8
LPF120_SST
 66
1
 10
0.0000
 20
0.0000
 30
0.0000
 40
0.0080
 41
0.0080
  0
VERTEX
  8
LPF120_SST
 10
5.3555
 20
2.5945
 30
0.0000
  0
VERTEX
  8
LPF120_SST
 10
5.3555
 20
2.7279
 30
0.0000
  0
VERTEX
  8
LPF120_SST
 10
5.3333
 20
2.7057
 30
0.0000
  0
SEQEND
  0
POLYLINE
  8
LPF120_SST
 66
1
 10
0.0000
 20
0.0000
 30
0.0000
 40
0.0080
 41
0.0080
  0
VERTEX
  8
LPF120_SST
 10
5.2840
 20
2.6612
 30
0.0000
  0
VERTEX
  8
LPF120_SST
 10
5.1951
 20
2.6612
 30
0.0000
  0
SEQEND
  0
POLYLINE
  8
LPF120_SST
 66
1
 10
0.0000
 20
0.0000
 30
0.0000
 40
0.0080
 41
0.0080
  0
VERTEX
  8
LPF120_SST
 10
5.1569
 20
2.6612
 30
0.0000
  0
VERTEX
  8
LPF120_SST
 10
5.1680
 20
2.6834
 30
0.0000
  0
VERTEX
  8
LPF120_SST
 10
5.1680
 20
2.7057
 30
0.0000
  0
VERTEX
  8
LPF120_SST
 10
5.1569
 20
2.7279
 30
0.0000
  0
VERTEX
  8
LPF120_SST
 10
5.0902
 20
2.7279
 30
0.0000
  0
VERTEX
  8
LPF120_SST
 10
5.0791
 20
2.7057
 30
0.0000
  0
VERTEX
  8
LPF120_SST
 10
5.0791
 20
2.6834
 30
0.0000
  0
VERTEX
  8
LPF120_SST
 10
5.0902
 20
2.6612
 30
0.0000
  0
VERTEX
  8
LPF120_SST
 10
5.1569
 20
2.6612
 30
0.0000
  0
VERTEX
  8
LPF120_SST
 10
5.1680
 20
2.6390
 30
0.0000
  0
VERTEX
  8
LPF120_SST
 10
5.1680
 20
2.6168
 30
0.0000
  0
VERTEX
  8
LPF120_SST
 10
5.1569
 20
2.5945
 30
0.0000
  0
VERTEX
  8
LPF120_SST
 10
5.0902
 20
2.5945
 30
0.0000
  0
VERTEX
  8
LPF120_SST
 10
5.0791
 20
2.6168
 30
0.0000
  0
VERTEX
  8
LPF120_SST
 10
5.0791
 20
2.6390
 30
0.0000
  0
VERTEX
  8
LPF120_SST
 10
5.0902
 20
2.6612
 30
0.0000
  0
SEQEND
  0
POLYLINE
  8
LPF120_SST
 66
1
 10
0.0000
 20
0.0000
 30
0.0000
 40
0.0080
 41
0.0080
  0
VERTEX
  8
LPF120_SST
 10
5.0409
 20
2.6612
 30
0.0000
  0
VERTEX
  8
LPF120_SST
 10
5.0520
 20
2.6834
 30
0.0000
  0
VERTEX
  8
LPF120_SST
 10
5.0520
 20
2.7057
 30
0.0000
  0
VERTEX
  8
LPF120_SST
 10
5.0409
 20
2.7279
 30
0.0000
  0
VERTEX
  8
LPF120_SST
 10
4.9742
 20
2.7279
 30
0.0000
  0
VERTEX
  8
LPF120_SST
 10
4.9631
 20
2.7057
 30
0.0000
  0
VERTEX
  8
LPF120_SST
 10
4.9631
 20
2.6834
 30
0.0000
  0
VERTEX
  8
LPF120_SST
 10
4.9742
 20
2.6612
 30
0.0000
  0
VERTEX
  8
LPF120_SST
 10
5.0409
 20
2.6612
 30
0.0000
  0
VERTEX
  8
LPF120_SST
 10
5.0520
 20
2.6390
 30
0.0000
  0
VERTEX
  8
LPF120_SST
 10
5.0520
 20
2.6168
 30
0.0000
  0
VERTEX
  8
LPF120_SST
 10
5.0409
 20
2.5945
 30
0.0000
  0
VERTEX
  8
LPF120_SST
 10
4.9742
 20
2.5945
 30
0.0000
  0
VERTEX
  8
LPF120_SST
 10
4.9631
 20
2.6168
 30
0.0000
  0
VERTEX
  8
LPF120_SST
 10
4.9631
 20
2.6390
 30
0.0000
  0
VERTEX
  8
LPF120_SST
 10
4.9742
 20
2.6612
 30
0.0000
  0
SEQEND
  0
POLYLINE
  8
LPF120_SST
 66
1
 10
0.0000
 20
0.0000
 30
0.0000
 40
0.0080
 41
0.0080
  0
VERTEX
  8
LPF120_SST
 10
6.6819
 20
2.4684
 30
0.0000
  0
VERTEX
  8
LPF120_SST
 10
6.6375
 20
2.4684
 30
0.0000
  0
VERTEX
  8
LPF120_SST
 10
6.6264
 20
2.4462
 30
0.0000
  0
VERTEX
  8
LPF120_SST
 10
6.6042
 20
2.4462
 30
0.0000
  0
SEQEND
  0
POLYLINE
  8
LPF120_SST
 66
1
 10
0.0000
 20
0.0000
 30
0.0000
 40
0.0080
 41
0.0080
  0
VERTEX
  8
LPF120_SST
 10
6.6042
 20
2.4684
 30
0.0000
  0
VERTEX
  8
LPF120_SST
 10
6.6042
 20
2.3795
 30
0.0000
  0
SEQEND
  0
POLYLINE
  8
LPF120_SST
 66
1
 10
0.0000
 20
0.0000
 30
0.0000
 40
0.0080
 41
0.0080
  0
VERTEX
  8
LPF120_SST
 10
6.5659
 20
2.3795
 30
0.0000
  0
VERTEX
  8
LPF120_SST
 10
6.4993
 20
2.3795
 30
0.0000
  0
VERTEX
  8
LPF120_SST
 10
6.4882
 20
2.4018
 30
0.0000
  0
VERTEX
  8
LPF120_SST
 10
6.4882
 20
2.4462
 30
0.0000
  0
VERTEX
  8
LPF120_SST
 10
6.4993
 20
2.4684
 30
0.0000
  0
VERTEX
  8
LPF120_SST
 10
6.5659
 20
2.4684
 30
0.0000
  0
VERTEX
  8
LPF120_SST
 10
6.5771
 20
2.4462
 30
0.0000
  0
VERTEX
  8
LPF120_SST
 10
6.5771
 20
2.4240
 30
0.0000
  0
VERTEX
  8
LPF120_SST
 10
6.4882
 20
2.4240
 30
0.0000
  0
SEQEND
  0
POLYLINE
  8
LPF120_SST
 66
1
 10
0.0000
 20
0.0000
 30
0.0000
 40
0.0080
 41
0.0080
  0
VERTEX
  8
LPF120_SST
 10
6.4499
 20
2.4684
 30
0.0000
  0
VERTEX
  8
LPF120_SST
 10
6.3833
 20
2.4684
 30
0.0000
  0
SEQEND
  0
POLYLINE
  8
LPF120_SST
 66
1
 10
0.0000
 20
0.0000
 30
0.0000
 40
0.0080
 41
0.0080
  0
VERTEX
  8
LPF120_SST
 10
6.4611
 20
2.3795
 30
0.0000
  0
VERTEX
  8
LPF120_SST
 10
6.4166
 20
2.3795
 30
0.0000
  0
VERTEX
  8
LPF120_SST
 10
6.4055
 20
2.4018
 30
0.0000
  0
VERTEX
  8
LPF120_SST
 10
6.4055
 20
2.5129
 30
0.0000
  0
SEQEND
  0
POLYLINE
  8
LPF120_SST
 66
1
 10
0.0000
 20
0.0000
 30
0.0000
 40
0.0080
 41
0.0080
  0
VERTEX
  8
LPF120_SST
 10
6.3562
 20
2.3795
 30
0.0000
  0
VERTEX
  8
LPF120_SST
 10
6.3117
 20
2.3795
 30
0.0000
  0
SEQEND
  0
POLYLINE
  8
LPF120_SST
 66
1
 10
0.0000
 20
0.0000
 30
0.0000
 40
0.0080
 41
0.0080
  0
VERTEX
  8
LPF120_SST
 10
6.3340
 20
2.3795
 30
0.0000
  0
VERTEX
  8
LPF120_SST
 10
6.3340
 20
2.5129
 30
0.0000
  0
VERTEX
  8
LPF120_SST
 10
6.3117
 20
2.5129
 30
0.0000
  0
SEQEND
  0
POLYLINE
  8
LPF120_SST
 66
1
 10
0.0000
 20
0.0000
 30
0.0000
 40
0.0080
 41
0.0080
  0
VERTEX
  8
LPF120_SST
 10
6.2512
 20
2.5128
 30
0.0000
  0
VERTEX
  8
LPF120_SST
 10
6.2512
 20
2.5130
 30
0.0000
  0
VERTEX
  8
LPF120_SST
 10
6.2514
 20
2.5130
 30
0.0000
  0
VERTEX
  8
LPF120_SST
 10
6.2514
 20
2.5128
 30
0.0000
  0
VERTEX
  8
LPF120_SST
 10
6.2512
 20
2.5128
 30
0.0000
  0
SEQEND
  0
POLYLINE
  8
LPF120_SST
 66
1
 10
0.0000
 20
0.0000
 30
0.0000
 40
0.0080
 41
0.0080
  0
VERTEX
  8
LPF120_SST
 10
6.2735
 20
2.3795
 30
0.0000
  0
VERTEX
  8
LPF120_SST
 10
6.2291
 20
2.3795
 30
0.0000
  0
SEQEND
  0
POLYLINE
  8
LPF120_SST
 66
1
 10
0.0000
 20
0.0000
 30
0.0000
 40
0.0080
 41
0.0080
  0
VERTEX
  8
LPF120_SST
 10
6.2513
 20
2.3795
 30
0.0000
  0
VERTEX
  8
LPF120_SST
 10
6.2513
 20
2.4684
 30
0.0000
  0
VERTEX
  8
LPF120_SST
 10
6.2291
 20
2.4684
 30
0.0000
  0
SEQEND
  0
POLYLINE
  8
LPF120_SST
 66
1
 10
0.0000
 20
0.0000
 30
0.0000
 40
0.0080
 41
0.0080
  0
VERTEX
  8
LPF120_SST
 10
6.1686
 20
2.4462
 30
0.0000
  0
VERTEX
  8
LPF120_SST
 10
6.1020
 20
2.4462
 30
0.0000
  0
SEQEND
  0
POLYLINE
  8
LPF120_SST
 66
1
 10
0.0000
 20
0.0000
 30
0.0000
 40
0.0080
 41
0.0080
  0
VERTEX
  8
LPF120_SST
 10
6.1020
 20
2.3795
 30
0.0000
  0
VERTEX
  8
LPF120_SST
 10
6.1020
 20
2.5129
 30
0.0000
  0
VERTEX
  8
LPF120_SST
 10
6.1909
 20
2.5129
 30
0.0000
  0
SEQEND
  0
POLYLINE
  8
LPF120_SST
 66
1
 10
0.0000
 20
0.0000
 30
0.0000
 40
0.0080
 41
0.0080
  0
VERTEX
  8
LPF120_SST
 10
5.8978
 20
2.4684
 30
0.0000
  0
VERTEX
  8
LPF120_SST
 10
5.8311
 20
2.4684
 30
0.0000
  0
VERTEX
  8
LPF120_SST
 10
5.8200
 20
2.4462
 30
0.0000
  0
VERTEX
  8
LPF120_SST
 10
5.8311
 20
2.4240
 30
0.0000
  0
VERTEX
  8
LPF120_SST
 10
5.8978
 20
2.4240
 30
0.0000
  0
VERTEX
  8
LPF120_SST
 10
5.9089
 20
2.4018
 30
0.0000
  0
VERTEX
  8
LPF120_SST
 10
5.8978
 20
2.3795
 30
0.0000
  0
VERTEX
  8
LPF120_SST
 10
5.8311
 20
2.3795
 30
0.0000
  0
SEQEND
  0
POLYLINE
  8
LPF120_SST
 66
1
 10
0.0000
 20
0.0000
 30
0.0000
 40
0.0080
 41
0.0080
  0
VERTEX
  8
LPF120_SST
 10
5.7818
 20
2.4684
 30
0.0000
  0
VERTEX
  8
LPF120_SST
 10
5.7151
 20
2.4684
 30
0.0000
  0
VERTEX
  8
LPF120_SST
 10
5.7040
 20
2.4462
 30
0.0000
  0
VERTEX
  8
LPF120_SST
 10
5.7151
 20
2.4240
 30
0.0000
  0
VERTEX
  8
LPF120_SST
 10
5.7818
 20
2.4240
 30
0.0000
  0
VERTEX
  8
LPF120_SST
 10
5.7929
 20
2.4018
 30
0.0000
  0
VERTEX
  8
LPF120_SST
 10
5.7818
 20
2.3795
 30
0.0000
  0
VERTEX
  8
LPF120_SST
 10
5.7151
 20
2.3795
 30
0.0000
  0
SEQEND
  0
POLYLINE
  8
LPF120_SST
 66
1
 10
0.0000
 20
0.0000
 30
0.0000
 40
0.0080
 41
0.0080
  0
VERTEX
  8
LPF120_SST
 10
5.6102
 20
2.4684
 30
0.0000
  0
VERTEX
  8
LPF120_SST
 10
5.6546
 20
2.4684
 30
0.0000
  0
VERTEX
  8
LPF120_SST
 10
5.6658
 20
2.4462
 30
0.0000
  0
VERTEX
  8
LPF120_SST
 10
5.6658
 20
2.4018
 30
0.0000
  0
VERTEX
  8
LPF120_SST
 10
5.6769
 20
2.3795
 30
0.0000
  0
VERTEX
  8
LPF120_SST
 10
5.5991
 20
2.3795
 30
0.0000
  0
VERTEX
  8
LPF120_SST
 10
5.5880
 20
2.4018
 30
0.0000
  0
VERTEX
  8
LPF120_SST
 10
5.5991
 20
2.4240
 30
0.0000
  0
VERTEX
  8
LPF120_SST
 10
5.6658
 20
2.4240
 30
0.0000
  0
SEQEND
  0
POLYLINE
  8
LPF120_SST
 66
1
 10
0.0000
 20
0.0000
 30
0.0000
 40
0.0080
 41
0.0080
  0
VERTEX
  8
LPF120_SST
 10
5.4720
 20
2.4462
 30
0.0000
  0
VERTEX
  8
LPF120_SST
 10
5.5386
 20
2.4462
 30
0.0000
  0
VERTEX
  8
LPF120_SST
 10
5.5609
 20
2.4684
 30
0.0000
  0
VERTEX
  8
LPF120_SST
 10
5.5609
 20
2.4907
 30
0.0000
  0
VERTEX
  8
LPF120_SST
 10
5.5386
 20
2.5129
 30
0.0000
  0
VERTEX
  8
LPF120_SST
 10
5.4720
 20
2.5129
 30
0.0000
  0
VERTEX
  8
LPF120_SST
 10
5.4720
 20
2.3795
 30
0.0000
  0
SEQEND
  0
POLYLINE
  8
LPF120_SST
 66
1
 10
0.0000
 20
0.0000
 30
0.0000
 40
0.0080
 41
0.0080
  0
VERTEX
  8
LPF120_SST
 10
5.2789
 20
2.4684
 30
0.0000
  0
VERTEX
  8
LPF120_SST
 10
5.2789
 20
2.4018
 30
0.0000
  0
VERTEX
  8
LPF120_SST
 10
5.2678
 20
2.3795
 30
0.0000
  0
VERTEX
  8
LPF120_SST
 10
5.2344
 20
2.4462
 30
0.0000
  0
VERTEX
  8
LPF120_SST
 10
5.2011
 20
2.3795
 30
0.0000
  0
VERTEX
  8
LPF120_SST
 10
5.1900
 20
2.4018
 30
0.0000
  0
VERTEX
  8
LPF120_SST
 10
5.1900
 20
2.4684
 30
0.0000
  0
SEQEND
  0
POLYLINE
  8
LPF120_SST
 66
1
 10
0.0000
 20
0.0000
 30
0.0000
 40
0.0080
 41
0.0080
  0
VERTEX
  8
LPF120_SST
 10
5.0851
 20
2.3795
 30
0.0000
  0
VERTEX
  8
LPF120_SST
 10
5.0740
 20
2.4018
 30
0.0000
  0
VERTEX
  8
LPF120_SST
 10
5.0740
 20
2.4462
 30
0.0000
  0
VERTEX
  8
LPF120_SST
 10
5.0851
 20
2.4684
 30
0.0000
  0
VERTEX
  8
LPF120_SST
 10
5.1518
 20
2.4684
 30
0.0000
  0
VERTEX
  8
LPF120_SST
 10
5.1629
 20
2.4462
 30
0.0000
  0
VERTEX
  8
LPF120_SST
 10
5.1629
 20
2.4018
 30
0.0000
  0
VERTEX
  8
LPF120_SST
 10
5.1518
 20
2.3795
 30
0.0000
  0
VERTEX
  8
LPF120_SST
 10
5.0851
 20
2.3795
 30
0.0000
  0
SEQEND
  0
POLYLINE
  8
LPF120_SST
 66
1
 10
0.0000
 20
0.0000
 30
0.0000
 40
0.0080
 41
0.0080
  0
VERTEX
  8
LPF120_SST
 10
5.0469
 20
2.3795
 30
0.0000
  0
VERTEX
  8
LPF120_SST
 10
4.9691
 20
2.3795
 30
0.0000
  0
VERTEX
  8
LPF120_SST
 10
4.9691
 20
2.5129
 30
0.0000
  0
SEQEND
  0
POLYLINE
  8
LPF120_SST
 66
1
 10
0.0000
 20
0.0000
 30
0.0000
 40
0.0080
 41
0.0080
  0
VERTEX
  8
LPF120_SST
 10
4.7760
 20
2.5129
 30
0.0000
  0
VERTEX
  8
LPF120_SST
 10
4.7760
 20
2.4018
 30
0.0000
  0
VERTEX
  8
LPF120_SST
 10
4.7649
 20
2.3795
 30
0.0000
  0
VERTEX
  8
LPF120_SST
 10
4.7315
 20
2.4462
 30
0.0000
  0
SEQEND
  0
POLYLINE
  8
LPF120_SST
 66
1
 10
0.0000
 20
0.0000
 30
0.0000
 40
0.0080
 41
0.0080
  0
VERTEX
  8
LPF120_SST
 10
4.7315
 20
2.4684
 30
0.0000
  0
VERTEX
  8
LPF120_SST
 10
4.7315
 20
2.4462
 30
0.0000
  0
VERTEX
  8
LPF120_SST
 10
4.6982
 20
2.3795
 30
0.0000
  0
VERTEX
  8
LPF120_SST
 10
4.6871
 20
2.4018
 30
0.0000
  0
VERTEX
  8
LPF120_SST
 10
4.6871
 20
2.5129
 30
0.0000
  0
SEQEND
  0
POLYLINE
  8
LPF120_SST
 66
1
 10
0.0000
 20
0.0000
 30
0.0000
 40
0.0080
 41
0.0080
  0
VERTEX
  8
LPF120_SST
 10
4.6600
 20
2.3795
 30
0.0000
  0
VERTEX
  8
LPF120_SST
 10
4.5933
 20
2.4462
 30
0.0000
  0
VERTEX
  8
LPF120_SST
 10
4.6600
 20
2.5129
 30
0.0000
  0
SEQEND
  0
POLYLINE
  8
LPF120_SST
 66
1
 10
0.0000
 20
0.0000
 30
0.0000
 40
0.0080
 41
0.0080
  0
VERTEX
  8
LPF120_SST
 10
4.5711
 20
2.5129
 30
0.0000
  0
VERTEX
  8
LPF120_SST
 10
4.5711
 20
2.3795
 30
0.0000
  0
SEQEND
  0
POLYLINE
  8
LPF120_SST
 66
1
 10
0.0000
 20
0.0000
 30
0.0000
 40
0.0080
 41
0.0080
  0
VERTEX
  8
LPF120_SST
 10
4.5440
 20
2.3795
 30
0.0000
  0
VERTEX
  8
LPF120_SST
 10
4.4551
 20
2.3795
 30
0.0000
  0
VERTEX
  8
LPF120_SST
 10
4.5440
 20
2.4684
 30
0.0000
  0
VERTEX
  8
LPF120_SST
 10
4.5440
 20
2.4907
 30
0.0000
  0
VERTEX
  8
LPF120_SST
 10
4.5329
 20
2.5129
 30
0.0000
  0
VERTEX
  8
LPF120_SST
 10
4.4662
 20
2.5129
 30
0.0000
  0
VERTEX
  8
LPF120_SST
 10
4.4551
 20
2.4907
 30
0.0000
  0
SEQEND
  0
POLYLINE
  8
LPF120_SST
 66
1
 10
0.0000
 20
0.0000
 30
0.0000
 40
0.0080
 41
0.0080
  0
VERTEX
  8
LPF120_SST
 10
1.2577
 20
1.9248
 30
0.0000
  0
VERTEX
  8
LPF120_SST
 10
1.0629
 20
1.8123
 30
0.0000
  0
VERTEX
  8
LPF120_SST
 10
1.6003
 20
0.8813
 30
0.0000
  0
VERTEX
  8
LPF120_SST
 10
2.3798
 20
1.3313
 30
0.0000
  0
VERTEX
  8
LPF120_SST
 10
1.8423
 20
2.2623
 30
0.0000
  0
VERTEX
  8
LPF120_SST
 10
1.2577
 20
1.9248
 30
0.0000
  0
SEQEND
  0
POLYLINE
  8
LPF120_SST
 66
1
 10
0.0000
 20
0.0000
 30
0.0000
 40
0.0080
 41
0.0080
  0
VERTEX
  8
LPF120_SST
 10
8.8558
 20
1.9245
 30
0.0000
  0
VERTEX
  8
LPF120_SST
 10
8.6609
 20
1.8120
 30
0.0000
  0
VERTEX
  8
LPF120_SST
 10
9.1984
 20
0.8811
 30
0.0000
  0
VERTEX
  8
LPF120_SST
 10
9.9779
 20
1.3311
 30
0.0000
  0
VERTEX
  8
LPF120_SST
 10
9.4404
 20
2.2620
 30
0.0000
  0
VERTEX
  8
LPF120_SST
 10
8.8558
 20
1.9245
 30
0.0000
  0
SEQEND
  0
POLYLINE
  8
LPF120_SST
 66
1
 10
0.0000
 20
0.0000
 30
0.0000
 40
0.0080
 41
0.0080
  0
VERTEX
  8
LPF120_SST
 10
7.2942
 20
1.1534
 30
0.0000
  0
VERTEX
  8
LPF120_SST
 10
6.7096
 20
0.8159
 30
0.0000
  0
VERTEX
  8
LPF120_SST
 10
6.0846
 20
1.8985
 30
0.0000
  0
VERTEX
  8
LPF120_SST
 10
6.8641
 20
2.3485
 30
0.0000
  0
VERTEX
  8
LPF120_SST
 10
7.4890
 20
1.2659
 30
0.0000
  0
VERTEX
  8
LPF120_SST
 10
7.2942
 20
1.1534
 30
0.0000
  0
SEQEND
  0
POLYLINE
  8
LPF120_SST
 66
1
 10
0.0000
 20
0.0000
 30
0.0000
 40
0.0080
 41
0.0080
  0
VERTEX
  8
LPF120_SST
 10
4.7823
 20
1.1534
 30
0.0000
  0
VERTEX
  8
LPF120_SST
 10
4.1978
 20
0.8159
 30
0.0000
  0
VERTEX
  8
LPF120_SST
 10
3.5728
 20
1.8985
 30
0.0000
  0
VERTEX
  8
LPF120_SST
 10
4.3522
 20
2.3485
 30
0.0000
  0
VERTEX
  8
LPF120_SST
 10
4.9772
 20
1.2659
 30
0.0000
  0
VERTEX
  8
LPF120_SST
 10
4.7823
 20
1.1534
 30
0.0000
  0
SEQEND
  0
INSERT
  2
ROUND_11
  8
THRUHOLE_TAP
 10
0.1000
 20
0.4750
 30
0.0000
 41
1.0000
 42
1.0000
 50
0.0000
  0
INSERT
  2
ROUND_11
  8
THRUHOLE_TAP
 10
0.1500
 20
2.6500
 30
0.0000
 41
1.0000
 42
1.0000
 50
0.0000
  0
INSERT
  2
ROUND_11
  8
THRUHOLE_TAP
 10
0.3250
 20
0.4750
 30
0.0000
 41
1.0000
 42
1.0000
 50
0.0000
  0
INSERT
  2
ROUND_11
  8
THRUHOLE_TAP
 10
0.4250
 20
0.0750
 30
0.0000
 41
1.0000
 42
1.0000
 50
0.0000
  0
INSERT
  2
ROUND_11
  8
THRUHOLE_TAP
 10
0.4500
 20
0.2750
 30
0.0000
 41
1.0000
 42
1.0000
 50
0.0000
  0
INSERT
  2
ROUND_11
  8
THRUHOLE_TAP
 10
0.4750
 20
2.6500
 30
0.0000
 41
1.0000
 42
1.0000
 50
0.0000
  0
INSERT
  2
ROUND_11
  8
THRUHOLE_TAP
 10
0.4750
 20
2.8750
 30
0.0000
 41
1.0000
 42
1.0000
 50
0.0000
  0
INSERT
  2
ROUND_11
  8
THRUHOLE_TAP
 10
0.4750
 20
3.0500
 30
0.0000
 41
1.0000
 42
1.0000
 50
0.0000
  0
INSERT
  2
ROUND_11
  8
THRUHOLE_TAP
 10
0.5500
 20
0.4750
 30
0.0000
 41
1.0000
 42
1.0000
 50
0.0000
  0
INSERT
  2
ROUND_11
  8
THRUHOLE_TAP
 10
0.6000
 20
0.0750
 30
0.0000
 41
1.0000
 42
1.0000
 50
0.0000
  0
INSERT
  2
ROUND_11
  8
THRUHOLE_TAP
 10
0.6500
 20
2.7500
 30
0.0000
 41
1.0000
 42
1.0000
 50
0.0000
  0
INSERT
  2
ROUND_11
  8
THRUHOLE_TAP
 10
0.6500
 20
2.9500
 30
0.0000
 41
1.0000
 42
1.0000
 50
0.0000
  0
INSERT
  2
ROUND_11
  8
THRUHOLE_TAP
 10
0.7250
 20
0.2750
 30
0.0000
 41
1.0000
 42
1.0000
 50
0.0000
  0
INSERT
  2
ROUND_11
  8
THRUHOLE_TAP
 10
0.8000
 20
2.6500
 30
0.0000
 41
1.0000
 42
1.0000
 50
0.0000
  0
INSERT
  2
ROUND_11
  8
THRUHOLE_TAP
 10
0.8000
 20
2.9000
 30
0.0000
 41
1.0000
 42
1.0000
 50
0.0000
  0
INSERT
  2
ROUND_11
  8
THRUHOLE_TAP
 10
0.8000
 20
3.0500
 30
0.0000
 41
1.0000
 42
1.0000
 50
0.0000
  0
INSERT
  2
ROUND_11
  8
THRUHOLE_TAP
 10
0.8500
 20
0.0750
 30
0.0000
 41
1.0000
 42
1.0000
 50
0.0000
  0
INSERT
  2
ROUND_11
  8
THRUHOLE_TAP
 10
0.8500
 20
0.4750
 30
0.0000
 41
1.0000
 42
1.0000
 50
0.0000
  0
INSERT
  2
ROUND_11
  8
THRUHOLE_TAP
 10
10.2250
 20
0.0750
 30
0.0000
 41
1.0000
 42
1.0000
 50
0.0000
  0
INSERT
  2
ROUND_11
  8
THRUHOLE_TAP
 10
10.2250
 20
0.3000
 30
0.0000
 41
1.0000
 42
1.0000
 50
0.0000
  0
INSERT
  2
ROUND_11
  8
THRUHOLE_TAP
 10
10.2250
 20
0.5250
 30
0.0000
 41
1.0000
 42
1.0000
 50
0.0000
  0
INSERT
  2
ROUND_11
  8
THRUHOLE_TAP
 10
10.2250
 20
2.6250
 30
0.0000
 41
1.0000
 42
1.0000
 50
0.0000
  0
INSERT
  2
ROUND_11
  8
THRUHOLE_TAP
 10
10.2750
 20
2.8500
 30
0.0000
 41
1.0000
 42
1.0000
 50
0.0000
  0
INSERT
  2
ROUND_11
  8
THRUHOLE_TAP
 10
10.2250
 20
3.0750
 30
0.0000
 41
1.0000
 42
1.0000
 50
0.0000
  0
INSERT
  2
ROUND_11
  8
THRUHOLE_TAP
 10
10.5000
 20
0.0750
 30
0.0000
 41
1.0000
 42
1.0000
 50
0.0000
  0
INSERT
  2
ROUND_11
  8
THRUHOLE_TAP
 10
10.5000
 20
0.3000
 30
0.0000
 41
1.0000
 42
1.0000
 50
0.0000
  0
INSERT
  2
ROUND_11
  8
THRUHOLE_TAP
 10
10.5000
 20
0.5250
 30
0.0000
 41
1.0000
 42
1.0000
 50
0.0000
  0
INSERT
  2
ROUND_11
  8
THRUHOLE_TAP
 10
10.5250
 20
2.6250
 30
0.0000
 41
1.0000
 42
1.0000
 50
0.0000
  0
INSERT
  2
ROUND_11
  8
THRUHOLE_TAP
 10
10.5250
 20
3.0750
 30
0.0000
 41
1.0000
 42
1.0000
 50
0.0000
  0
INSERT
  2
ROUND_11
  8
THRUHOLE_TAP
 10
10.6000
 20
2.8500
 30
0.0000
 41
1.0000
 42
1.0000
 50
0.0000
  0
INSERT
  2
ROUND_11
  8
THRUHOLE_TAP
 10
10.7250
 20
0.5250
 30
0.0000
 41
1.0000
 42
1.0000
 50
0.0000
  0
INSERT
  2
ROUND_11
  8
THRUHOLE_TAP
 10
10.8000
 20
2.6250
 30
0.0000
 41
1.0000
 42
1.0000
 50
0.0000
  0
INSERT
  2
ROUND_11
  8
THRUHOLE_TAP
 10
10.9250
 20
0.5250
 30
0.0000
 41
1.0000
 42
1.0000
 50
0.0000
  0
INSERT
  2
ROUND_11
  8
THRUHOLE_TAP
 10
10.9750
 20
2.6250
 30
0.0000
 41
1.0000
 42
1.0000
 50
0.0000
  0
INSERT
  2
ROUND_10
  8
THRUHOLE_TAP
 10
1.2000
 20
0.2000
 30
0.0000
 41
1.0000
 42
1.0000
 50
0.0000
  0
INSERT
  2
ROUND_10
  8
THRUHOLE_TAP
 10
3.0250
 20
0.2000
 30
0.0000
 41
1.0000
 42
1.0000
 50
0.0000
  0
INSERT
  2
ROUND_10
  8
THRUHOLE_TAP
 10
3.0250
 20
2.9500
 30
0.0000
 41
1.0000
 42
1.0000
 50
0.0000
  0
INSERT
  2
ROUND_10
  8
THRUHOLE_TAP
 10
1.2000
 20
2.9500
 30
0.0000
 41
1.0000
 42
1.0000
 50
0.0000
  0
INSERT
  2
ROUND_10
  8
THRUHOLE_TAP
 10
5.5375
 20
0.2000
 30
0.0000
 41
1.0000
 42
1.0000
 50
0.0000
  0
INSERT
  2
ROUND_10
  8
THRUHOLE_TAP
 10
8.0875
 20
0.2000
 30
0.0000
 41
1.0000
 42
1.0000
 50
0.0000
  0
INSERT
  2
ROUND_10
  8
THRUHOLE_TAP
 10
8.0875
 20
2.9500
 30
0.0000
 41
1.0000
 42
1.0000
 50
0.0000
  0
INSERT
  2
ROUND_10
  8
THRUHOLE_TAP
 10
5.5375
 20
2.9500
 30
0.0000
 41
1.0000
 42
1.0000
 50
0.0000
  0
INSERT
  2
ROUND_10
  8
THRUHOLE_TAP
 10
9.8550
 20
0.2000
 30
0.0000
 41
1.0000
 42
1.0000
 50
0.0000
  0
INSERT
  2
ROUND_10
  8
THRUHOLE_TAP
 10
9.8550
 20
2.9500
 30
0.0000
 41
1.0000
 42
1.0000
 50
0.0000
  0
INSERT
  2
ROUND_12
  8
THRUHOLE_TAP
 10
0.1750
 20
0.1750
 30
0.0000
 41
1.0000
 42
1.0000
 50
0.0000
  0
INSERT
  2
ROUND_12
  8
THRUHOLE_TAP
 10
1.7750
 20
0.1750
 30
0.0000
 41
1.0000
 42
1.0000
 50
0.0000
  0
INSERT
  2
ROUND_12
  8
THRUHOLE_TAP
 10
1.7750
 20
2.9750
 30
0.0000
 41
1.0000
 42
1.0000
 50
0.0000
  0
INSERT
  2
ROUND_12
  8
THRUHOLE_TAP
 10
0.1750
 20
2.9750
 30
0.0000
 41
1.0000
 42
1.0000
 50
0.0000
  0
INSERT
  2
ROUND_12
  8
THRUHOLE_TAP
 10
4.2750
 20
0.1750
 30
0.0000
 41
1.0000
 42
1.0000
 50
0.0000
  0
INSERT
  2
ROUND_12
  8
THRUHOLE_TAP
 10
6.8000
 20
0.1750
 30
0.0000
 41
1.0000
 42
1.0000
 50
0.0000
  0
INSERT
  2
ROUND_12
  8
THRUHOLE_TAP
 10
6.8000
 20
2.9750
 30
0.0000
 41
1.0000
 42
1.0000
 50
0.0000
  0
INSERT
  2
ROUND_12
  8
THRUHOLE_TAP
 10
4.2750
 20
2.9750
 30
0.0000
 41
1.0000
 42
1.0000
 50
0.0000
  0
INSERT
  2
ROUND_12
  8
THRUHOLE_TAP
 10
9.3750
 20
0.1750
 30
0.0000
 41
1.0000
 42
1.0000
 50
0.0000
  0
INSERT
  2
ROUND_12
  8
THRUHOLE_TAP
 10
10.8750
 20
0.1750
 30
0.0000
 41
1.0000
 42
1.0000
 50
0.0000
  0
INSERT
  2
ROUND_12
  8
THRUHOLE_TAP
 10
10.8750
 20
2.9750
 30
0.0000
 41
1.0000
 42
1.0000
 50
0.0000
  0
INSERT
  2
ROUND_12
  8
THRUHOLE_TAP
 10
9.3750
 20
2.9750
 30
0.0000
 41
1.0000
 42
1.0000
 50
0.0000
  0
ENDSEC
  0
EOF
